ISO-10303-21;
HEADER;
FILE_DESCRIPTION( ( 'STEP AP214' ), '1' );
FILE_NAME( '//goodhand-server/Shared Folders/GoodHand Data/Kipp CAD/K1129/K1129.103015.stp', '2020-12-10T10:16:08', ( '' ), ( '' ), ' ', 'PARTsolutions', ' ' );
FILE_SCHEMA( ( 'AUTOMOTIVE_DESIGN { 1 0 10303 214 1 1 1 1 }' ) );
ENDSEC;
DATA;
#1 = MECHANICAL_DESIGN_GEOMETRIC_PRESENTATION_REPRESENTATION( ' ', ( #10, #11, #12, #13, #14, #15, #16, #17, #18, #19, #20, #21 ), #6 );
#2 = PRODUCT_DEFINITION_CONTEXT( '', #22, 'design' );
#3 = APPLICATION_PROTOCOL_DEFINITION( 'international standard', 'automotive_design', 2001, #22 );
#4 = PRODUCT_CATEGORY_RELATIONSHIP( 'NONE', 'NONE', #23, #24 );
#5 = SHAPE_DEFINITION_REPRESENTATION( #25, #26 );
#6 =  ( GEOMETRIC_REPRESENTATION_CONTEXT( 3 )GLOBAL_UNCERTAINTY_ASSIGNED_CONTEXT( ( #29 ) )GLOBAL_UNIT_ASSIGNED_CONTEXT( ( #31, #32, #33 ) )REPRESENTATION_CONTEXT( 'NONE', 'WORKSPACE' ) );
#10 = STYLED_ITEM( '', ( #35 ), #36 );
#11 = STYLED_ITEM( '', ( #37 ), #38 );
#12 = STYLED_ITEM( '', ( #39 ), #40 );
#13 = STYLED_ITEM( '', ( #41 ), #42 );
#14 = STYLED_ITEM( '', ( #43 ), #44 );
#15 = STYLED_ITEM( '', ( #45 ), #46 );
#16 = STYLED_ITEM( '', ( #47 ), #48 );
#17 = STYLED_ITEM( '', ( #49 ), #50 );
#18 = STYLED_ITEM( '', ( #51 ), #52 );
#19 = STYLED_ITEM( '', ( #53 ), #54 );
#20 = STYLED_ITEM( '', ( #55 ), #56 );
#21 = STYLED_ITEM( '', ( #57 ), #58 );
#22 = APPLICATION_CONTEXT( 'core data for automotive mechanical design processes' );
#23 = PRODUCT_CATEGORY( 'part', 'NONE' );
#24 = PRODUCT_RELATED_PRODUCT_CATEGORY( 'detail', ' ', ( #59 ) );
#25 = PRODUCT_DEFINITION_SHAPE( 'NONE', 'NONE', #60 );
#26 = ADVANCED_BREP_SHAPE_REPRESENTATION( '_K1129.103015', ( #61, #62 ), #6 );
#29 = UNCERTAINTY_MEASURE_WITH_UNIT( LENGTH_MEASURE( 0.00100000000000000 ), #31, '', '' );
#31 =  ( CONVERSION_BASED_UNIT( 'MILLIMETRE', #65 )LENGTH_UNIT(  )NAMED_UNIT( #68 ) );
#32 =  ( NAMED_UNIT( #70 )PLANE_ANGLE_UNIT(  )SI_UNIT( $, .RADIAN. ) );
#33 =  ( NAMED_UNIT( #70 )SI_UNIT( $, .STERADIAN. )SOLID_ANGLE_UNIT(  ) );
#35 = PRESENTATION_STYLE_ASSIGNMENT( ( #76 ) );
#36 = ADVANCED_FACE( '', ( #77 ), #78, .F. );
#37 = PRESENTATION_STYLE_ASSIGNMENT( ( #79 ) );
#38 = ADVANCED_FACE( '', ( #80, #81 ), #82, .T. );
#39 = PRESENTATION_STYLE_ASSIGNMENT( ( #83 ) );
#40 = ADVANCED_FACE( '', ( #84, #85 ), #86, .T. );
#41 = PRESENTATION_STYLE_ASSIGNMENT( ( #87 ) );
#42 = ADVANCED_FACE( '', ( #88 ), #89, .F. );
#43 = PRESENTATION_STYLE_ASSIGNMENT( ( #90 ) );
#44 = ADVANCED_FACE( '', ( #91 ), #92, .T. );
#45 = PRESENTATION_STYLE_ASSIGNMENT( ( #93 ) );
#46 = ADVANCED_FACE( '', ( #94 ), #95, .T. );
#47 = PRESENTATION_STYLE_ASSIGNMENT( ( #96 ) );
#48 = ADVANCED_FACE( '', ( #97, #98 ), #99, .F. );
#49 = PRESENTATION_STYLE_ASSIGNMENT( ( #100 ) );
#50 = ADVANCED_FACE( '', ( #101 ), #102, .T. );
#51 = PRESENTATION_STYLE_ASSIGNMENT( ( #103 ) );
#52 = ADVANCED_FACE( '', ( #104, #105 ), #106, .T. );
#53 = PRESENTATION_STYLE_ASSIGNMENT( ( #107 ) );
#54 = ADVANCED_FACE( '', ( #108 ), #109, .T. );
#55 = PRESENTATION_STYLE_ASSIGNMENT( ( #110 ) );
#56 = ADVANCED_FACE( '', ( #111 ), #112, .T. );
#57 = PRESENTATION_STYLE_ASSIGNMENT( ( #113 ) );
#58 = ADVANCED_FACE( '', ( #114 ), #115, .T. );
#59 = PRODUCT( '_K1129.103015', '_K1129.103015', 'PART-_K1129.103015-DESC', ( #116 ) );
#60 = PRODUCT_DEFINITION( 'NONE', 'NONE', #117, #2 );
#61 = MANIFOLD_SOLID_BREP( '_K1129.103015', #118 );
#62 = AXIS2_PLACEMENT_3D( '', #119, #120, #121 );
#65 = LENGTH_MEASURE_WITH_UNIT( LENGTH_MEASURE( 1.00000000000000 ), #122 );
#68 = DIMENSIONAL_EXPONENTS( 1.00000000000000, 0.000000000000000, 0.000000000000000, 0.000000000000000, 0.000000000000000, 0.000000000000000, 0.000000000000000 );
#70 = DIMENSIONAL_EXPONENTS( 0.000000000000000, 0.000000000000000, 0.000000000000000, 0.000000000000000, 0.000000000000000, 0.000000000000000, 0.000000000000000 );
#76 = SURFACE_STYLE_USAGE( .BOTH., #123 );
#77 = FACE_OUTER_BOUND( '', #124, .T. );
#78 = PLANE( '', #125 );
#79 = SURFACE_STYLE_USAGE( .BOTH., #126 );
#80 = FACE_BOUND( '', #127, .T. );
#81 = FACE_OUTER_BOUND( '', #128, .T. );
#82 = CONICAL_SURFACE( '', #129, 14.8271477833000, 0.801106126700000 );
#83 = SURFACE_STYLE_USAGE( .BOTH., #130 );
#84 = FACE_BOUND( '', #131, .T. );
#85 = FACE_OUTER_BOUND( '', #132, .T. );
#86 = CONICAL_SURFACE( '', #133, 15.1728522167000, 0.0314159265000000 );
#87 = SURFACE_STYLE_USAGE( .BOTH., #134 );
#88 = FACE_OUTER_BOUND( '', #135, .T. );
#89 = PLANE( '', #136 );
#90 = SURFACE_STYLE_USAGE( .BOTH., #137 );
#91 = FACE_OUTER_BOUND( '', #138, .T. );
#92 = PLANE( '', #139 );
#93 = SURFACE_STYLE_USAGE( .BOTH., #140 );
#94 = FACE_OUTER_BOUND( '', #141, .T. );
#95 = PLANE( '', #142 );
#96 = SURFACE_STYLE_USAGE( .BOTH., #143 );
#97 = FACE_OUTER_BOUND( '', #144, .T. );
#98 = FACE_BOUND( '', #145, .T. );
#99 = PLANE( '', #146 );
#100 = SURFACE_STYLE_USAGE( .BOTH., #147 );
#101 = FACE_OUTER_BOUND( '', #148, .T. );
#102 = PLANE( '', #149 );
#103 = SURFACE_STYLE_USAGE( .BOTH., #150 );
#104 = FACE_OUTER_BOUND( '', #151, .T. );
#105 = FACE_BOUND( '', #152, .T. );
#106 = CONICAL_SURFACE( '', #153, 14.6885575963000, 0.769690200100000 );
#107 = SURFACE_STYLE_USAGE( .BOTH., #154 );
#108 = FACE_OUTER_BOUND( '', #155, .T. );
#109 = PLANE( '', #156 );
#110 = SURFACE_STYLE_USAGE( .BOTH., #157 );
#111 = FACE_OUTER_BOUND( '', #158, .T. );
#112 = PLANE( '', #159 );
#113 = SURFACE_STYLE_USAGE( .BOTH., #160 );
#114 = FACE_OUTER_BOUND( '', #161, .T. );
#115 = PLANE( '', #162 );
#116 = PRODUCT_CONTEXT( '', #22, 'mechanical' );
#117 = PRODUCT_DEFINITION_FORMATION_WITH_SPECIFIED_SOURCE( ' ', 'NONE', #59, .NOT_KNOWN. );
#118 = CLOSED_SHELL( '', ( #52, #48, #44, #50, #46, #36, #38, #40, #54, #56, #58, #42 ) );
#119 = CARTESIAN_POINT( '', ( 0.000000000000000, 0.000000000000000, 0.000000000000000 ) );
#120 = DIRECTION( '', ( 0.000000000000000, 0.000000000000000, 1.00000000000000 ) );
#121 = DIRECTION( '', ( 1.00000000000000, 0.000000000000000, 0.000000000000000 ) );
#122 =  ( LENGTH_UNIT(  )NAMED_UNIT( #68 )SI_UNIT( .MILLI., .METRE. ) );
#123 = SURFACE_SIDE_STYLE( '', ( #164 ) );
#124 = EDGE_LOOP( '', ( #165 ) );
#125 = AXIS2_PLACEMENT_3D( '', #166, #167, #168 );
#126 = SURFACE_SIDE_STYLE( '', ( #169 ) );
#127 = EDGE_LOOP( '', ( #170 ) );
#128 = EDGE_LOOP( '', ( #171 ) );
#129 = AXIS2_PLACEMENT_3D( '', #172, #173, #174 );
#130 = SURFACE_SIDE_STYLE( '', ( #175 ) );
#131 = EDGE_LOOP( '', ( #176 ) );
#132 = EDGE_LOOP( '', ( #177 ) );
#133 = AXIS2_PLACEMENT_3D( '', #178, #179, #180 );
#134 = SURFACE_SIDE_STYLE( '', ( #181 ) );
#135 = EDGE_LOOP( '', ( #182, #183, #184, #185, #186, #187 ) );
#136 = AXIS2_PLACEMENT_3D( '', #188, #189, #190 );
#137 = SURFACE_SIDE_STYLE( '', ( #191 ) );
#138 = EDGE_LOOP( '', ( #192, #193, #194, #195 ) );
#139 = AXIS2_PLACEMENT_3D( '', #196, #197, #198 );
#140 = SURFACE_SIDE_STYLE( '', ( #199 ) );
#141 = EDGE_LOOP( '', ( #200, #201, #202, #203 ) );
#142 = AXIS2_PLACEMENT_3D( '', #204, #205, #206 );
#143 = SURFACE_SIDE_STYLE( '', ( #207 ) );
#144 = EDGE_LOOP( '', ( #208 ) );
#145 = EDGE_LOOP( '', ( #209, #210, #211, #212, #213, #214 ) );
#146 = AXIS2_PLACEMENT_3D( '', #215, #216, #217 );
#147 = SURFACE_SIDE_STYLE( '', ( #218 ) );
#148 = EDGE_LOOP( '', ( #219, #220, #221, #222 ) );
#149 = AXIS2_PLACEMENT_3D( '', #223, #224, #225 );
#150 = SURFACE_SIDE_STYLE( '', ( #226 ) );
#151 = EDGE_LOOP( '', ( #227 ) );
#152 = EDGE_LOOP( '', ( #228 ) );
#153 = AXIS2_PLACEMENT_3D( '', #229, #230, #231 );
#154 = SURFACE_SIDE_STYLE( '', ( #232 ) );
#155 = EDGE_LOOP( '', ( #233, #234, #235, #236 ) );
#156 = AXIS2_PLACEMENT_3D( '', #237, #238, #239 );
#157 = SURFACE_SIDE_STYLE( '', ( #240 ) );
#158 = EDGE_LOOP( '', ( #241, #242, #243, #244 ) );
#159 = AXIS2_PLACEMENT_3D( '', #245, #246, #247 );
#160 = SURFACE_SIDE_STYLE( '', ( #248 ) );
#161 = EDGE_LOOP( '', ( #249, #250, #251, #252 ) );
#162 = AXIS2_PLACEMENT_3D( '', #253, #254, #255 );
#164 = SURFACE_STYLE_FILL_AREA( #256 );
#165 = ORIENTED_EDGE( '', *, *, #257, .T. );
#166 = CARTESIAN_POINT( '', ( 12.0000000000000, 14.3114424037399, 0.000000000000000 ) );
#167 = DIRECTION( '', ( -1.00000000000000, 0.000000000000000, 0.000000000000000 ) );
#168 = DIRECTION( '', ( 0.000000000000000, 0.000000000000000, 1.00000000000000 ) );
#169 = SURFACE_STYLE_FILL_AREA( #258 );
#170 = ORIENTED_EDGE( '', *, *, #257, .F. );
#171 = ORIENTED_EDGE( '', *, *, #259, .T. );
#172 = CARTESIAN_POINT( '', ( 11.5002467198171, 0.000000000000000, 0.000000000000000 ) );
#173 = DIRECTION( '', ( -1.00000000000000, 0.000000000000000, -0.000000000000000 ) );
#174 = DIRECTION( '', ( 0.000000000000000, 0.000000000000000, 1.00000000000000 ) );
#175 = SURFACE_STYLE_FILL_AREA( #260 );
#176 = ORIENTED_EDGE( '', *, *, #259, .F. );
#177 = ORIENTED_EDGE( '', *, *, #261, .T. );
#178 = CARTESIAN_POINT( '', ( 0.499753280182867, 0.000000000000000, 0.000000000000000 ) );
#179 = DIRECTION( '', ( -1.00000000000000, 0.000000000000000, -0.000000000000000 ) );
#180 = DIRECTION( '', ( 0.000000000000000, 0.000000000000000, 1.00000000000000 ) );
#181 = SURFACE_STYLE_FILL_AREA( #262 );
#182 = ORIENTED_EDGE( '', *, *, #263, .F. );
#183 = ORIENTED_EDGE( '', *, *, #264, .F. );
#184 = ORIENTED_EDGE( '', *, *, #265, .F. );
#185 = ORIENTED_EDGE( '', *, *, #266, .F. );
#186 = ORIENTED_EDGE( '', *, *, #267, .F. );
#187 = ORIENTED_EDGE( '', *, *, #268, .F. );
#188 = CARTESIAN_POINT( '', ( 6.00000000000000, 0.000000000000000, 0.000000000000000 ) );
#189 = DIRECTION( '', ( 1.00000000000000, 0.000000000000000, 0.000000000000000 ) );
#190 = DIRECTION( '', ( 0.000000000000000, 0.000000000000000, -1.00000000000000 ) );
#191 = SURFACE_STYLE_FILL_AREA( #269 );
#192 = ORIENTED_EDGE( '', *, *, #270, .F. );
#193 = ORIENTED_EDGE( '', *, *, #271, .F. );
#194 = ORIENTED_EDGE( '', *, *, #268, .T. );
#195 = ORIENTED_EDGE( '', *, *, #272, .T. );
#196 = CARTESIAN_POINT( '', ( 6.00000000000000, -4.90747728811182, 8.50000000000000 ) );
#197 = DIRECTION( '', ( 0.000000000000000, 0.866025403784439, -0.500000000000000 ) );
#198 = DIRECTION( '', ( 0.000000000000000, 0.500000000000000, 0.866025403784439 ) );
#199 = SURFACE_STYLE_FILL_AREA( #273 );
#200 = ORIENTED_EDGE( '', *, *, #274, .F. );
#201 = ORIENTED_EDGE( '', *, *, #275, .F. );
#202 = ORIENTED_EDGE( '', *, *, #263, .T. );
#203 = ORIENTED_EDGE( '', *, *, #271, .T. );
#204 = CARTESIAN_POINT( '', ( 6.00000000000000, 4.90747728811182, 8.50000000000000 ) );
#205 = DIRECTION( '', ( 0.000000000000000, 0.000000000000000, -1.00000000000000 ) );
#206 = DIRECTION( '', ( -1.00000000000000, 0.000000000000000, 0.000000000000000 ) );
#207 = SURFACE_STYLE_FILL_AREA( #276 );
#208 = ORIENTED_EDGE( '', *, *, #277, .F. );
#209 = ORIENTED_EDGE( '', *, *, #274, .T. );
#210 = ORIENTED_EDGE( '', *, *, #270, .T. );
#211 = ORIENTED_EDGE( '', *, *, #278, .T. );
#212 = ORIENTED_EDGE( '', *, *, #279, .T. );
#213 = ORIENTED_EDGE( '', *, *, #280, .T. );
#214 = ORIENTED_EDGE( '', *, *, #281, .T. );
#215 = CARTESIAN_POINT( '', ( 8.58940013943978E-16, 0.000000000000000, 0.000000000000000 ) );
#216 = DIRECTION( '', ( 1.00000000000000, 0.000000000000000, -0.000000000000000 ) );
#217 = DIRECTION( '', ( -0.000000000000000, 0.000000000000000, -1.00000000000000 ) );
#218 = SURFACE_STYLE_FILL_AREA( #282 );
#219 = ORIENTED_EDGE( '', *, *, #278, .F. );
#220 = ORIENTED_EDGE( '', *, *, #272, .F. );
#221 = ORIENTED_EDGE( '', *, *, #267, .T. );
#222 = ORIENTED_EDGE( '', *, *, #283, .T. );
#223 = CARTESIAN_POINT( '', ( 6.00000000000000, -9.81495457622364, 0.000000000000000 ) );
#224 = DIRECTION( '', ( -0.000000000000000, 0.866025403784439, 0.500000000000000 ) );
#225 = DIRECTION( '', ( 0.000000000000000, -0.500000000000000, 0.866025403784439 ) );
#226 = SURFACE_STYLE_FILL_AREA( #284 );
#227 = ORIENTED_EDGE( '', *, *, #261, .F. );
#228 = ORIENTED_EDGE( '', *, *, #277, .T. );
#229 = CARTESIAN_POINT( '', ( 1.73472347597681E-15, 0.000000000000000, 0.000000000000000 ) );
#230 = DIRECTION( '', ( 1.00000000000000, -0.000000000000000, -0.000000000000000 ) );
#231 = DIRECTION( '', ( -0.000000000000000, 0.000000000000000, -1.00000000000000 ) );
#232 = SURFACE_STYLE_FILL_AREA( #285 );
#233 = ORIENTED_EDGE( '', *, *, #279, .F. );
#234 = ORIENTED_EDGE( '', *, *, #283, .F. );
#235 = ORIENTED_EDGE( '', *, *, #266, .T. );
#236 = ORIENTED_EDGE( '', *, *, #286, .T. );
#237 = CARTESIAN_POINT( '', ( 6.00000000000000, -4.90747728811182, -8.50000000000000 ) );
#238 = DIRECTION( '', ( 0.000000000000000, 0.000000000000000, 1.00000000000000 ) );
#239 = DIRECTION( '', ( 1.00000000000000, 0.000000000000000, -0.000000000000000 ) );
#240 = SURFACE_STYLE_FILL_AREA( #287 );
#241 = ORIENTED_EDGE( '', *, *, #280, .F. );
#242 = ORIENTED_EDGE( '', *, *, #286, .F. );
#243 = ORIENTED_EDGE( '', *, *, #265, .T. );
#244 = ORIENTED_EDGE( '', *, *, #288, .T. );
#245 = CARTESIAN_POINT( '', ( 6.00000000000000, 4.90747728811182, -8.50000000000000 ) );
#246 = DIRECTION( '', ( 0.000000000000000, -0.866025403784439, 0.500000000000000 ) );
#247 = DIRECTION( '', ( 0.000000000000000, -0.500000000000000, -0.866025403784439 ) );
#248 = SURFACE_STYLE_FILL_AREA( #289 );
#249 = ORIENTED_EDGE( '', *, *, #281, .F. );
#250 = ORIENTED_EDGE( '', *, *, #288, .F. );
#251 = ORIENTED_EDGE( '', *, *, #264, .T. );
#252 = ORIENTED_EDGE( '', *, *, #275, .T. );
#253 = CARTESIAN_POINT( '', ( 6.00000000000000, 9.81495457622364, 0.000000000000000 ) );
#254 = DIRECTION( '', ( 0.000000000000000, -0.866025403784439, -0.500000000000000 ) );
#255 = DIRECTION( '', ( 0.000000000000000, 0.500000000000000, -0.866025403784439 ) );
#256 = FILL_AREA_STYLE( '', ( #290 ) );
#257 = EDGE_CURVE( '', #291, #291, #292, .T. );
#258 = FILL_AREA_STYLE( '', ( #293 ) );
#259 = EDGE_CURVE( '', #294, #294, #295, .T. );
#260 = FILL_AREA_STYLE( '', ( #296 ) );
#261 = EDGE_CURVE( '', #297, #297, #298, .T. );
#262 = FILL_AREA_STYLE( '', ( #299 ) );
#263 = EDGE_CURVE( '', #300, #301, #302, .T. );
#264 = EDGE_CURVE( '', #303, #300, #304, .T. );
#265 = EDGE_CURVE( '', #305, #303, #306, .T. );
#266 = EDGE_CURVE( '', #307, #305, #308, .T. );
#267 = EDGE_CURVE( '', #309, #307, #310, .T. );
#268 = EDGE_CURVE( '', #301, #309, #311, .T. );
#269 = FILL_AREA_STYLE( '', ( #312 ) );
#270 = EDGE_CURVE( '', #313, #314, #315, .T. );
#271 = EDGE_CURVE( '', #301, #313, #316, .T. );
#272 = EDGE_CURVE( '', #309, #314, #317, .T. );
#273 = FILL_AREA_STYLE( '', ( #318 ) );
#274 = EDGE_CURVE( '', #319, #313, #320, .T. );
#275 = EDGE_CURVE( '', #300, #319, #321, .T. );
#276 = FILL_AREA_STYLE( '', ( #322 ) );
#277 = EDGE_CURVE( '', #323, #323, #324, .T. );
#278 = EDGE_CURVE( '', #314, #325, #326, .T. );
#279 = EDGE_CURVE( '', #325, #327, #328, .T. );
#280 = EDGE_CURVE( '', #327, #329, #330, .T. );
#281 = EDGE_CURVE( '', #329, #319, #331, .T. );
#282 = FILL_AREA_STYLE( '', ( #332 ) );
#283 = EDGE_CURVE( '', #307, #325, #333, .T. );
#284 = FILL_AREA_STYLE( '', ( #334 ) );
#285 = FILL_AREA_STYLE( '', ( #335 ) );
#286 = EDGE_CURVE( '', #305, #327, #336, .T. );
#287 = FILL_AREA_STYLE( '', ( #337 ) );
#288 = EDGE_CURVE( '', #303, #329, #338, .T. );
#289 = FILL_AREA_STYLE( '', ( #339 ) );
#290 = FILL_AREA_STYLE_COLOUR( '', #340 );
#291 = VERTEX_POINT( '', #341 );
#292 = CIRCLE( '', #342, 14.3114424037000 );
#293 = FILL_AREA_STYLE_COLOUR( '', #343 );
#294 = VERTEX_POINT( '', #344 );
#295 = CIRCLE( '', #345, 14.8271477833000 );
#296 = FILL_AREA_STYLE_COLOUR( '', #346 );
#297 = VERTEX_POINT( '', #347 );
#298 = CIRCLE( '', #348, 15.1728522167000 );
#299 = FILL_AREA_STYLE_COLOUR( '', #349 );
#300 = VERTEX_POINT( '', #350 );
#301 = VERTEX_POINT( '', #351 );
#302 = LINE( '', #352, #353 );
#303 = VERTEX_POINT( '', #354 );
#304 = LINE( '', #355, #356 );
#305 = VERTEX_POINT( '', #357 );
#306 = LINE( '', #358, #359 );
#307 = VERTEX_POINT( '', #360 );
#308 = LINE( '', #361, #362 );
#309 = VERTEX_POINT( '', #363 );
#310 = LINE( '', #364, #365 );
#311 = LINE( '', #366, #367 );
#312 = FILL_AREA_STYLE_COLOUR( '', #368 );
#313 = VERTEX_POINT( '', #369 );
#314 = VERTEX_POINT( '', #370 );
#315 = LINE( '', #371, #372 );
#316 = LINE( '', #373, #374 );
#317 = LINE( '', #375, #376 );
#318 = FILL_AREA_STYLE_COLOUR( '', #377 );
#319 = VERTEX_POINT( '', #378 );
#320 = LINE( '', #379, #380 );
#321 = LINE( '', #381, #382 );
#322 = FILL_AREA_STYLE_COLOUR( '', #383 );
#323 = VERTEX_POINT( '', #384 );
#324 = CIRCLE( '', #385, 14.6885575963000 );
#325 = VERTEX_POINT( '', #386 );
#326 = LINE( '', #387, #388 );
#327 = VERTEX_POINT( '', #389 );
#328 = LINE( '', #390, #391 );
#329 = VERTEX_POINT( '', #392 );
#330 = LINE( '', #393, #394 );
#331 = LINE( '', #395, #396 );
#332 = FILL_AREA_STYLE_COLOUR( '', #397 );
#333 = LINE( '', #398, #399 );
#334 = FILL_AREA_STYLE_COLOUR( '', #400 );
#335 = FILL_AREA_STYLE_COLOUR( '', #401 );
#336 = LINE( '', #402, #403 );
#337 = FILL_AREA_STYLE_COLOUR( '', #404 );
#338 = LINE( '', #405, #406 );
#339 = FILL_AREA_STYLE_COLOUR( '', #407 );
#340 = COLOUR_RGB( '', 0.689999997600000, 0.689999997600000, 0.689999997600000 );
#341 = CARTESIAN_POINT( '', ( 12.0000000000000, 0.000000000000000, -14.3114424037399 ) );
#342 = AXIS2_PLACEMENT_3D( '', #408, #409, #410 );
#343 = COLOUR_RGB( '', 0.689999997600000, 0.689999997600000, 0.689999997600000 );
#344 = CARTESIAN_POINT( '', ( 11.5002467198171, 0.000000000000000, -14.8271477832790 ) );
#345 = AXIS2_PLACEMENT_3D( '', #411, #412, #413 );
#346 = COLOUR_RGB( '', 0.689999997600000, 0.689999997600000, 0.689999997600000 );
#347 = CARTESIAN_POINT( '', ( 0.499753280182867, 0.000000000000000, -15.1728522167210 ) );
#348 = AXIS2_PLACEMENT_3D( '', #414, #415, #416 );
#349 = COLOUR_RGB( '', 0.689999997600000, 0.689999997600000, 0.689999997600000 );
#350 = CARTESIAN_POINT( '', ( 6.00000000000000, 4.90747728811182, 8.50000000000000 ) );
#351 = CARTESIAN_POINT( '', ( 6.00000000000000, -4.90747728811182, 8.50000000000000 ) );
#352 = CARTESIAN_POINT( '', ( 6.00000000000000, 4.90747728811182, 8.50000000000000 ) );
#353 = VECTOR( '', #417, 1000.00000000000 );
#354 = CARTESIAN_POINT( '', ( 6.00000000000000, 9.81495457622364, 0.000000000000000 ) );
#355 = CARTESIAN_POINT( '', ( 6.00000000000000, 9.81495457622364, 0.000000000000000 ) );
#356 = VECTOR( '', #418, 1000.00000000000 );
#357 = CARTESIAN_POINT( '', ( 6.00000000000000, 4.90747728811182, -8.50000000000000 ) );
#358 = CARTESIAN_POINT( '', ( 6.00000000000000, 4.90747728811182, -8.50000000000000 ) );
#359 = VECTOR( '', #419, 1000.00000000000 );
#360 = CARTESIAN_POINT( '', ( 6.00000000000000, -4.90747728811182, -8.50000000000000 ) );
#361 = CARTESIAN_POINT( '', ( 6.00000000000000, -4.90747728811182, -8.50000000000000 ) );
#362 = VECTOR( '', #420, 1000.00000000000 );
#363 = CARTESIAN_POINT( '', ( 6.00000000000000, -9.81495457622364, 0.000000000000000 ) );
#364 = CARTESIAN_POINT( '', ( 6.00000000000000, -9.81495457622364, 0.000000000000000 ) );
#365 = VECTOR( '', #421, 1000.00000000000 );
#366 = CARTESIAN_POINT( '', ( 6.00000000000000, -4.90747728811182, 8.50000000000000 ) );
#367 = VECTOR( '', #422, 1000.00000000000 );
#368 = COLOUR_RGB( '', 0.689999997600000, 0.689999997600000, 0.689999997600000 );
#369 = CARTESIAN_POINT( '', ( 0.000000000000000, -4.90747728811182, 8.50000000000000 ) );
#370 = CARTESIAN_POINT( '', ( 0.000000000000000, -9.81495457622364, 0.000000000000000 ) );
#371 = CARTESIAN_POINT( '', ( 0.000000000000000, -4.90747728811182, 8.50000000000000 ) );
#372 = VECTOR( '', #423, 1000.00000000000 );
#373 = CARTESIAN_POINT( '', ( 6.00000000000000, -4.90747728811182, 8.50000000000000 ) );
#374 = VECTOR( '', #424, 1000.00000000000 );
#375 = CARTESIAN_POINT( '', ( 6.00000000000000, -9.81495457622364, 0.000000000000000 ) );
#376 = VECTOR( '', #425, 1000.00000000000 );
#377 = COLOUR_RGB( '', 0.689999997600000, 0.689999997600000, 0.689999997600000 );
#378 = CARTESIAN_POINT( '', ( 8.58940013943978E-16, 4.90747728811182, 8.50000000000000 ) );
#379 = CARTESIAN_POINT( '', ( 0.000000000000000, 4.90747728811182, 8.50000000000000 ) );
#380 = VECTOR( '', #426, 1000.00000000000 );
#381 = CARTESIAN_POINT( '', ( 6.00000000000000, 4.90747728811182, 8.50000000000000 ) );
#382 = VECTOR( '', #427, 1000.00000000000 );
#383 = COLOUR_RGB( '', 0.689999997600000, 0.689999997600000, 0.689999997600000 );
#384 = CARTESIAN_POINT( '', ( 1.73472347597681E-15, 0.000000000000000, -14.6885575962601 ) );
#385 = AXIS2_PLACEMENT_3D( '', #428, #429, #430 );
#386 = CARTESIAN_POINT( '', ( 0.000000000000000, -4.90747728811182, -8.50000000000000 ) );
#387 = CARTESIAN_POINT( '', ( 0.000000000000000, -9.81495457622364, 0.000000000000000 ) );
#388 = VECTOR( '', #431, 1000.00000000000 );
#389 = CARTESIAN_POINT( '', ( 0.000000000000000, 4.90747728811182, -8.50000000000000 ) );
#390 = CARTESIAN_POINT( '', ( 0.000000000000000, -4.90747728811182, -8.50000000000000 ) );
#391 = VECTOR( '', #432, 1000.00000000000 );
#392 = CARTESIAN_POINT( '', ( 0.000000000000000, 9.81495457622364, 0.000000000000000 ) );
#393 = CARTESIAN_POINT( '', ( 0.000000000000000, 4.90747728811182, -8.50000000000000 ) );
#394 = VECTOR( '', #433, 1000.00000000000 );
#395 = CARTESIAN_POINT( '', ( 0.000000000000000, 9.81495457622364, 0.000000000000000 ) );
#396 = VECTOR( '', #434, 1000.00000000000 );
#397 = COLOUR_RGB( '', 0.689999997600000, 0.689999997600000, 0.689999997600000 );
#398 = CARTESIAN_POINT( '', ( 6.00000000000000, -4.90747728811182, -8.50000000000000 ) );
#399 = VECTOR( '', #435, 1000.00000000000 );
#400 = COLOUR_RGB( '', 0.689999997600000, 0.689999997600000, 0.689999997600000 );
#401 = COLOUR_RGB( '', 0.689999997600000, 0.689999997600000, 0.689999997600000 );
#402 = CARTESIAN_POINT( '', ( 6.00000000000000, 4.90747728811182, -8.50000000000000 ) );
#403 = VECTOR( '', #436, 1000.00000000000 );
#404 = COLOUR_RGB( '', 0.689999997600000, 0.689999997600000, 0.689999997600000 );
#405 = CARTESIAN_POINT( '', ( 6.00000000000000, 9.81495457622364, 0.000000000000000 ) );
#406 = VECTOR( '', #437, 1000.00000000000 );
#407 = COLOUR_RGB( '', 0.689999997600000, 0.689999997600000, 0.689999997600000 );
#408 = CARTESIAN_POINT( '', ( 12.0000000000000, 0.000000000000000, 0.000000000000000 ) );
#409 = DIRECTION( '', ( 1.00000000000000, 0.000000000000000, -0.000000000000000 ) );
#410 = DIRECTION( '', ( -0.000000000000000, 0.000000000000000, -1.00000000000000 ) );
#411 = CARTESIAN_POINT( '', ( 11.5002467198171, 0.000000000000000, 0.000000000000000 ) );
#412 = DIRECTION( '', ( 1.00000000000000, 0.000000000000000, -0.000000000000000 ) );
#413 = DIRECTION( '', ( -0.000000000000000, 0.000000000000000, -1.00000000000000 ) );
#414 = CARTESIAN_POINT( '', ( 0.499753280182867, 0.000000000000000, 0.000000000000000 ) );
#415 = DIRECTION( '', ( 1.00000000000000, 0.000000000000000, -0.000000000000000 ) );
#416 = DIRECTION( '', ( -0.000000000000000, 0.000000000000000, -1.00000000000000 ) );
#417 = DIRECTION( '', ( 0.000000000000000, -1.00000000000000, 0.000000000000000 ) );
#418 = DIRECTION( '', ( 0.000000000000000, -0.500000000000000, 0.866025403784439 ) );
#419 = DIRECTION( '', ( 0.000000000000000, 0.500000000000000, 0.866025403784439 ) );
#420 = DIRECTION( '', ( 0.000000000000000, 1.00000000000000, 0.000000000000000 ) );
#421 = DIRECTION( '', ( 0.000000000000000, 0.500000000000000, -0.866025403784439 ) );
#422 = DIRECTION( '', ( 0.000000000000000, -0.500000000000000, -0.866025403784439 ) );
#423 = DIRECTION( '', ( 0.000000000000000, -0.500000000000000, -0.866025403784439 ) );
#424 = DIRECTION( '', ( -1.00000000000000, -0.000000000000000, -0.000000000000000 ) );
#425 = DIRECTION( '', ( -1.00000000000000, -0.000000000000000, -0.000000000000000 ) );
#426 = DIRECTION( '', ( 0.000000000000000, -1.00000000000000, 0.000000000000000 ) );
#427 = DIRECTION( '', ( -1.00000000000000, -0.000000000000000, -0.000000000000000 ) );
#428 = CARTESIAN_POINT( '', ( 1.73472347597681E-15, 0.000000000000000, 0.000000000000000 ) );
#429 = DIRECTION( '', ( 1.00000000000000, 0.000000000000000, -0.000000000000000 ) );
#430 = DIRECTION( '', ( -0.000000000000000, 0.000000000000000, -1.00000000000000 ) );
#431 = DIRECTION( '', ( 0.000000000000000, 0.500000000000000, -0.866025403784439 ) );
#432 = DIRECTION( '', ( 0.000000000000000, 1.00000000000000, 0.000000000000000 ) );
#433 = DIRECTION( '', ( 0.000000000000000, 0.500000000000000, 0.866025403784439 ) );
#434 = DIRECTION( '', ( 0.000000000000000, -0.500000000000000, 0.866025403784439 ) );
#435 = DIRECTION( '', ( -1.00000000000000, -0.000000000000000, -0.000000000000000 ) );
#436 = DIRECTION( '', ( -1.00000000000000, -0.000000000000000, -0.000000000000000 ) );
#437 = DIRECTION( '', ( -1.00000000000000, -0.000000000000000, -0.000000000000000 ) );
ENDSEC;
END-ISO-10303-21;
