ISO-10303-21;
HEADER;
FILE_DESCRIPTION( ( 'STEP AP214' ), '1' );
FILE_NAME( '//goodhand-server/Shared Folders/GoodHand Data/Kipp CAD/K0219/K0219.18003.stp', '2020-11-26T12:16:04', ( '' ), ( '' ), ' ', 'PARTsolutions', ' ' );
FILE_SCHEMA( ( 'AUTOMOTIVE_DESIGN { 1 0 10303 214 1 1 1 1 }' ) );
ENDSEC;
DATA;
#1 = MECHANICAL_DESIGN_GEOMETRIC_PRESENTATION_REPRESENTATION( ' ', ( #10, #11, #12, #13, #14, #15, #16, #17, #18, #19, #20, #21, #22, #23, #24, #25, #26 ), #6 );
#2 = PRODUCT_DEFINITION_CONTEXT( '', #27, 'design' );
#3 = APPLICATION_PROTOCOL_DEFINITION( 'international standard', 'automotive_design', 2001, #27 );
#4 = PRODUCT_CATEGORY_RELATIONSHIP( 'NONE', 'NONE', #28, #29 );
#5 = SHAPE_DEFINITION_REPRESENTATION( #30, #31 );
#6 =  ( GEOMETRIC_REPRESENTATION_CONTEXT( 3 )GLOBAL_UNCERTAINTY_ASSIGNED_CONTEXT( ( #34 ) )GLOBAL_UNIT_ASSIGNED_CONTEXT( ( #36, #37, #38 ) )REPRESENTATION_CONTEXT( 'NONE', 'WORKSPACE' ) );
#10 = STYLED_ITEM( '', ( #40 ), #41 );
#11 = STYLED_ITEM( '', ( #42 ), #43 );
#12 = STYLED_ITEM( '', ( #44 ), #45 );
#13 = STYLED_ITEM( '', ( #46 ), #47 );
#14 = STYLED_ITEM( '', ( #48 ), #49 );
#15 = STYLED_ITEM( '', ( #50 ), #51 );
#16 = STYLED_ITEM( '', ( #52 ), #53 );
#17 = STYLED_ITEM( '', ( #54 ), #55 );
#18 = STYLED_ITEM( '', ( #56 ), #57 );
#19 = STYLED_ITEM( '', ( #58 ), #59 );
#20 = STYLED_ITEM( '', ( #60 ), #61 );
#21 = STYLED_ITEM( '', ( #62 ), #63 );
#22 = STYLED_ITEM( '', ( #64 ), #65 );
#23 = STYLED_ITEM( '', ( #66 ), #67 );
#24 = STYLED_ITEM( '', ( #68 ), #69 );
#25 = STYLED_ITEM( '', ( #70 ), #71 );
#26 = STYLED_ITEM( '', ( #72 ), #73 );
#27 = APPLICATION_CONTEXT( 'core data for automotive mechanical design processes' );
#28 = PRODUCT_CATEGORY( 'part', 'NONE' );
#29 = PRODUCT_RELATED_PRODUCT_CATEGORY( 'detail', ' ', ( #74 ) );
#30 = PRODUCT_DEFINITION_SHAPE( 'NONE', 'NONE', #75 );
#31 = ADVANCED_BREP_SHAPE_REPRESENTATION( '_K0219.18003', ( #76, #77 ), #6 );
#34 = UNCERTAINTY_MEASURE_WITH_UNIT( LENGTH_MEASURE( 0.00100000000000000 ), #36, '', '' );
#36 =  ( CONVERSION_BASED_UNIT( 'MILLIMETRE', #80 )LENGTH_UNIT(  )NAMED_UNIT( #83 ) );
#37 =  ( NAMED_UNIT( #85 )PLANE_ANGLE_UNIT(  )SI_UNIT( $, .RADIAN. ) );
#38 =  ( NAMED_UNIT( #85 )SI_UNIT( $, .STERADIAN. )SOLID_ANGLE_UNIT(  ) );
#40 = PRESENTATION_STYLE_ASSIGNMENT( ( #91 ) );
#41 = ADVANCED_FACE( '', ( #92, #93 ), #94, .F. );
#42 = PRESENTATION_STYLE_ASSIGNMENT( ( #95 ) );
#43 = ADVANCED_FACE( '', ( #96, #97 ), #98, .F. );
#44 = PRESENTATION_STYLE_ASSIGNMENT( ( #99 ) );
#45 = ADVANCED_FACE( '', ( #100, #101 ), #102, .F. );
#46 = PRESENTATION_STYLE_ASSIGNMENT( ( #103 ) );
#47 = ADVANCED_FACE( '', ( #104, #105 ), #106, .F. );
#48 = PRESENTATION_STYLE_ASSIGNMENT( ( #107 ) );
#49 = ADVANCED_FACE( '', ( #108, #109 ), #110, .T. );
#50 = PRESENTATION_STYLE_ASSIGNMENT( ( #111 ) );
#51 = ADVANCED_FACE( '', ( #112, #113 ), #114, .F. );
#52 = PRESENTATION_STYLE_ASSIGNMENT( ( #115 ) );
#53 = ADVANCED_FACE( '', ( #116, #117 ), #118, .T. );
#54 = PRESENTATION_STYLE_ASSIGNMENT( ( #119 ) );
#55 = ADVANCED_FACE( '', ( #120, #121 ), #122, .F. );
#56 = PRESENTATION_STYLE_ASSIGNMENT( ( #123 ) );
#57 = ADVANCED_FACE( '', ( #124, #125 ), #126, .T. );
#58 = PRESENTATION_STYLE_ASSIGNMENT( ( #127 ) );
#59 = ADVANCED_FACE( '', ( #128, #129 ), #130, .T. );
#60 = PRESENTATION_STYLE_ASSIGNMENT( ( #131 ) );
#61 = ADVANCED_FACE( '', ( #132, #133 ), #134, .T. );
#62 = PRESENTATION_STYLE_ASSIGNMENT( ( #135 ) );
#63 = ADVANCED_FACE( '', ( #136, #137 ), #138, .T. );
#64 = PRESENTATION_STYLE_ASSIGNMENT( ( #139 ) );
#65 = ADVANCED_FACE( '', ( #140, #141 ), #142, .F. );
#66 = PRESENTATION_STYLE_ASSIGNMENT( ( #143 ) );
#67 = ADVANCED_FACE( '', ( #144, #145 ), #146, .F. );
#68 = PRESENTATION_STYLE_ASSIGNMENT( ( #147 ) );
#69 = ADVANCED_FACE( '', ( #148, #149 ), #150, .T. );
#70 = PRESENTATION_STYLE_ASSIGNMENT( ( #151 ) );
#71 = ADVANCED_FACE( '', ( #152, #153 ), #154, .T. );
#72 = PRESENTATION_STYLE_ASSIGNMENT( ( #155 ) );
#73 = ADVANCED_FACE( '', ( #156, #157 ), #158, .T. );
#74 = PRODUCT( '_K0219.18003', '_K0219.18003', 'PART-_K0219.18003-DESC', ( #159 ) );
#75 = PRODUCT_DEFINITION( 'NONE', 'NONE', #160, #2 );
#76 = MANIFOLD_SOLID_BREP( '_K0219.18003', #161 );
#77 = AXIS2_PLACEMENT_3D( '', #162, #163, #164 );
#80 = LENGTH_MEASURE_WITH_UNIT( LENGTH_MEASURE( 1.00000000000000 ), #165 );
#83 = DIMENSIONAL_EXPONENTS( 1.00000000000000, 0.000000000000000, 0.000000000000000, 0.000000000000000, 0.000000000000000, 0.000000000000000, 0.000000000000000 );
#85 = DIMENSIONAL_EXPONENTS( 0.000000000000000, 0.000000000000000, 0.000000000000000, 0.000000000000000, 0.000000000000000, 0.000000000000000, 0.000000000000000 );
#91 = SURFACE_STYLE_USAGE( .BOTH., #166 );
#92 = FACE_OUTER_BOUND( '', #167, .T. );
#93 = FACE_OUTER_BOUND( '', #168, .T. );
#94 = CYLINDRICAL_SURFACE( '', #169, 2.06700000000000 );
#95 = SURFACE_STYLE_USAGE( .BOTH., #170 );
#96 = FACE_OUTER_BOUND( '', #171, .T. );
#97 = FACE_OUTER_BOUND( '', #172, .T. );
#98 = CYLINDRICAL_SURFACE( '', #173, 2.06700000000000 );
#99 = SURFACE_STYLE_USAGE( .BOTH., #174 );
#100 = FACE_BOUND( '', #175, .T. );
#101 = FACE_OUTER_BOUND( '', #176, .T. );
#102 = CONICAL_SURFACE( '', #177, 2.50000000000000, 0.785398163400000 );
#103 = SURFACE_STYLE_USAGE( .BOTH., #178 );
#104 = FACE_OUTER_BOUND( '', #179, .T. );
#105 = FACE_BOUND( '', #180, .T. );
#106 = PLANE( '', #181 );
#107 = SURFACE_STYLE_USAGE( .BOTH., #182 );
#108 = FACE_OUTER_BOUND( '', #183, .T. );
#109 = FACE_OUTER_BOUND( '', #184, .T. );
#110 = TOROIDAL_SURFACE( '', #185, 10.0000000000000, 5.00000000000000 );
#111 = SURFACE_STYLE_USAGE( .BOTH., #186 );
#112 = FACE_BOUND( '', #187, .T. );
#113 = FACE_OUTER_BOUND( '', #188, .T. );
#114 = CONICAL_SURFACE( '', #189, 2.06700000000000, 1.04719755120000 );
#115 = SURFACE_STYLE_USAGE( .BOTH., #190 );
#116 = FACE_OUTER_BOUND( '', #191, .T. );
#117 = FACE_OUTER_BOUND( '', #192, .T. );
#118 = CYLINDRICAL_SURFACE( '', #193, 5.00000000000000 );
#119 = SURFACE_STYLE_USAGE( .BOTH., #194 );
#120 = FACE_OUTER_BOUND( '', #195, .T. );
#121 = FACE_BOUND( '', #196, .T. );
#122 = PLANE( '', #197 );
#123 = SURFACE_STYLE_USAGE( .BOTH., #198 );
#124 = FACE_OUTER_BOUND( '', #199, .T. );
#125 = FACE_OUTER_BOUND( '', #200, .T. );
#126 = CYLINDRICAL_SURFACE( '', #201, 5.00000000000000 );
#127 = SURFACE_STYLE_USAGE( .BOTH., #202 );
#128 = FACE_OUTER_BOUND( '', #203, .T. );
#129 = FACE_OUTER_BOUND( '', #204, .T. );
#130 = TOROIDAL_SURFACE( '', #205, 10.0000000000000, 5.00000000000000 );
#131 = SURFACE_STYLE_USAGE( .BOTH., #206 );
#132 = FACE_OUTER_BOUND( '', #207, .T. );
#133 = FACE_OUTER_BOUND( '', #208, .T. );
#134 = CYLINDRICAL_SURFACE( '', #209, 5.00000000000000 );
#135 = SURFACE_STYLE_USAGE( .BOTH., #210 );
#136 = FACE_OUTER_BOUND( '', #211, .T. );
#137 = FACE_OUTER_BOUND( '', #212, .T. );
#138 = CYLINDRICAL_SURFACE( '', #213, 5.00000000000000 );
#139 = SURFACE_STYLE_USAGE( .BOTH., #214 );
#140 = FACE_BOUND( '', #215, .T. );
#141 = FACE_OUTER_BOUND( '', #216, .T. );
#142 = CONICAL_SURFACE( '', #217, 2.06700000000000, 1.04719755120000 );
#143 = SURFACE_STYLE_USAGE( .BOTH., #218 );
#144 = FACE_BOUND( '', #219, .T. );
#145 = FACE_OUTER_BOUND( '', #220, .T. );
#146 = CONICAL_SURFACE( '', #221, 2.50000000000000, 0.785398163400000 );
#147 = SURFACE_STYLE_USAGE( .BOTH., #222 );
#148 = FACE_OUTER_BOUND( '', #223, .T. );
#149 = FACE_OUTER_BOUND( '', #224, .T. );
#150 = TOROIDAL_SURFACE( '', #225, 10.0000000000000, 5.00000000000000 );
#151 = SURFACE_STYLE_USAGE( .BOTH., #226 );
#152 = FACE_OUTER_BOUND( '', #227, .T. );
#153 = FACE_OUTER_BOUND( '', #228, .T. );
#154 = CYLINDRICAL_SURFACE( '', #229, 5.00000000000000 );
#155 = SURFACE_STYLE_USAGE( .BOTH., #230 );
#156 = FACE_OUTER_BOUND( '', #231, .T. );
#157 = FACE_OUTER_BOUND( '', #232, .T. );
#158 = TOROIDAL_SURFACE( '', #233, 10.0000000000000, 5.00000000000000 );
#159 = PRODUCT_CONTEXT( '', #27, 'mechanical' );
#160 = PRODUCT_DEFINITION_FORMATION_WITH_SPECIFIED_SOURCE( ' ', 'NONE', #74, .NOT_KNOWN. );
#161 = CLOSED_SHELL( '', ( #51, #53, #69, #61, #73, #57, #49, #55, #71, #59, #47, #63, #45, #43, #65, #67, #41 ) );
#162 = CARTESIAN_POINT( '', ( 0.000000000000000, 0.000000000000000, 0.000000000000000 ) );
#163 = DIRECTION( '', ( 0.000000000000000, 0.000000000000000, 1.00000000000000 ) );
#164 = DIRECTION( '', ( 1.00000000000000, 0.000000000000000, 0.000000000000000 ) );
#165 =  ( LENGTH_UNIT(  )NAMED_UNIT( #83 )SI_UNIT( .MILLI., .METRE. ) );
#166 = SURFACE_SIDE_STYLE( '', ( #235 ) );
#167 = EDGE_LOOP( '', ( #236 ) );
#168 = EDGE_LOOP( '', ( #237 ) );
#169 = AXIS2_PLACEMENT_3D( '', #238, #239, #240 );
#170 = SURFACE_SIDE_STYLE( '', ( #241 ) );
#171 = EDGE_LOOP( '', ( #242 ) );
#172 = EDGE_LOOP( '', ( #243 ) );
#173 = AXIS2_PLACEMENT_3D( '', #244, #245, #246 );
#174 = SURFACE_SIDE_STYLE( '', ( #247 ) );
#175 = EDGE_LOOP( '', ( #248 ) );
#176 = EDGE_LOOP( '', ( #249 ) );
#177 = AXIS2_PLACEMENT_3D( '', #250, #251, #252 );
#178 = SURFACE_SIDE_STYLE( '', ( #253 ) );
#179 = EDGE_LOOP( '', ( #254 ) );
#180 = EDGE_LOOP( '', ( #255 ) );
#181 = AXIS2_PLACEMENT_3D( '', #256, #257, #258 );
#182 = SURFACE_SIDE_STYLE( '', ( #259 ) );
#183 = EDGE_LOOP( '', ( #260 ) );
#184 = EDGE_LOOP( '', ( #261 ) );
#185 = AXIS2_PLACEMENT_3D( '', #262, #263, #264 );
#186 = SURFACE_SIDE_STYLE( '', ( #265 ) );
#187 = VERTEX_LOOP( '', #266 );
#188 = EDGE_LOOP( '', ( #267 ) );
#189 = AXIS2_PLACEMENT_3D( '', #268, #269, #270 );
#190 = SURFACE_SIDE_STYLE( '', ( #271 ) );
#191 = EDGE_LOOP( '', ( #272 ) );
#192 = EDGE_LOOP( '', ( #273 ) );
#193 = AXIS2_PLACEMENT_3D( '', #274, #275, #276 );
#194 = SURFACE_SIDE_STYLE( '', ( #277 ) );
#195 = EDGE_LOOP( '', ( #278 ) );
#196 = EDGE_LOOP( '', ( #279 ) );
#197 = AXIS2_PLACEMENT_3D( '', #280, #281, #282 );
#198 = SURFACE_SIDE_STYLE( '', ( #283 ) );
#199 = EDGE_LOOP( '', ( #284 ) );
#200 = EDGE_LOOP( '', ( #285 ) );
#201 = AXIS2_PLACEMENT_3D( '', #286, #287, #288 );
#202 = SURFACE_SIDE_STYLE( '', ( #289 ) );
#203 = EDGE_LOOP( '', ( #290 ) );
#204 = EDGE_LOOP( '', ( #291 ) );
#205 = AXIS2_PLACEMENT_3D( '', #292, #293, #294 );
#206 = SURFACE_SIDE_STYLE( '', ( #295 ) );
#207 = EDGE_LOOP( '', ( #296 ) );
#208 = EDGE_LOOP( '', ( #297 ) );
#209 = AXIS2_PLACEMENT_3D( '', #298, #299, #300 );
#210 = SURFACE_SIDE_STYLE( '', ( #301 ) );
#211 = EDGE_LOOP( '', ( #302 ) );
#212 = EDGE_LOOP( '', ( #303 ) );
#213 = AXIS2_PLACEMENT_3D( '', #304, #305, #306 );
#214 = SURFACE_SIDE_STYLE( '', ( #307 ) );
#215 = VERTEX_LOOP( '', #308 );
#216 = EDGE_LOOP( '', ( #309 ) );
#217 = AXIS2_PLACEMENT_3D( '', #310, #311, #312 );
#218 = SURFACE_SIDE_STYLE( '', ( #313 ) );
#219 = EDGE_LOOP( '', ( #314 ) );
#220 = EDGE_LOOP( '', ( #315 ) );
#221 = AXIS2_PLACEMENT_3D( '', #316, #317, #318 );
#222 = SURFACE_SIDE_STYLE( '', ( #319 ) );
#223 = EDGE_LOOP( '', ( #320 ) );
#224 = EDGE_LOOP( '', ( #321 ) );
#225 = AXIS2_PLACEMENT_3D( '', #322, #323, #324 );
#226 = SURFACE_SIDE_STYLE( '', ( #325 ) );
#227 = EDGE_LOOP( '', ( #326 ) );
#228 = EDGE_LOOP( '', ( #327 ) );
#229 = AXIS2_PLACEMENT_3D( '', #328, #329, #330 );
#230 = SURFACE_SIDE_STYLE( '', ( #331 ) );
#231 = EDGE_LOOP( '', ( #332 ) );
#232 = EDGE_LOOP( '', ( #333 ) );
#233 = AXIS2_PLACEMENT_3D( '', #334, #335, #336 );
#235 = SURFACE_STYLE_FILL_AREA( #337 );
#236 = ORIENTED_EDGE( '', *, *, #338, .T. );
#237 = ORIENTED_EDGE( '', *, *, #339, .F. );
#238 = CARTESIAN_POINT( '', ( 180.000000000000, 26.8066169935850, 30.0000000000000 ) );
#239 = DIRECTION( '', ( -0.000000000000000, 1.00000000000000, 0.000000000000000 ) );
#240 = DIRECTION( '', ( 0.000000000000000, 0.000000000000000, -1.00000000000000 ) );
#241 = SURFACE_STYLE_FILL_AREA( #340 );
#242 = ORIENTED_EDGE( '', *, *, #341, .T. );
#243 = ORIENTED_EDGE( '', *, *, #342, .F. );
#244 = CARTESIAN_POINT( '', ( 0.000000000000000, 26.8066169935850, 30.0000000000000 ) );
#245 = DIRECTION( '', ( -0.000000000000000, 1.00000000000000, 0.000000000000000 ) );
#246 = DIRECTION( '', ( 0.000000000000000, 0.000000000000000, -1.00000000000000 ) );
#247 = SURFACE_STYLE_FILL_AREA( #343 );
#248 = ORIENTED_EDGE( '', *, *, #342, .T. );
#249 = ORIENTED_EDGE( '', *, *, #344, .F. );
#250 = CARTESIAN_POINT( '', ( 0.000000000000000, 40.0000000000000, 30.0000000000000 ) );
#251 = DIRECTION( '', ( -0.000000000000000, 1.00000000000000, 0.000000000000000 ) );
#252 = DIRECTION( '', ( 0.000000000000000, -0.000000000000000, 1.00000000000000 ) );
#253 = SURFACE_STYLE_FILL_AREA( #345 );
#254 = ORIENTED_EDGE( '', *, *, #346, .F. );
#255 = ORIENTED_EDGE( '', *, *, #347, .T. );
#256 = CARTESIAN_POINT( '', ( 180.000000000000, 40.0000000000000, 30.0000000000000 ) );
#257 = DIRECTION( '', ( 0.000000000000000, -1.00000000000000, -0.000000000000000 ) );
#258 = DIRECTION( '', ( 0.000000000000000, 0.000000000000000, -1.00000000000000 ) );
#259 = SURFACE_STYLE_FILL_AREA( #348 );
#260 = ORIENTED_EDGE( '', *, *, #349, .F. );
#261 = ORIENTED_EDGE( '', *, *, #350, .F. );
#262 = CARTESIAN_POINT( '', ( 0.000000000000000, 23.0940107675850, 20.0000000000000 ) );
#263 = DIRECTION( '', ( -1.00000000000000, 0.000000000000000, 0.000000000000000 ) );
#264 = DIRECTION( '', ( 0.000000000000000, 0.000000000000000, 1.00000000000000 ) );
#265 = SURFACE_STYLE_FILL_AREA( #351 );
#266 = VERTEX_POINT( '', #352 );
#267 = ORIENTED_EDGE( '', *, *, #338, .F. );
#268 = CARTESIAN_POINT( '', ( 180.000000000000, 28.0000000000000, 30.0000000000000 ) );
#269 = DIRECTION( '', ( -0.000000000000000, 1.00000000000000, 0.000000000000000 ) );
#270 = DIRECTION( '', ( 0.000000000000000, -0.000000000000000, 1.00000000000000 ) );
#271 = SURFACE_STYLE_FILL_AREA( #353 );
#272 = ORIENTED_EDGE( '', *, *, #354, .F. );
#273 = ORIENTED_EDGE( '', *, *, #355, .T. );
#274 = CARTESIAN_POINT( '', ( 170.000000000000, 0.000000000000000, 0.000000000000000 ) );
#275 = DIRECTION( '', ( -1.00000000000000, -0.000000000000000, 0.000000000000000 ) );
#276 = DIRECTION( '', ( -0.000000000000000, 0.000000000000000, -1.00000000000000 ) );
#277 = SURFACE_STYLE_FILL_AREA( #356 );
#278 = ORIENTED_EDGE( '', *, *, #357, .F. );
#279 = ORIENTED_EDGE( '', *, *, #344, .T. );
#280 = CARTESIAN_POINT( '', ( 0.000000000000000, 40.0000000000000, 30.0000000000000 ) );
#281 = DIRECTION( '', ( 0.000000000000000, -1.00000000000000, -0.000000000000000 ) );
#282 = DIRECTION( '', ( 0.000000000000000, 0.000000000000000, -1.00000000000000 ) );
#283 = SURFACE_STYLE_FILL_AREA( #358 );
#284 = ORIENTED_EDGE( '', *, *, #359, .T. );
#285 = ORIENTED_EDGE( '', *, *, #360, .T. );
#286 = CARTESIAN_POINT( '', ( 180.000000000000, 5.00000000000000, 8.66025403784439 ) );
#287 = DIRECTION( '', ( -0.000000000000000, 0.500000000000000, 0.866025403784439 ) );
#288 = DIRECTION( '', ( 0.000000000000000, 0.866025403784439, -0.500000000000000 ) );
#289 = SURFACE_STYLE_FILL_AREA( #361 );
#290 = ORIENTED_EDGE( '', *, *, #360, .F. );
#291 = ORIENTED_EDGE( '', *, *, #362, .F. );
#292 = CARTESIAN_POINT( '', ( 180.000000000000, 23.0940107675850, 20.0000000000000 ) );
#293 = DIRECTION( '', ( -1.00000000000000, 0.000000000000000, 0.000000000000000 ) );
#294 = DIRECTION( '', ( 0.000000000000000, 0.000000000000000, 1.00000000000000 ) );
#295 = SURFACE_STYLE_FILL_AREA( #363 );
#296 = ORIENTED_EDGE( '', *, *, #364, .F. );
#297 = ORIENTED_EDGE( '', *, *, #349, .T. );
#298 = CARTESIAN_POINT( '', ( 0.000000000000000, 5.00000000000000, 8.66025403784439 ) );
#299 = DIRECTION( '', ( -0.000000000000000, 0.500000000000000, 0.866025403784439 ) );
#300 = DIRECTION( '', ( 0.000000000000000, 0.866025403784439, -0.500000000000000 ) );
#301 = SURFACE_STYLE_FILL_AREA( #365 );
#302 = ORIENTED_EDGE( '', *, *, #362, .T. );
#303 = ORIENTED_EDGE( '', *, *, #346, .T. );
#304 = CARTESIAN_POINT( '', ( 180.000000000000, 23.0940107675850, 30.0000000000000 ) );
#305 = DIRECTION( '', ( -0.000000000000000, 1.00000000000000, 0.000000000000000 ) );
#306 = DIRECTION( '', ( 0.000000000000000, 0.000000000000000, -1.00000000000000 ) );
#307 = SURFACE_STYLE_FILL_AREA( #366 );
#308 = VERTEX_POINT( '', #367 );
#309 = ORIENTED_EDGE( '', *, *, #341, .F. );
#310 = CARTESIAN_POINT( '', ( 0.000000000000000, 28.0000000000000, 30.0000000000000 ) );
#311 = DIRECTION( '', ( -0.000000000000000, 1.00000000000000, 0.000000000000000 ) );
#312 = DIRECTION( '', ( 0.000000000000000, -0.000000000000000, 1.00000000000000 ) );
#313 = SURFACE_STYLE_FILL_AREA( #368 );
#314 = ORIENTED_EDGE( '', *, *, #339, .T. );
#315 = ORIENTED_EDGE( '', *, *, #347, .F. );
#316 = CARTESIAN_POINT( '', ( 180.000000000000, 40.0000000000000, 30.0000000000000 ) );
#317 = DIRECTION( '', ( -0.000000000000000, 1.00000000000000, 0.000000000000000 ) );
#318 = DIRECTION( '', ( 0.000000000000000, -0.000000000000000, 1.00000000000000 ) );
#319 = SURFACE_STYLE_FILL_AREA( #369 );
#320 = ORIENTED_EDGE( '', *, *, #364, .T. );
#321 = ORIENTED_EDGE( '', *, *, #355, .F. );
#322 = CARTESIAN_POINT( '', ( 10.0000000000000, 5.00000000000001, 8.66025403784438 ) );
#323 = DIRECTION( '', ( 0.000000000000000, -0.866025403784439, 0.500000000000000 ) );
#324 = DIRECTION( '', ( 0.000000000000000, -0.500000000000000, -0.866025403784439 ) );
#325 = SURFACE_STYLE_FILL_AREA( #370 );
#326 = ORIENTED_EDGE( '', *, *, #350, .T. );
#327 = ORIENTED_EDGE( '', *, *, #357, .T. );
#328 = CARTESIAN_POINT( '', ( 0.000000000000000, 23.0940107675850, 30.0000000000000 ) );
#329 = DIRECTION( '', ( -0.000000000000000, 1.00000000000000, 0.000000000000000 ) );
#330 = DIRECTION( '', ( 0.000000000000000, 0.000000000000000, -1.00000000000000 ) );
#331 = SURFACE_STYLE_FILL_AREA( #371 );
#332 = ORIENTED_EDGE( '', *, *, #354, .T. );
#333 = ORIENTED_EDGE( '', *, *, #359, .F. );
#334 = CARTESIAN_POINT( '', ( 170.000000000000, 5.00000000000001, 8.66025403784438 ) );
#335 = DIRECTION( '', ( 0.000000000000000, -0.866025403784439, 0.500000000000000 ) );
#336 = DIRECTION( '', ( 0.000000000000000, -0.500000000000000, -0.866025403784439 ) );
#337 = FILL_AREA_STYLE( '', ( #372 ) );
#338 = EDGE_CURVE( '', #373, #373, #374, .T. );
#339 = EDGE_CURVE( '', #375, #375, #376, .T. );
#340 = FILL_AREA_STYLE( '', ( #377 ) );
#341 = EDGE_CURVE( '', #378, #378, #379, .T. );
#342 = EDGE_CURVE( '', #380, #380, #381, .T. );
#343 = FILL_AREA_STYLE( '', ( #382 ) );
#344 = EDGE_CURVE( '', #383, #383, #384, .T. );
#345 = FILL_AREA_STYLE( '', ( #385 ) );
#346 = EDGE_CURVE( '', #386, #386, #387, .T. );
#347 = EDGE_CURVE( '', #388, #388, #389, .T. );
#348 = FILL_AREA_STYLE( '', ( #390 ) );
#349 = EDGE_CURVE( '', #391, #391, #392, .T. );
#350 = EDGE_CURVE( '', #393, #393, #394, .T. );
#351 = FILL_AREA_STYLE( '', ( #395 ) );
#352 = CARTESIAN_POINT( '', ( 180.000000000000, 26.8066169935850, 30.0000000000000 ) );
#353 = FILL_AREA_STYLE( '', ( #396 ) );
#354 = EDGE_CURVE( '', #397, #397, #398, .T. );
#355 = EDGE_CURVE( '', #399, #399, #400, .T. );
#356 = FILL_AREA_STYLE( '', ( #401 ) );
#357 = EDGE_CURVE( '', #402, #402, #403, .T. );
#358 = FILL_AREA_STYLE( '', ( #404 ) );
#359 = EDGE_CURVE( '', #405, #405, #406, .T. );
#360 = EDGE_CURVE( '', #407, #407, #408, .T. );
#361 = FILL_AREA_STYLE( '', ( #409 ) );
#362 = EDGE_CURVE( '', #410, #410, #411, .T. );
#363 = FILL_AREA_STYLE( '', ( #412 ) );
#364 = EDGE_CURVE( '', #413, #413, #414, .T. );
#365 = FILL_AREA_STYLE( '', ( #415 ) );
#366 = FILL_AREA_STYLE( '', ( #416 ) );
#367 = CARTESIAN_POINT( '', ( 0.000000000000000, 26.8066169935850, 30.0000000000000 ) );
#368 = FILL_AREA_STYLE( '', ( #417 ) );
#369 = FILL_AREA_STYLE( '', ( #418 ) );
#370 = FILL_AREA_STYLE( '', ( #419 ) );
#371 = FILL_AREA_STYLE( '', ( #420 ) );
#372 = FILL_AREA_STYLE_COLOUR( '', #421 );
#373 = VERTEX_POINT( '', #422 );
#374 = CIRCLE( '', #423, 2.06700000000000 );
#375 = VERTEX_POINT( '', #424 );
#376 = CIRCLE( '', #425, 2.06700000000000 );
#377 = FILL_AREA_STYLE_COLOUR( '', #426 );
#378 = VERTEX_POINT( '', #427 );
#379 = CIRCLE( '', #428, 2.06700000000000 );
#380 = VERTEX_POINT( '', #429 );
#381 = CIRCLE( '', #430, 2.06700000000000 );
#382 = FILL_AREA_STYLE_COLOUR( '', #431 );
#383 = VERTEX_POINT( '', #432 );
#384 = CIRCLE( '', #433, 2.50000000000000 );
#385 = FILL_AREA_STYLE_COLOUR( '', #434 );
#386 = VERTEX_POINT( '', #435 );
#387 = CIRCLE( '', #436, 5.00000000000000 );
#388 = VERTEX_POINT( '', #437 );
#389 = CIRCLE( '', #438, 2.50000000000000 );
#390 = FILL_AREA_STYLE_COLOUR( '', #439 );
#391 = VERTEX_POINT( '', #440 );
#392 = CIRCLE( '', #441, 5.00000000000000 );
#393 = VERTEX_POINT( '', #442 );
#394 = CIRCLE( '', #443, 5.00000000000000 );
#395 = FILL_AREA_STYLE_COLOUR( '', #444 );
#396 = FILL_AREA_STYLE_COLOUR( '', #445 );
#397 = VERTEX_POINT( '', #446 );
#398 = CIRCLE( '', #447, 5.00000000000000 );
#399 = VERTEX_POINT( '', #448 );
#400 = CIRCLE( '', #449, 5.00000000000000 );
#401 = FILL_AREA_STYLE_COLOUR( '', #450 );
#402 = VERTEX_POINT( '', #451 );
#403 = CIRCLE( '', #452, 5.00000000000000 );
#404 = FILL_AREA_STYLE_COLOUR( '', #453 );
#405 = VERTEX_POINT( '', #454 );
#406 = CIRCLE( '', #455, 5.00000000000000 );
#407 = VERTEX_POINT( '', #456 );
#408 = CIRCLE( '', #457, 5.00000000000000 );
#409 = FILL_AREA_STYLE_COLOUR( '', #458 );
#410 = VERTEX_POINT( '', #459 );
#411 = CIRCLE( '', #460, 5.00000000000000 );
#412 = FILL_AREA_STYLE_COLOUR( '', #461 );
#413 = VERTEX_POINT( '', #462 );
#414 = CIRCLE( '', #463, 5.00000000000000 );
#415 = FILL_AREA_STYLE_COLOUR( '', #464 );
#416 = FILL_AREA_STYLE_COLOUR( '', #465 );
#417 = FILL_AREA_STYLE_COLOUR( '', #466 );
#418 = FILL_AREA_STYLE_COLOUR( '', #467 );
#419 = FILL_AREA_STYLE_COLOUR( '', #468 );
#420 = FILL_AREA_STYLE_COLOUR( '', #469 );
#421 = COLOUR_RGB( '', 0.689999997600000, 0.689999997600000, 0.689999997600000 );
#422 = CARTESIAN_POINT( '', ( 180.000000000000, 28.0000000000000, 27.9330000000000 ) );
#423 = AXIS2_PLACEMENT_3D( '', #470, #471, #472 );
#424 = CARTESIAN_POINT( '', ( 180.000000000000, 39.5670000000000, 27.9330000000000 ) );
#425 = AXIS2_PLACEMENT_3D( '', #473, #474, #475 );
#426 = COLOUR_RGB( '', 0.689999997600000, 0.689999997600000, 0.689999997600000 );
#427 = CARTESIAN_POINT( '', ( 0.000000000000000, 28.0000000000000, 27.9330000000000 ) );
#428 = AXIS2_PLACEMENT_3D( '', #476, #477, #478 );
#429 = CARTESIAN_POINT( '', ( 0.000000000000000, 39.5670000000000, 27.9330000000000 ) );
#430 = AXIS2_PLACEMENT_3D( '', #479, #480, #481 );
#431 = COLOUR_RGB( '', 0.689999997600000, 0.689999997600000, 0.689999997600000 );
#432 = CARTESIAN_POINT( '', ( 0.000000000000000, 40.0000000000000, 27.5000000000000 ) );
#433 = AXIS2_PLACEMENT_3D( '', #482, #483, #484 );
#434 = COLOUR_RGB( '', 0.689999997600000, 0.689999997600000, 0.689999997600000 );
#435 = CARTESIAN_POINT( '', ( 180.000000000000, 40.0000000000000, 25.0000000000000 ) );
#436 = AXIS2_PLACEMENT_3D( '', #485, #486, #487 );
#437 = CARTESIAN_POINT( '', ( 180.000000000000, 40.0000000000000, 27.5000000000000 ) );
#438 = AXIS2_PLACEMENT_3D( '', #488, #489, #490 );
#439 = COLOUR_RGB( '', 0.689999997600000, 0.689999997600000, 0.689999997600000 );
#440 = CARTESIAN_POINT( '', ( 0.000000000000000, 18.7638837486628, 22.5000000000000 ) );
#441 = AXIS2_PLACEMENT_3D( '', #491, #492, #493 );
#442 = CARTESIAN_POINT( '', ( 0.000000000000000, 23.0940107675850, 25.0000000000000 ) );
#443 = AXIS2_PLACEMENT_3D( '', #494, #495, #496 );
#444 = COLOUR_RGB( '', 0.689999997600000, 0.689999997600000, 0.689999997600000 );
#445 = COLOUR_RGB( '', 0.689999997600000, 0.689999997600000, 0.689999997600000 );
#446 = CARTESIAN_POINT( '', ( 170.000000000000, 0.000000000000000, -5.00000000000000 ) );
#447 = AXIS2_PLACEMENT_3D( '', #497, #498, #499 );
#448 = CARTESIAN_POINT( '', ( 10.0000000000000, 0.000000000000000, -5.00000000000000 ) );
#449 = AXIS2_PLACEMENT_3D( '', #500, #501, #502 );
#450 = COLOUR_RGB( '', 0.689999997600000, 0.689999997600000, 0.689999997600000 );
#451 = CARTESIAN_POINT( '', ( 0.000000000000000, 40.0000000000000, 25.0000000000000 ) );
#452 = AXIS2_PLACEMENT_3D( '', #503, #504, #505 );
#453 = COLOUR_RGB( '', 0.689999997600000, 0.689999997600000, 0.689999997600000 );
#454 = CARTESIAN_POINT( '', ( 184.330127018922, 7.16506350946109, 7.41025403784437 ) );
#455 = AXIS2_PLACEMENT_3D( '', #506, #507, #508 );
#456 = CARTESIAN_POINT( '', ( 180.000000000000, 18.7638837486628, 22.5000000000000 ) );
#457 = AXIS2_PLACEMENT_3D( '', #509, #510, #511 );
#458 = COLOUR_RGB( '', 0.689999997600000, 0.689999997600000, 0.689999997600000 );
#459 = CARTESIAN_POINT( '', ( 180.000000000000, 23.0940107675850, 25.0000000000000 ) );
#460 = AXIS2_PLACEMENT_3D( '', #512, #513, #514 );
#461 = COLOUR_RGB( '', 0.689999997600000, 0.689999997600000, 0.689999997600000 );
#462 = CARTESIAN_POINT( '', ( -4.33012701892219, 7.16506350946110, 7.41025403784439 ) );
#463 = AXIS2_PLACEMENT_3D( '', #515, #516, #517 );
#464 = COLOUR_RGB( '', 0.689999997600000, 0.689999997600000, 0.689999997600000 );
#465 = COLOUR_RGB( '', 0.689999997600000, 0.689999997600000, 0.689999997600000 );
#466 = COLOUR_RGB( '', 0.689999997600000, 0.689999997600000, 0.689999997600000 );
#467 = COLOUR_RGB( '', 0.689999997600000, 0.689999997600000, 0.689999997600000 );
#468 = COLOUR_RGB( '', 0.689999997600000, 0.689999997600000, 0.689999997600000 );
#469 = COLOUR_RGB( '', 0.689999997600000, 0.689999997600000, 0.689999997600000 );
#470 = CARTESIAN_POINT( '', ( 180.000000000000, 28.0000000000000, 30.0000000000000 ) );
#471 = DIRECTION( '', ( 0.000000000000000, -1.00000000000000, -0.000000000000000 ) );
#472 = DIRECTION( '', ( 0.000000000000000, 0.000000000000000, -1.00000000000000 ) );
#473 = CARTESIAN_POINT( '', ( 180.000000000000, 39.5670000000000, 30.0000000000000 ) );
#474 = DIRECTION( '', ( 0.000000000000000, -1.00000000000000, -0.000000000000000 ) );
#475 = DIRECTION( '', ( 0.000000000000000, 0.000000000000000, -1.00000000000000 ) );
#476 = CARTESIAN_POINT( '', ( 0.000000000000000, 28.0000000000000, 30.0000000000000 ) );
#477 = DIRECTION( '', ( 0.000000000000000, -1.00000000000000, -0.000000000000000 ) );
#478 = DIRECTION( '', ( 0.000000000000000, 0.000000000000000, -1.00000000000000 ) );
#479 = CARTESIAN_POINT( '', ( 0.000000000000000, 39.5670000000000, 30.0000000000000 ) );
#480 = DIRECTION( '', ( 0.000000000000000, -1.00000000000000, -0.000000000000000 ) );
#481 = DIRECTION( '', ( 0.000000000000000, 0.000000000000000, -1.00000000000000 ) );
#482 = CARTESIAN_POINT( '', ( 0.000000000000000, 40.0000000000000, 30.0000000000000 ) );
#483 = DIRECTION( '', ( 0.000000000000000, -1.00000000000000, -0.000000000000000 ) );
#484 = DIRECTION( '', ( 0.000000000000000, 0.000000000000000, -1.00000000000000 ) );
#485 = CARTESIAN_POINT( '', ( 180.000000000000, 40.0000000000000, 30.0000000000000 ) );
#486 = DIRECTION( '', ( 0.000000000000000, -1.00000000000000, -0.000000000000000 ) );
#487 = DIRECTION( '', ( 0.000000000000000, 0.000000000000000, -1.00000000000000 ) );
#488 = CARTESIAN_POINT( '', ( 180.000000000000, 40.0000000000000, 30.0000000000000 ) );
#489 = DIRECTION( '', ( 0.000000000000000, -1.00000000000000, -0.000000000000000 ) );
#490 = DIRECTION( '', ( 0.000000000000000, 0.000000000000000, -1.00000000000000 ) );
#491 = CARTESIAN_POINT( '', ( 0.000000000000000, 14.4337567297406, 25.0000000000000 ) );
#492 = DIRECTION( '', ( 0.000000000000000, -0.500000000000000, -0.866025403784439 ) );
#493 = DIRECTION( '', ( 0.000000000000000, 0.866025403784439, -0.500000000000000 ) );
#494 = CARTESIAN_POINT( '', ( 0.000000000000000, 23.0940107675850, 30.0000000000000 ) );
#495 = DIRECTION( '', ( 0.000000000000000, 1.00000000000000, 2.22044604925031E-16 ) );
#496 = DIRECTION( '', ( 0.000000000000000, 2.22044604925031E-16, -1.00000000000000 ) );
#497 = CARTESIAN_POINT( '', ( 170.000000000000, 0.000000000000000, 0.000000000000000 ) );
#498 = DIRECTION( '', ( 1.00000000000000, 0.000000000000000, -0.000000000000000 ) );
#499 = DIRECTION( '', ( -0.000000000000000, 0.000000000000000, -1.00000000000000 ) );
#500 = CARTESIAN_POINT( '', ( 10.0000000000000, 0.000000000000000, 0.000000000000000 ) );
#501 = DIRECTION( '', ( 1.00000000000000, 0.000000000000000, -0.000000000000000 ) );
#502 = DIRECTION( '', ( -0.000000000000000, 0.000000000000000, -1.00000000000000 ) );
#503 = CARTESIAN_POINT( '', ( 0.000000000000000, 40.0000000000000, 30.0000000000000 ) );
#504 = DIRECTION( '', ( 0.000000000000000, -1.00000000000000, -0.000000000000000 ) );
#505 = DIRECTION( '', ( 0.000000000000000, 0.000000000000000, -1.00000000000000 ) );
#506 = CARTESIAN_POINT( '', ( 180.000000000000, 4.99999999999999, 8.66025403784437 ) );
#507 = DIRECTION( '', ( 0.000000000000000, 0.500000000000000, 0.866025403784439 ) );
#508 = DIRECTION( '', ( 0.866025403784439, 0.433012701892219, -0.250000000000000 ) );
#509 = CARTESIAN_POINT( '', ( 180.000000000000, 14.4337567297406, 25.0000000000000 ) );
#510 = DIRECTION( '', ( 0.000000000000000, -0.500000000000000, -0.866025403784439 ) );
#511 = DIRECTION( '', ( 0.000000000000000, 0.866025403784439, -0.500000000000000 ) );
#512 = CARTESIAN_POINT( '', ( 180.000000000000, 23.0940107675850, 30.0000000000000 ) );
#513 = DIRECTION( '', ( 0.000000000000000, 1.00000000000000, 2.22044604925031E-16 ) );
#514 = DIRECTION( '', ( 0.000000000000000, 2.22044604925031E-16, -1.00000000000000 ) );
#515 = CARTESIAN_POINT( '', ( 6.12323399573677E-16, 5.00000000000000, 8.66025403784439 ) );
#516 = DIRECTION( '', ( 3.55271367880050E-17, -0.500000000000000, -0.866025403784439 ) );
#517 = DIRECTION( '', ( -0.866025403784439, 0.433012701892219, -0.250000000000000 ) );
ENDSEC;
END-ISO-10303-21;
