ISO-10303-21;
HEADER;
FILE_DESCRIPTION( ( 'STEP AP214' ), '1' );
FILE_NAME( '//goodhand-server/Shared Folders/GoodHand Data/Kipp CAD/K0344/K0344.99.stp', '2020-12-03T13:53:15', ( '' ), ( '' ), ' ', 'PARTsolutions', ' ' );
FILE_SCHEMA( ( 'AUTOMOTIVE_DESIGN { 1 0 10303 214 1 1 1 1 }' ) );
ENDSEC;
DATA;
#1 = MECHANICAL_DESIGN_GEOMETRIC_PRESENTATION_REPRESENTATION( ' ', ( #10, #11, #12, #13, #14, #15, #16, #17, #18, #19, #20, #21, #22, #23 ), #6 );
#2 = PRODUCT_DEFINITION_CONTEXT( '', #24, 'design' );
#3 = APPLICATION_PROTOCOL_DEFINITION( 'international standard', 'automotive_design', 2001, #24 );
#4 = PRODUCT_CATEGORY_RELATIONSHIP( 'NONE', 'NONE', #25, #26 );
#5 = SHAPE_DEFINITION_REPRESENTATION( #27, #28 );
#6 =  ( GEOMETRIC_REPRESENTATION_CONTEXT( 3 )GLOBAL_UNCERTAINTY_ASSIGNED_CONTEXT( ( #31 ) )GLOBAL_UNIT_ASSIGNED_CONTEXT( ( #33, #34, #35 ) )REPRESENTATION_CONTEXT( 'NONE', 'WORKSPACE' ) );
#10 = STYLED_ITEM( '', ( #37 ), #38 );
#11 = STYLED_ITEM( '', ( #39 ), #40 );
#12 = STYLED_ITEM( '', ( #41 ), #42 );
#13 = STYLED_ITEM( '', ( #43 ), #44 );
#14 = STYLED_ITEM( '', ( #45 ), #46 );
#15 = STYLED_ITEM( '', ( #47 ), #48 );
#16 = STYLED_ITEM( '', ( #49 ), #50 );
#17 = STYLED_ITEM( '', ( #51 ), #52 );
#18 = STYLED_ITEM( '', ( #53 ), #54 );
#19 = STYLED_ITEM( '', ( #55 ), #56 );
#20 = STYLED_ITEM( '', ( #57 ), #58 );
#21 = STYLED_ITEM( '', ( #59 ), #60 );
#22 = STYLED_ITEM( '', ( #61 ), #62 );
#23 = STYLED_ITEM( '', ( #63 ), #64 );
#24 = APPLICATION_CONTEXT( 'core data for automotive mechanical design processes' );
#25 = PRODUCT_CATEGORY( 'part', 'NONE' );
#26 = PRODUCT_RELATED_PRODUCT_CATEGORY( 'detail', ' ', ( #65 ) );
#27 = PRODUCT_DEFINITION_SHAPE( 'NONE', 'NONE', #66 );
#28 = ADVANCED_BREP_SHAPE_REPRESENTATION( '_K0344.99', ( #67, #68 ), #6 );
#31 = UNCERTAINTY_MEASURE_WITH_UNIT( LENGTH_MEASURE( 0.00100000000000000 ), #33, '', '' );
#33 =  ( CONVERSION_BASED_UNIT( 'MILLIMETRE', #71 )LENGTH_UNIT(  )NAMED_UNIT( #74 ) );
#34 =  ( NAMED_UNIT( #76 )PLANE_ANGLE_UNIT(  )SI_UNIT( $, .RADIAN. ) );
#35 =  ( NAMED_UNIT( #76 )SI_UNIT( $, .STERADIAN. )SOLID_ANGLE_UNIT(  ) );
#37 = PRESENTATION_STYLE_ASSIGNMENT( ( #82 ) );
#38 = ADVANCED_FACE( '', ( #83 ), #84, .F. );
#39 = PRESENTATION_STYLE_ASSIGNMENT( ( #85 ) );
#40 = ADVANCED_FACE( '', ( #86 ), #87, .T. );
#41 = PRESENTATION_STYLE_ASSIGNMENT( ( #88 ) );
#42 = ADVANCED_FACE( '', ( #89, #90 ), #91, .T. );
#43 = PRESENTATION_STYLE_ASSIGNMENT( ( #92 ) );
#44 = ADVANCED_FACE( '', ( #93 ), #94, .T. );
#45 = PRESENTATION_STYLE_ASSIGNMENT( ( #95 ) );
#46 = ADVANCED_FACE( '', ( #96 ), #97, .T. );
#47 = PRESENTATION_STYLE_ASSIGNMENT( ( #98 ) );
#48 = ADVANCED_FACE( '', ( #99 ), #100, .F. );
#49 = PRESENTATION_STYLE_ASSIGNMENT( ( #101 ) );
#50 = ADVANCED_FACE( '', ( #102 ), #103, .T. );
#51 = PRESENTATION_STYLE_ASSIGNMENT( ( #104 ) );
#52 = ADVANCED_FACE( '', ( #105 ), #106, .F. );
#53 = PRESENTATION_STYLE_ASSIGNMENT( ( #107 ) );
#54 = ADVANCED_FACE( '', ( #108, #109, #110 ), #111, .F. );
#55 = PRESENTATION_STYLE_ASSIGNMENT( ( #112 ) );
#56 = ADVANCED_FACE( '', ( #113 ), #114, .T. );
#57 = PRESENTATION_STYLE_ASSIGNMENT( ( #115 ) );
#58 = ADVANCED_FACE( '', ( #116, #117 ), #118, .T. );
#59 = PRESENTATION_STYLE_ASSIGNMENT( ( #119 ) );
#60 = ADVANCED_FACE( '', ( #120, #121 ), #122, .T. );
#61 = PRESENTATION_STYLE_ASSIGNMENT( ( #123 ) );
#62 = ADVANCED_FACE( '', ( #124 ), #125, .F. );
#63 = PRESENTATION_STYLE_ASSIGNMENT( ( #126 ) );
#64 = ADVANCED_FACE( '', ( #127, #128 ), #129, .T. );
#65 = PRODUCT( '_K0344.99', '_K0344.99', 'PART-_K0344.99-DESC', ( #130 ) );
#66 = PRODUCT_DEFINITION( 'NONE', 'NONE', #131, #2 );
#67 = MANIFOLD_SOLID_BREP( '_K0344.99', #132 );
#68 = AXIS2_PLACEMENT_3D( '', #133, #134, #135 );
#71 = LENGTH_MEASURE_WITH_UNIT( LENGTH_MEASURE( 1.00000000000000 ), #136 );
#74 = DIMENSIONAL_EXPONENTS( 1.00000000000000, 0.000000000000000, 0.000000000000000, 0.000000000000000, 0.000000000000000, 0.000000000000000, 0.000000000000000 );
#76 = DIMENSIONAL_EXPONENTS( 0.000000000000000, 0.000000000000000, 0.000000000000000, 0.000000000000000, 0.000000000000000, 0.000000000000000, 0.000000000000000 );
#82 = SURFACE_STYLE_USAGE( .BOTH., #137 );
#83 = FACE_OUTER_BOUND( '', #138, .T. );
#84 = CYLINDRICAL_SURFACE( '', #139, 1.25000000000000 );
#85 = SURFACE_STYLE_USAGE( .BOTH., #140 );
#86 = FACE_OUTER_BOUND( '', #141, .T. );
#87 = CYLINDRICAL_SURFACE( '', #142, 9.00000000000000 );
#88 = SURFACE_STYLE_USAGE( .BOTH., #143 );
#89 = FACE_BOUND( '', #144, .T. );
#90 = FACE_OUTER_BOUND( '', #145, .T. );
#91 = CONICAL_SURFACE( '', #146, 0.500000000000000, 0.261799387800000 );
#92 = SURFACE_STYLE_USAGE( .BOTH., #147 );
#93 = FACE_OUTER_BOUND( '', #148, .T. );
#94 = PLANE( '', #149 );
#95 = SURFACE_STYLE_USAGE( .BOTH., #150 );
#96 = FACE_OUTER_BOUND( '', #151, .T. );
#97 = CONICAL_SURFACE( '', #152, 8.50000000000000, 0.785398163400000 );
#98 = SURFACE_STYLE_USAGE( .BOTH., #153 );
#99 = FACE_OUTER_BOUND( '', #154, .T. );
#100 = PLANE( '', #155 );
#101 = SURFACE_STYLE_USAGE( .BOTH., #156 );
#102 = FACE_OUTER_BOUND( '', #157, .T. );
#103 = CONICAL_SURFACE( '', #158, 9.00000000000000, 0.785398163400000 );
#104 = SURFACE_STYLE_USAGE( .BOTH., #159 );
#105 = FACE_OUTER_BOUND( '', #160, .T. );
#106 = PLANE( '', #161 );
#107 = SURFACE_STYLE_USAGE( .BOTH., #162 );
#108 = FACE_OUTER_BOUND( '', #163, .T. );
#109 = FACE_BOUND( '', #164, .T. );
#110 = FACE_BOUND( '', #165, .T. );
#111 = PLANE( '', #166 );
#112 = SURFACE_STYLE_USAGE( .BOTH., #167 );
#113 = FACE_OUTER_BOUND( '', #168, .T. );
#114 = PLANE( '', #169 );
#115 = SURFACE_STYLE_USAGE( .BOTH., #170 );
#116 = FACE_BOUND( '', #171, .T. );
#117 = FACE_OUTER_BOUND( '', #172, .T. );
#118 = CONICAL_SURFACE( '', #173, 0.500000000000000, 0.261799387800000 );
#119 = SURFACE_STYLE_USAGE( .BOTH., #174 );
#120 = FACE_OUTER_BOUND( '', #175, .T. );
#121 = FACE_OUTER_BOUND( '', #176, .T. );
#122 = CYLINDRICAL_SURFACE( '', #177, 0.500000000000000 );
#123 = SURFACE_STYLE_USAGE( .BOTH., #178 );
#124 = FACE_OUTER_BOUND( '', #179, .T. );
#125 = PLANE( '', #180 );
#126 = SURFACE_STYLE_USAGE( .BOTH., #181 );
#127 = FACE_OUTER_BOUND( '', #182, .T. );
#128 = FACE_OUTER_BOUND( '', #183, .T. );
#129 = CYLINDRICAL_SURFACE( '', #184, 0.500000000000000 );
#130 = PRODUCT_CONTEXT( '', #24, 'mechanical' );
#131 = PRODUCT_DEFINITION_FORMATION_WITH_SPECIFIED_SOURCE( ' ', 'NONE', #65, .NOT_KNOWN. );
#132 = CLOSED_SHELL( '', ( #44, #46, #54, #64, #52, #42, #62, #60, #58, #48, #38, #56, #40, #50 ) );
#133 = CARTESIAN_POINT( '', ( 0.000000000000000, 0.000000000000000, 0.000000000000000 ) );
#134 = DIRECTION( '', ( 0.000000000000000, 0.000000000000000, 1.00000000000000 ) );
#135 = DIRECTION( '', ( 1.00000000000000, 0.000000000000000, 0.000000000000000 ) );
#136 =  ( LENGTH_UNIT(  )NAMED_UNIT( #74 )SI_UNIT( .MILLI., .METRE. ) );
#137 = SURFACE_SIDE_STYLE( '', ( #186 ) );
#138 = EDGE_LOOP( '', ( #187, #188, #189, #190 ) );
#139 = AXIS2_PLACEMENT_3D( '', #191, #192, #193 );
#140 = SURFACE_SIDE_STYLE( '', ( #194 ) );
#141 = EDGE_LOOP( '', ( #195, #196, #197, #198 ) );
#142 = AXIS2_PLACEMENT_3D( '', #199, #200, #201 );
#143 = SURFACE_SIDE_STYLE( '', ( #202 ) );
#144 = EDGE_LOOP( '', ( #203 ) );
#145 = EDGE_LOOP( '', ( #204 ) );
#146 = AXIS2_PLACEMENT_3D( '', #205, #206, #207 );
#147 = SURFACE_SIDE_STYLE( '', ( #208 ) );
#148 = EDGE_LOOP( '', ( #209, #210, #211, #212, #213, #214 ) );
#149 = AXIS2_PLACEMENT_3D( '', #215, #216, #217 );
#150 = SURFACE_SIDE_STYLE( '', ( #218 ) );
#151 = EDGE_LOOP( '', ( #219, #220, #221, #222 ) );
#152 = AXIS2_PLACEMENT_3D( '', #223, #224, #225 );
#153 = SURFACE_SIDE_STYLE( '', ( #226 ) );
#154 = EDGE_LOOP( '', ( #227 ) );
#155 = AXIS2_PLACEMENT_3D( '', #228, #229, #230 );
#156 = SURFACE_SIDE_STYLE( '', ( #231 ) );
#157 = EDGE_LOOP( '', ( #232, #233, #234, #235 ) );
#158 = AXIS2_PLACEMENT_3D( '', #236, #237, #238 );
#159 = SURFACE_SIDE_STYLE( '', ( #239 ) );
#160 = EDGE_LOOP( '', ( #240, #241, #242, #243 ) );
#161 = AXIS2_PLACEMENT_3D( '', #244, #245, #246 );
#162 = SURFACE_SIDE_STYLE( '', ( #247 ) );
#163 = EDGE_LOOP( '', ( #248, #249, #250, #251 ) );
#164 = EDGE_LOOP( '', ( #252 ) );
#165 = EDGE_LOOP( '', ( #253 ) );
#166 = AXIS2_PLACEMENT_3D( '', #254, #255, #256 );
#167 = SURFACE_SIDE_STYLE( '', ( #257 ) );
#168 = EDGE_LOOP( '', ( #258, #259, #260, #261, #262, #263 ) );
#169 = AXIS2_PLACEMENT_3D( '', #264, #265, #266 );
#170 = SURFACE_SIDE_STYLE( '', ( #267 ) );
#171 = EDGE_LOOP( '', ( #268 ) );
#172 = EDGE_LOOP( '', ( #269 ) );
#173 = AXIS2_PLACEMENT_3D( '', #270, #271, #272 );
#174 = SURFACE_SIDE_STYLE( '', ( #273 ) );
#175 = EDGE_LOOP( '', ( #274 ) );
#176 = EDGE_LOOP( '', ( #275 ) );
#177 = AXIS2_PLACEMENT_3D( '', #276, #277, #278 );
#178 = SURFACE_SIDE_STYLE( '', ( #279 ) );
#179 = EDGE_LOOP( '', ( #280 ) );
#180 = AXIS2_PLACEMENT_3D( '', #281, #282, #283 );
#181 = SURFACE_SIDE_STYLE( '', ( #284 ) );
#182 = EDGE_LOOP( '', ( #285 ) );
#183 = EDGE_LOOP( '', ( #286 ) );
#184 = AXIS2_PLACEMENT_3D( '', #287, #288, #289 );
#186 = SURFACE_STYLE_FILL_AREA( #290 );
#187 = ORIENTED_EDGE( '', *, *, #291, .F. );
#188 = ORIENTED_EDGE( '', *, *, #292, .F. );
#189 = ORIENTED_EDGE( '', *, *, #293, .T. );
#190 = ORIENTED_EDGE( '', *, *, #294, .T. );
#191 = CARTESIAN_POINT( '', ( 2.16840434497101E-16, 2.50000000000000, 2.16840434497101E-16 ) );
#192 = DIRECTION( '', ( -0.000000000000000, 1.00000000000000, 0.000000000000000 ) );
#193 = DIRECTION( '', ( 0.000000000000000, 0.000000000000000, -1.00000000000000 ) );
#194 = SURFACE_STYLE_FILL_AREA( #295 );
#195 = ORIENTED_EDGE( '', *, *, #296, .F. );
#196 = ORIENTED_EDGE( '', *, *, #297, .F. );
#197 = ORIENTED_EDGE( '', *, *, #298, .F. );
#198 = ORIENTED_EDGE( '', *, *, #299, .T. );
#199 = CARTESIAN_POINT( '', ( 0.000000000000000, 0.000000000000000, 0.000000000000000 ) );
#200 = DIRECTION( '', ( -0.000000000000000, 1.00000000000000, 0.000000000000000 ) );
#201 = DIRECTION( '', ( 0.000000000000000, 0.000000000000000, -1.00000000000000 ) );
#202 = SURFACE_STYLE_FILL_AREA( #300 );
#203 = ORIENTED_EDGE( '', *, *, #301, .F. );
#204 = ORIENTED_EDGE( '', *, *, #302, .T. );
#205 = CARTESIAN_POINT( '', ( 2.10000000000000, -1.16666666666667, 0.000000000000000 ) );
#206 = DIRECTION( '', ( -0.000000000000000, 1.00000000000000, 0.000000000000000 ) );
#207 = DIRECTION( '', ( 0.000000000000000, -0.000000000000000, 1.00000000000000 ) );
#208 = SURFACE_STYLE_FILL_AREA( #303 );
#209 = ORIENTED_EDGE( '', *, *, #304, .T. );
#210 = ORIENTED_EDGE( '', *, *, #305, .T. );
#211 = ORIENTED_EDGE( '', *, *, #292, .T. );
#212 = ORIENTED_EDGE( '', *, *, #306, .T. );
#213 = ORIENTED_EDGE( '', *, *, #307, .T. );
#214 = ORIENTED_EDGE( '', *, *, #296, .T. );
#215 = CARTESIAN_POINT( '', ( 1.25000000000000, 2.50000000000000, 10.0000000000000 ) );
#216 = DIRECTION( '', ( -1.00000000000000, 0.000000000000000, 0.000000000000000 ) );
#217 = DIRECTION( '', ( 0.000000000000000, 0.000000000000000, 1.00000000000000 ) );
#218 = SURFACE_STYLE_FILL_AREA( #308 );
#219 = ORIENTED_EDGE( '', *, *, #304, .F. );
#220 = ORIENTED_EDGE( '', *, *, #299, .F. );
#221 = ORIENTED_EDGE( '', *, *, #309, .F. );
#222 = ORIENTED_EDGE( '', *, *, #310, .T. );
#223 = CARTESIAN_POINT( '', ( 0.000000000000000, 2.50000000000000, 0.000000000000000 ) );
#224 = DIRECTION( '', ( -0.000000000000000, -1.00000000000000, -0.000000000000000 ) );
#225 = DIRECTION( '', ( 0.000000000000000, 0.000000000000000, -1.00000000000000 ) );
#226 = SURFACE_STYLE_FILL_AREA( #311 );
#227 = ORIENTED_EDGE( '', *, *, #312, .T. );
#228 = CARTESIAN_POINT( '', ( -1.68931639747704, -1.50000000000000, 0.000000000000000 ) );
#229 = DIRECTION( '', ( 0.000000000000000, 1.00000000000000, 0.000000000000000 ) );
#230 = DIRECTION( '', ( 0.000000000000000, -0.000000000000000, 1.00000000000000 ) );
#231 = SURFACE_STYLE_FILL_AREA( #313 );
#232 = ORIENTED_EDGE( '', *, *, #307, .F. );
#233 = ORIENTED_EDGE( '', *, *, #314, .F. );
#234 = ORIENTED_EDGE( '', *, *, #315, .F. );
#235 = ORIENTED_EDGE( '', *, *, #297, .T. );
#236 = CARTESIAN_POINT( '', ( 0.000000000000000, 0.500000000000000, 0.000000000000000 ) );
#237 = DIRECTION( '', ( -0.000000000000000, 1.00000000000000, 0.000000000000000 ) );
#238 = DIRECTION( '', ( 0.000000000000000, -0.000000000000000, 1.00000000000000 ) );
#239 = SURFACE_STYLE_FILL_AREA( #316 );
#240 = ORIENTED_EDGE( '', *, *, #305, .F. );
#241 = ORIENTED_EDGE( '', *, *, #310, .F. );
#242 = ORIENTED_EDGE( '', *, *, #317, .F. );
#243 = ORIENTED_EDGE( '', *, *, #293, .F. );
#244 = CARTESIAN_POINT( '', ( 0.000000000000000, 2.50000000000000, 0.000000000000000 ) );
#245 = DIRECTION( '', ( 0.000000000000000, -1.00000000000000, -0.000000000000000 ) );
#246 = DIRECTION( '', ( 0.000000000000000, 0.000000000000000, -1.00000000000000 ) );
#247 = SURFACE_STYLE_FILL_AREA( #318 );
#248 = ORIENTED_EDGE( '', *, *, #306, .F. );
#249 = ORIENTED_EDGE( '', *, *, #291, .T. );
#250 = ORIENTED_EDGE( '', *, *, #319, .T. );
#251 = ORIENTED_EDGE( '', *, *, #314, .T. );
#252 = ORIENTED_EDGE( '', *, *, #320, .F. );
#253 = ORIENTED_EDGE( '', *, *, #321, .F. );
#254 = CARTESIAN_POINT( '', ( 8.50000000000000, 0.000000000000000, 0.000000000000000 ) );
#255 = DIRECTION( '', ( 0.000000000000000, 1.00000000000000, 0.000000000000000 ) );
#256 = DIRECTION( '', ( 0.000000000000000, -0.000000000000000, 1.00000000000000 ) );
#257 = SURFACE_STYLE_FILL_AREA( #322 );
#258 = ORIENTED_EDGE( '', *, *, #309, .T. );
#259 = ORIENTED_EDGE( '', *, *, #298, .T. );
#260 = ORIENTED_EDGE( '', *, *, #315, .T. );
#261 = ORIENTED_EDGE( '', *, *, #319, .F. );
#262 = ORIENTED_EDGE( '', *, *, #294, .F. );
#263 = ORIENTED_EDGE( '', *, *, #317, .T. );
#264 = CARTESIAN_POINT( '', ( -1.25000000000000, 2.50000000000000, 0.000000000000000 ) );
#265 = DIRECTION( '', ( 1.00000000000000, 0.000000000000000, 0.000000000000000 ) );
#266 = DIRECTION( '', ( 0.000000000000000, 0.000000000000000, -1.00000000000000 ) );
#267 = SURFACE_STYLE_FILL_AREA( #323 );
#268 = ORIENTED_EDGE( '', *, *, #312, .F. );
#269 = ORIENTED_EDGE( '', *, *, #324, .T. );
#270 = CARTESIAN_POINT( '', ( -2.10000000000000, -1.16666666666667, 0.000000000000000 ) );
#271 = DIRECTION( '', ( -0.000000000000000, 1.00000000000000, 0.000000000000000 ) );
#272 = DIRECTION( '', ( 0.000000000000000, -0.000000000000000, 1.00000000000000 ) );
#273 = SURFACE_STYLE_FILL_AREA( #325 );
#274 = ORIENTED_EDGE( '', *, *, #324, .F. );
#275 = ORIENTED_EDGE( '', *, *, #321, .T. );
#276 = CARTESIAN_POINT( '', ( -2.10000000000000, -1.50000000000000, 0.000000000000000 ) );
#277 = DIRECTION( '', ( -0.000000000000000, 1.00000000000000, 0.000000000000000 ) );
#278 = DIRECTION( '', ( 0.000000000000000, 0.000000000000000, -1.00000000000000 ) );
#279 = SURFACE_STYLE_FILL_AREA( #326 );
#280 = ORIENTED_EDGE( '', *, *, #301, .T. );
#281 = CARTESIAN_POINT( '', ( 2.51068360252296, -1.50000000000000, 0.000000000000000 ) );
#282 = DIRECTION( '', ( 0.000000000000000, 1.00000000000000, 0.000000000000000 ) );
#283 = DIRECTION( '', ( 0.000000000000000, -0.000000000000000, 1.00000000000000 ) );
#284 = SURFACE_STYLE_FILL_AREA( #327 );
#285 = ORIENTED_EDGE( '', *, *, #302, .F. );
#286 = ORIENTED_EDGE( '', *, *, #320, .T. );
#287 = CARTESIAN_POINT( '', ( 2.10000000000000, -1.50000000000000, 0.000000000000000 ) );
#288 = DIRECTION( '', ( -0.000000000000000, 1.00000000000000, 0.000000000000000 ) );
#289 = DIRECTION( '', ( 0.000000000000000, 0.000000000000000, -1.00000000000000 ) );
#290 = FILL_AREA_STYLE( '', ( #328 ) );
#291 = EDGE_CURVE( '', #329, #330, #331, .T. );
#292 = EDGE_CURVE( '', #332, #329, #333, .T. );
#293 = EDGE_CURVE( '', #332, #334, #335, .T. );
#294 = EDGE_CURVE( '', #334, #330, #336, .T. );
#295 = FILL_AREA_STYLE( '', ( #337 ) );
#296 = EDGE_CURVE( '', #338, #339, #340, .F. );
#297 = EDGE_CURVE( '', #341, #338, #342, .T. );
#298 = EDGE_CURVE( '', #343, #341, #344, .T. );
#299 = EDGE_CURVE( '', #343, #339, #345, .T. );
#300 = FILL_AREA_STYLE( '', ( #346 ) );
#301 = EDGE_CURVE( '', #347, #347, #348, .T. );
#302 = EDGE_CURVE( '', #349, #349, #350, .T. );
#303 = FILL_AREA_STYLE( '', ( #351 ) );
#304 = EDGE_CURVE( '', #339, #352, #353, .T. );
#305 = EDGE_CURVE( '', #352, #332, #354, .T. );
#306 = EDGE_CURVE( '', #329, #355, #356, .T. );
#307 = EDGE_CURVE( '', #355, #338, #357, .T. );
#308 = FILL_AREA_STYLE( '', ( #358 ) );
#309 = EDGE_CURVE( '', #359, #343, #360, .T. );
#310 = EDGE_CURVE( '', #359, #352, #361, .T. );
#311 = FILL_AREA_STYLE( '', ( #362 ) );
#312 = EDGE_CURVE( '', #363, #363, #364, .T. );
#313 = FILL_AREA_STYLE( '', ( #365 ) );
#314 = EDGE_CURVE( '', #366, #355, #367, .T. );
#315 = EDGE_CURVE( '', #341, #366, #368, .T. );
#316 = FILL_AREA_STYLE( '', ( #369 ) );
#317 = EDGE_CURVE( '', #334, #359, #370, .T. );
#318 = FILL_AREA_STYLE( '', ( #371 ) );
#319 = EDGE_CURVE( '', #330, #366, #372, .T. );
#320 = EDGE_CURVE( '', #373, #373, #374, .F. );
#321 = EDGE_CURVE( '', #375, #375, #376, .F. );
#322 = FILL_AREA_STYLE( '', ( #377 ) );
#323 = FILL_AREA_STYLE( '', ( #378 ) );
#324 = EDGE_CURVE( '', #379, #379, #380, .T. );
#325 = FILL_AREA_STYLE( '', ( #381 ) );
#326 = FILL_AREA_STYLE( '', ( #382 ) );
#327 = FILL_AREA_STYLE( '', ( #383 ) );
#328 = FILL_AREA_STYLE_COLOUR( '', #384 );
#329 = VERTEX_POINT( '', #385 );
#330 = VERTEX_POINT( '', #386 );
#331 = CIRCLE( '', #387, 1.25000000000000 );
#332 = VERTEX_POINT( '', #388 );
#333 = LINE( '', #389, #390 );
#334 = VERTEX_POINT( '', #391 );
#335 = CIRCLE( '', #392, 1.25000000000000 );
#336 = LINE( '', #393, #394 );
#337 = FILL_AREA_STYLE_COLOUR( '', #395 );
#338 = VERTEX_POINT( '', #396 );
#339 = VERTEX_POINT( '', #397 );
#340 = LINE( '', #398, #399 );
#341 = VERTEX_POINT( '', #400 );
#342 = CIRCLE( '', #401, 9.00000000000000 );
#343 = VERTEX_POINT( '', #402 );
#344 = LINE( '', #403, #404 );
#345 = CIRCLE( '', #405, 9.00000000000000 );
#346 = FILL_AREA_STYLE_COLOUR( '', #406 );
#347 = VERTEX_POINT( '', #407 );
#348 = CIRCLE( '', #408, 0.410683602500000 );
#349 = VERTEX_POINT( '', #409 );
#350 = CIRCLE( '', #410, 0.500000000000000 );
#351 = FILL_AREA_STYLE_COLOUR( '', #411 );
#352 = VERTEX_POINT( '', #412 );
#353 = B_SPLINE_CURVE_WITH_KNOTS( '', 3, ( #413, #414, #415, #416 ), .UNSPECIFIED., .F., .F., ( 4, 4 ), ( 0.00887692328294097, 0.00958770496259462 ), .UNSPECIFIED. );
#354 = LINE( '', #417, #418 );
#355 = VERTEX_POINT( '', #419 );
#356 = LINE( '', #420, #421 );
#357 = B_SPLINE_CURVE_WITH_KNOTS( '', 3, ( #422, #423, #424, #425 ), .UNSPECIFIED., .F., .F., ( 4, 4 ), ( 0.00999804561818856, 0.0107082897977041 ), .UNSPECIFIED. );
#358 = FILL_AREA_STYLE_COLOUR( '', #426 );
#359 = VERTEX_POINT( '', #427 );
#360 = B_SPLINE_CURVE_WITH_KNOTS( '', 3, ( #428, #429, #430, #431 ), .UNSPECIFIED., .F., .F., ( 4, 4 ), ( 0.00999804561818856, 0.0107082897977041 ), .UNSPECIFIED. );
#361 = CIRCLE( '', #432, 8.50000000000000 );
#362 = FILL_AREA_STYLE_COLOUR( '', #433 );
#363 = VERTEX_POINT( '', #434 );
#364 = CIRCLE( '', #435, 0.410683602500000 );
#365 = FILL_AREA_STYLE_COLOUR( '', #436 );
#366 = VERTEX_POINT( '', #437 );
#367 = CIRCLE( '', #438, 8.50000000000000 );
#368 = B_SPLINE_CURVE_WITH_KNOTS( '', 3, ( #439, #440, #441, #442 ), .UNSPECIFIED., .F., .F., ( 4, 4 ), ( 0.00887692328294098, 0.00958770496259462 ), .UNSPECIFIED. );
#369 = FILL_AREA_STYLE_COLOUR( '', #443 );
#370 = LINE( '', #444, #445 );
#371 = FILL_AREA_STYLE_COLOUR( '', #446 );
#372 = LINE( '', #447, #448 );
#373 = VERTEX_POINT( '', #449 );
#374 = CIRCLE( '', #450, 0.500000000000000 );
#375 = VERTEX_POINT( '', #451 );
#376 = CIRCLE( '', #452, 0.500000000000000 );
#377 = FILL_AREA_STYLE_COLOUR( '', #453 );
#378 = FILL_AREA_STYLE_COLOUR( '', #454 );
#379 = VERTEX_POINT( '', #455 );
#380 = CIRCLE( '', #456, 0.500000000000000 );
#381 = FILL_AREA_STYLE_COLOUR( '', #457 );
#382 = FILL_AREA_STYLE_COLOUR( '', #458 );
#383 = FILL_AREA_STYLE_COLOUR( '', #459 );
#384 = COLOUR_RGB( '', 0.689999997600000, 0.689999997600000, 0.689999997600000 );
#385 = CARTESIAN_POINT( '', ( 1.25000000000000, 0.000000000000000, 0.000000000000000 ) );
#386 = CARTESIAN_POINT( '', ( -1.25000000000000, 0.000000000000000, 0.000000000000000 ) );
#387 = AXIS2_PLACEMENT_3D( '', #460, #461, #462 );
#388 = CARTESIAN_POINT( '', ( 1.25000000000000, 2.50000000000000, 0.000000000000000 ) );
#389 = CARTESIAN_POINT( '', ( 1.25000000000000, 2.50000000000000, 0.000000000000000 ) );
#390 = VECTOR( '', #463, 1000.00000000000 );
#391 = CARTESIAN_POINT( '', ( -1.25000000000000, 2.50000000000000, 0.000000000000000 ) );
#392 = AXIS2_PLACEMENT_3D( '', #464, #465, #466 );
#393 = CARTESIAN_POINT( '', ( -1.25000000000000, 2.50000000000000, 0.000000000000000 ) );
#394 = VECTOR( '', #467, 1000.00000000000 );
#395 = COLOUR_RGB( '', 0.689999997600000, 0.689999997600000, 0.689999997600000 );
#396 = CARTESIAN_POINT( '', ( 1.25000000000000, 0.499999999999999, 8.91277173498794 ) );
#397 = CARTESIAN_POINT( '', ( 1.25000000000000, 2.00000000000000, 8.91277173498794 ) );
#398 = CARTESIAN_POINT( '', ( 1.25000000000000, 0.000000000000000, 8.91277173498794 ) );
#399 = VECTOR( '', #468, 1000.00000000000 );
#400 = CARTESIAN_POINT( '', ( -1.25000000000000, 0.499999999999999, 8.91277173498794 ) );
#401 = AXIS2_PLACEMENT_3D( '', #469, #470, #471 );
#402 = CARTESIAN_POINT( '', ( -1.25000000000000, 2.00000000000000, 8.91277173498794 ) );
#403 = CARTESIAN_POINT( '', ( -1.25000000000000, 0.000000000000000, 8.91277173498794 ) );
#404 = VECTOR( '', #472, 1000.00000000000 );
#405 = AXIS2_PLACEMENT_3D( '', #473, #474, #475 );
#406 = COLOUR_RGB( '', 0.689999997600000, 0.689999997600000, 0.689999997600000 );
#407 = CARTESIAN_POINT( '', ( 2.10000000000000, -1.50000000000000, -0.410683602522959 ) );
#408 = AXIS2_PLACEMENT_3D( '', #476, #477, #478 );
#409 = CARTESIAN_POINT( '', ( 2.10000000000000, -1.16666666666667, -0.500000000000000 ) );
#410 = AXIS2_PLACEMENT_3D( '', #479, #480, #481 );
#411 = COLOUR_RGB( '', 0.689999997600000, 0.689999997600000, 0.689999997600000 );
#412 = CARTESIAN_POINT( '', ( 1.25000000000000, 2.50000000000000, 8.40758586040012 ) );
#413 = CARTESIAN_POINT( '', ( 1.25000000000000, 2.00000000000000, 8.91277173498795 ) );
#414 = CARTESIAN_POINT( '', ( 1.25000000000000, 2.16671531700691, 8.74442479447649 ) );
#415 = CARTESIAN_POINT( '', ( 1.25000000000000, 2.33338487592750, 8.57603237740648 ) );
#416 = CARTESIAN_POINT( '', ( 1.25000000000000, 2.50000000000000, 8.40758586040012 ) );
#417 = CARTESIAN_POINT( '', ( 1.25000000000000, 2.50000000000000, 10.0000000000000 ) );
#418 = VECTOR( '', #482, 1000.00000000000 );
#419 = CARTESIAN_POINT( '', ( 1.25000000000000, 0.000000000000000, 8.40758586040012 ) );
#420 = CARTESIAN_POINT( '', ( 1.25000000000000, 0.000000000000000, 0.000000000000000 ) );
#421 = VECTOR( '', #483, 1000.00000000000 );
#422 = CARTESIAN_POINT( '', ( 1.25000000000000, -6.23942281773615E-16, 8.40758586040012 ) );
#423 = CARTESIAN_POINT( '', ( 1.25000000000000, 0.166615124072503, 8.57603237740647 ) );
#424 = CARTESIAN_POINT( '', ( 1.25000000000000, 0.333284682993091, 8.74442479447649 ) );
#425 = CARTESIAN_POINT( '', ( 1.25000000000000, 0.499999999999999, 8.91277173498794 ) );
#426 = COLOUR_RGB( '', 0.689999997600000, 0.689999997600000, 0.689999997600000 );
#427 = CARTESIAN_POINT( '', ( -1.25000000000000, 2.50000000000000, 8.40758586040012 ) );
#428 = CARTESIAN_POINT( '', ( -1.25000000000000, 2.50000000000000, 8.40758586040012 ) );
#429 = CARTESIAN_POINT( '', ( -1.25000000000000, 2.33338487592750, 8.57603237740647 ) );
#430 = CARTESIAN_POINT( '', ( -1.25000000000000, 2.16671531700691, 8.74442479447649 ) );
#431 = CARTESIAN_POINT( '', ( -1.25000000000000, 2.00000000000000, 8.91277173498794 ) );
#432 = AXIS2_PLACEMENT_3D( '', #484, #485, #486 );
#433 = COLOUR_RGB( '', 0.689999997600000, 0.689999997600000, 0.689999997600000 );
#434 = CARTESIAN_POINT( '', ( -2.10000000000000, -1.50000000000000, -0.410683602522959 ) );
#435 = AXIS2_PLACEMENT_3D( '', #487, #488, #489 );
#436 = COLOUR_RGB( '', 0.689999997600000, 0.689999997600000, 0.689999997600000 );
#437 = CARTESIAN_POINT( '', ( -1.25000000000000, 0.000000000000000, 8.40758586040012 ) );
#438 = AXIS2_PLACEMENT_3D( '', #490, #491, #492 );
#439 = CARTESIAN_POINT( '', ( -1.25000000000000, 0.499999999999999, 8.91277173498794 ) );
#440 = CARTESIAN_POINT( '', ( -1.25000000000000, 0.333284682993091, 8.74442479447649 ) );
#441 = CARTESIAN_POINT( '', ( -1.25000000000000, 0.166615124072503, 8.57603237740647 ) );
#442 = CARTESIAN_POINT( '', ( -1.25000000000000, 5.82912536822987E-17, 8.40758586040012 ) );
#443 = COLOUR_RGB( '', 0.689999997600000, 0.689999997600000, 0.689999997600000 );
#444 = CARTESIAN_POINT( '', ( -1.25000000000000, 2.50000000000000, 0.000000000000000 ) );
#445 = VECTOR( '', #493, 1000.00000000000 );
#446 = COLOUR_RGB( '', 0.689999997600000, 0.689999997600000, 0.689999997600000 );
#447 = CARTESIAN_POINT( '', ( -1.25000000000000, 0.000000000000000, 0.000000000000000 ) );
#448 = VECTOR( '', #494, 1000.00000000000 );
#449 = CARTESIAN_POINT( '', ( 2.10000000000000, 0.000000000000000, 0.500000000000000 ) );
#450 = AXIS2_PLACEMENT_3D( '', #495, #496, #497 );
#451 = CARTESIAN_POINT( '', ( -2.10000000000000, 0.000000000000000, 0.500000000000000 ) );
#452 = AXIS2_PLACEMENT_3D( '', #498, #499, #500 );
#453 = COLOUR_RGB( '', 0.689999997600000, 0.689999997600000, 0.689999997600000 );
#454 = COLOUR_RGB( '', 0.689999997600000, 0.689999997600000, 0.689999997600000 );
#455 = CARTESIAN_POINT( '', ( -2.10000000000000, -1.16666666666667, -0.500000000000000 ) );
#456 = AXIS2_PLACEMENT_3D( '', #501, #502, #503 );
#457 = COLOUR_RGB( '', 0.689999997600000, 0.689999997600000, 0.689999997600000 );
#458 = COLOUR_RGB( '', 0.689999997600000, 0.689999997600000, 0.689999997600000 );
#459 = COLOUR_RGB( '', 0.689999997600000, 0.689999997600000, 0.689999997600000 );
#460 = CARTESIAN_POINT( '', ( 2.16840434497101E-16, 0.000000000000000, 2.16840434497101E-16 ) );
#461 = DIRECTION( '', ( -0.000000000000000, 1.00000000000000, 0.000000000000000 ) );
#462 = DIRECTION( '', ( 1.00000000000000, 0.000000000000000, 0.000000000000000 ) );
#463 = DIRECTION( '', ( -0.000000000000000, -1.00000000000000, -0.000000000000000 ) );
#464 = CARTESIAN_POINT( '', ( 0.000000000000000, 2.50000000000000, 1.08420217248550E-16 ) );
#465 = DIRECTION( '', ( -0.000000000000000, 1.00000000000000, 0.000000000000000 ) );
#466 = DIRECTION( '', ( 1.00000000000000, 0.000000000000000, 0.000000000000000 ) );
#467 = DIRECTION( '', ( -0.000000000000000, -1.00000000000000, -0.000000000000000 ) );
#468 = DIRECTION( '', ( -0.000000000000000, -1.00000000000000, -0.000000000000000 ) );
#469 = CARTESIAN_POINT( '', ( 0.000000000000000, 0.500000000000000, 0.000000000000000 ) );
#470 = DIRECTION( '', ( 0.000000000000000, -1.00000000000000, -0.000000000000000 ) );
#471 = DIRECTION( '', ( 0.000000000000000, 0.000000000000000, -1.00000000000000 ) );
#472 = DIRECTION( '', ( -0.000000000000000, -1.00000000000000, -0.000000000000000 ) );
#473 = CARTESIAN_POINT( '', ( 0.000000000000000, 2.00000000000000, 0.000000000000000 ) );
#474 = DIRECTION( '', ( 0.000000000000000, -1.00000000000000, -0.000000000000000 ) );
#475 = DIRECTION( '', ( 0.000000000000000, 0.000000000000000, -1.00000000000000 ) );
#476 = CARTESIAN_POINT( '', ( 2.10000000000000, -1.50000000000000, 0.000000000000000 ) );
#477 = DIRECTION( '', ( 0.000000000000000, -1.00000000000000, -0.000000000000000 ) );
#478 = DIRECTION( '', ( 0.000000000000000, 0.000000000000000, -1.00000000000000 ) );
#479 = CARTESIAN_POINT( '', ( 2.10000000000000, -1.16666666666667, 0.000000000000000 ) );
#480 = DIRECTION( '', ( 0.000000000000000, -1.00000000000000, -0.000000000000000 ) );
#481 = DIRECTION( '', ( 0.000000000000000, 0.000000000000000, -1.00000000000000 ) );
#482 = DIRECTION( '', ( 0.000000000000000, 0.000000000000000, -1.00000000000000 ) );
#483 = DIRECTION( '', ( 0.000000000000000, -0.000000000000000, 1.00000000000000 ) );
#484 = CARTESIAN_POINT( '', ( 0.000000000000000, 2.50000000000000, 0.000000000000000 ) );
#485 = DIRECTION( '', ( 0.000000000000000, -1.00000000000000, -0.000000000000000 ) );
#486 = DIRECTION( '', ( 0.000000000000000, 0.000000000000000, -1.00000000000000 ) );
#487 = CARTESIAN_POINT( '', ( -2.10000000000000, -1.50000000000000, 0.000000000000000 ) );
#488 = DIRECTION( '', ( 0.000000000000000, -1.00000000000000, -0.000000000000000 ) );
#489 = DIRECTION( '', ( 0.000000000000000, 0.000000000000000, -1.00000000000000 ) );
#490 = CARTESIAN_POINT( '', ( 0.000000000000000, 0.000000000000000, 0.000000000000000 ) );
#491 = DIRECTION( '', ( 0.000000000000000, -1.00000000000000, -0.000000000000000 ) );
#492 = DIRECTION( '', ( 0.000000000000000, 0.000000000000000, -1.00000000000000 ) );
#493 = DIRECTION( '', ( 0.000000000000000, 0.000000000000000, 1.00000000000000 ) );
#494 = DIRECTION( '', ( 0.000000000000000, 0.000000000000000, 1.00000000000000 ) );
#495 = CARTESIAN_POINT( '', ( 2.10000000000000, 0.000000000000000, 0.000000000000000 ) );
#496 = DIRECTION( '', ( 0.000000000000000, 1.00000000000000, 0.000000000000000 ) );
#497 = DIRECTION( '', ( 0.000000000000000, -0.000000000000000, 1.00000000000000 ) );
#498 = CARTESIAN_POINT( '', ( -2.10000000000000, 0.000000000000000, 0.000000000000000 ) );
#499 = DIRECTION( '', ( 0.000000000000000, 1.00000000000000, 0.000000000000000 ) );
#500 = DIRECTION( '', ( 0.000000000000000, -0.000000000000000, 1.00000000000000 ) );
#501 = CARTESIAN_POINT( '', ( -2.10000000000000, -1.16666666666667, 0.000000000000000 ) );
#502 = DIRECTION( '', ( 0.000000000000000, -1.00000000000000, -0.000000000000000 ) );
#503 = DIRECTION( '', ( 0.000000000000000, 0.000000000000000, -1.00000000000000 ) );
ENDSEC;
END-ISO-10303-21;
