ISO-10303-21;
HEADER;
FILE_DESCRIPTION( ( 'STEP AP214' ), '1' );
FILE_NAME( '//goodhand-server/Shared Folders/GoodHand Data/Kipp CAD/K0760/K0760.215.stp', '2020-12-10T08:52:14', ( '' ), ( '' ), ' ', 'PARTsolutions', ' ' );
FILE_SCHEMA( ( 'AUTOMOTIVE_DESIGN { 1 0 10303 214 1 1 1 1 }' ) );
ENDSEC;
DATA;
#1 = MECHANICAL_DESIGN_GEOMETRIC_PRESENTATION_REPRESENTATION( ' ', ( #10, #11, #12, #13, #14, #15, #16, #17, #18, #19, #20, #21, #22, #23, #24 ), #6 );
#2 = PRODUCT_DEFINITION_CONTEXT( '', #25, 'design' );
#3 = APPLICATION_PROTOCOL_DEFINITION( 'international standard', 'automotive_design', 2001, #25 );
#4 = PRODUCT_CATEGORY_RELATIONSHIP( 'NONE', 'NONE', #26, #27 );
#5 = SHAPE_DEFINITION_REPRESENTATION( #28, #29 );
#6 =  ( GEOMETRIC_REPRESENTATION_CONTEXT( 3 )GLOBAL_UNCERTAINTY_ASSIGNED_CONTEXT( ( #32 ) )GLOBAL_UNIT_ASSIGNED_CONTEXT( ( #34, #35, #36 ) )REPRESENTATION_CONTEXT( 'NONE', 'WORKSPACE' ) );
#10 = STYLED_ITEM( '', ( #38 ), #39 );
#11 = STYLED_ITEM( '', ( #40 ), #41 );
#12 = STYLED_ITEM( '', ( #42 ), #43 );
#13 = STYLED_ITEM( '', ( #44 ), #45 );
#14 = STYLED_ITEM( '', ( #46 ), #47 );
#15 = STYLED_ITEM( '', ( #48 ), #49 );
#16 = STYLED_ITEM( '', ( #50 ), #51 );
#17 = STYLED_ITEM( '', ( #52 ), #53 );
#18 = STYLED_ITEM( '', ( #54 ), #55 );
#19 = STYLED_ITEM( '', ( #56 ), #57 );
#20 = STYLED_ITEM( '', ( #58 ), #59 );
#21 = STYLED_ITEM( '', ( #60 ), #61 );
#22 = STYLED_ITEM( '', ( #62 ), #63 );
#23 = STYLED_ITEM( '', ( #64 ), #65 );
#24 = STYLED_ITEM( '', ( #66 ), #67 );
#25 = APPLICATION_CONTEXT( 'core data for automotive mechanical design processes' );
#26 = PRODUCT_CATEGORY( 'part', 'NONE' );
#27 = PRODUCT_RELATED_PRODUCT_CATEGORY( 'detail', ' ', ( #68 ) );
#28 = PRODUCT_DEFINITION_SHAPE( 'NONE', 'NONE', #69 );
#29 = ADVANCED_BREP_SHAPE_REPRESENTATION( '_K0760.215', ( #70, #71 ), #6 );
#32 = UNCERTAINTY_MEASURE_WITH_UNIT( LENGTH_MEASURE( 0.00100000000000000 ), #34, '', '' );
#34 =  ( CONVERSION_BASED_UNIT( 'MILLIMETRE', #74 )LENGTH_UNIT(  )NAMED_UNIT( #77 ) );
#35 =  ( NAMED_UNIT( #79 )PLANE_ANGLE_UNIT(  )SI_UNIT( $, .RADIAN. ) );
#36 =  ( NAMED_UNIT( #79 )SI_UNIT( $, .STERADIAN. )SOLID_ANGLE_UNIT(  ) );
#38 = PRESENTATION_STYLE_ASSIGNMENT( ( #85 ) );
#39 = ADVANCED_FACE( '', ( #86, #87 ), #88, .T. );
#40 = PRESENTATION_STYLE_ASSIGNMENT( ( #89 ) );
#41 = ADVANCED_FACE( '', ( #90, #91 ), #92, .F. );
#42 = PRESENTATION_STYLE_ASSIGNMENT( ( #93 ) );
#43 = ADVANCED_FACE( '', ( #94, #95 ), #96, .F. );
#44 = PRESENTATION_STYLE_ASSIGNMENT( ( #97 ) );
#45 = ADVANCED_FACE( '', ( #98, #99 ), #100, .F. );
#46 = PRESENTATION_STYLE_ASSIGNMENT( ( #101 ) );
#47 = ADVANCED_FACE( '', ( #102 ), #103, .F. );
#48 = PRESENTATION_STYLE_ASSIGNMENT( ( #104 ) );
#49 = ADVANCED_FACE( '', ( #105, #106 ), #107, .T. );
#50 = PRESENTATION_STYLE_ASSIGNMENT( ( #108 ) );
#51 = ADVANCED_FACE( '', ( #109, #110 ), #111, .T. );
#52 = PRESENTATION_STYLE_ASSIGNMENT( ( #112 ) );
#53 = ADVANCED_FACE( '', ( #113, #114 ), #115, .T. );
#54 = PRESENTATION_STYLE_ASSIGNMENT( ( #116 ) );
#55 = ADVANCED_FACE( '', ( #117, #118 ), #119, .T. );
#56 = PRESENTATION_STYLE_ASSIGNMENT( ( #120 ) );
#57 = ADVANCED_FACE( '', ( #121, #122 ), #123, .T. );
#58 = PRESENTATION_STYLE_ASSIGNMENT( ( #124 ) );
#59 = ADVANCED_FACE( '', ( #125, #126 ), #127, .F. );
#60 = PRESENTATION_STYLE_ASSIGNMENT( ( #128 ) );
#61 = ADVANCED_FACE( '', ( #129, #130 ), #131, .F. );
#62 = PRESENTATION_STYLE_ASSIGNMENT( ( #132 ) );
#63 = ADVANCED_FACE( '', ( #133, #134 ), #135, .T. );
#64 = PRESENTATION_STYLE_ASSIGNMENT( ( #136 ) );
#65 = ADVANCED_FACE( '', ( #137, #138 ), #139, .T. );
#66 = PRESENTATION_STYLE_ASSIGNMENT( ( #140 ) );
#67 = ADVANCED_FACE( '', ( #141, #142 ), #143, .T. );
#68 = PRODUCT( '_K0760.215', '_K0760.215', 'PART-_K0760.215-DESC', ( #144 ) );
#69 = PRODUCT_DEFINITION( 'NONE', 'NONE', #145, #2 );
#70 = MANIFOLD_SOLID_BREP( '_K0760.215', #146 );
#71 = AXIS2_PLACEMENT_3D( '', #147, #148, #149 );
#74 = LENGTH_MEASURE_WITH_UNIT( LENGTH_MEASURE( 1.00000000000000 ), #150 );
#77 = DIMENSIONAL_EXPONENTS( 1.00000000000000, 0.000000000000000, 0.000000000000000, 0.000000000000000, 0.000000000000000, 0.000000000000000, 0.000000000000000 );
#79 = DIMENSIONAL_EXPONENTS( 0.000000000000000, 0.000000000000000, 0.000000000000000, 0.000000000000000, 0.000000000000000, 0.000000000000000, 0.000000000000000 );
#85 = SURFACE_STYLE_USAGE( .BOTH., #151 );
#86 = FACE_OUTER_BOUND( '', #152, .T. );
#87 = FACE_OUTER_BOUND( '', #153, .T. );
#88 = TOROIDAL_SURFACE( '', #154, 10.4160000000000, 1.58400000000000 );
#89 = SURFACE_STYLE_USAGE( .BOTH., #155 );
#90 = FACE_OUTER_BOUND( '', #156, .T. );
#91 = FACE_BOUND( '', #157, .T. );
#92 = PLANE( '', #158 );
#93 = SURFACE_STYLE_USAGE( .BOTH., #159 );
#94 = FACE_OUTER_BOUND( '', #160, .T. );
#95 = FACE_OUTER_BOUND( '', #161, .T. );
#96 = TOROIDAL_SURFACE( '', #162, 9.33216843400000, 0.521400000000000 );
#97 = SURFACE_STYLE_USAGE( .BOTH., #163 );
#98 = FACE_OUTER_BOUND( '', #164, .T. );
#99 = FACE_BOUND( '', #165, .T. );
#100 = PLANE( '', #166 );
#101 = SURFACE_STYLE_USAGE( .BOTH., #167 );
#102 = FACE_OUTER_BOUND( '', #168, .T. );
#103 = PLANE( '', #169 );
#104 = SURFACE_STYLE_USAGE( .BOTH., #170 );
#105 = FACE_OUTER_BOUND( '', #171, .T. );
#106 = FACE_OUTER_BOUND( '', #172, .T. );
#107 = CYLINDRICAL_SURFACE( '', #173, 12.0000000000000 );
#108 = SURFACE_STYLE_USAGE( .BOTH., #174 );
#109 = FACE_OUTER_BOUND( '', #175, .T. );
#110 = FACE_OUTER_BOUND( '', #176, .T. );
#111 = TOROIDAL_SURFACE( '', #177, 14.7800000000000, 0.720000000000000 );
#112 = SURFACE_STYLE_USAGE( .BOTH., #178 );
#113 = FACE_OUTER_BOUND( '', #179, .T. );
#114 = FACE_OUTER_BOUND( '', #180, .T. );
#115 = CYLINDRICAL_SURFACE( '', #181, 15.5000000000000 );
#116 = SURFACE_STYLE_USAGE( .BOTH., #182 );
#117 = FACE_BOUND( '', #183, .T. );
#118 = FACE_OUTER_BOUND( '', #184, .T. );
#119 = SPHERICAL_SURFACE( '', #185, 7.91000000000000 );
#120 = SURFACE_STYLE_USAGE( .BOTH., #186 );
#121 = FACE_OUTER_BOUND( '', #187, .T. );
#122 = FACE_OUTER_BOUND( '', #188, .T. );
#123 = TOROIDAL_SURFACE( '', #189, 14.7800000000000, 0.720000000000000 );
#124 = SURFACE_STYLE_USAGE( .BOTH., #190 );
#125 = FACE_BOUND( '', #191, .T. );
#126 = FACE_OUTER_BOUND( '', #192, .T. );
#127 = PLANE( '', #193 );
#128 = SURFACE_STYLE_USAGE( .BOTH., #194 );
#129 = FACE_OUTER_BOUND( '', #195, .T. );
#130 = FACE_OUTER_BOUND( '', #196, .T. );
#131 = SPHERICAL_SURFACE( '', #197, 7.95000000000000 );
#132 = SURFACE_STYLE_USAGE( .BOTH., #198 );
#133 = FACE_OUTER_BOUND( '', #199, .T. );
#134 = FACE_OUTER_BOUND( '', #200, .T. );
#135 = TOROIDAL_SURFACE( '', #201, 6.86463769040000, 0.790000000000000 );
#136 = SURFACE_STYLE_USAGE( .BOTH., #202 );
#137 = FACE_OUTER_BOUND( '', #203, .T. );
#138 = FACE_OUTER_BOUND( '', #204, .T. );
#139 = TOROIDAL_SURFACE( '', #205, 6.71639039960000, 0.158000000000000 );
#140 = SURFACE_STYLE_USAGE( .BOTH., #206 );
#141 = FACE_OUTER_BOUND( '', #207, .T. );
#142 = FACE_BOUND( '', #208, .T. );
#143 = CONICAL_SURFACE( '', #209, 7.58062084220000, 0.436332313000000 );
#144 = PRODUCT_CONTEXT( '', #25, 'mechanical' );
#145 = PRODUCT_DEFINITION_FORMATION_WITH_SPECIFIED_SOURCE( ' ', 'NONE', #68, .NOT_KNOWN. );
#146 = CLOSED_SHELL( '', ( #39, #47, #49, #61, #65, #41, #63, #67, #43, #45, #51, #53, #57, #59, #55 ) );
#147 = CARTESIAN_POINT( '', ( 0.000000000000000, 0.000000000000000, 0.000000000000000 ) );
#148 = DIRECTION( '', ( 0.000000000000000, 0.000000000000000, 1.00000000000000 ) );
#149 = DIRECTION( '', ( 1.00000000000000, 0.000000000000000, 0.000000000000000 ) );
#150 =  ( LENGTH_UNIT(  )NAMED_UNIT( #77 )SI_UNIT( .MILLI., .METRE. ) );
#151 = SURFACE_SIDE_STYLE( '', ( #211 ) );
#152 = EDGE_LOOP( '', ( #212 ) );
#153 = EDGE_LOOP( '', ( #213 ) );
#154 = AXIS2_PLACEMENT_3D( '', #214, #215, #216 );
#155 = SURFACE_SIDE_STYLE( '', ( #217 ) );
#156 = EDGE_LOOP( '', ( #218 ) );
#157 = EDGE_LOOP( '', ( #219 ) );
#158 = AXIS2_PLACEMENT_3D( '', #220, #221, #222 );
#159 = SURFACE_SIDE_STYLE( '', ( #223 ) );
#160 = EDGE_LOOP( '', ( #224 ) );
#161 = EDGE_LOOP( '', ( #225 ) );
#162 = AXIS2_PLACEMENT_3D( '', #226, #227, #228 );
#163 = SURFACE_SIDE_STYLE( '', ( #229 ) );
#164 = EDGE_LOOP( '', ( #230 ) );
#165 = EDGE_LOOP( '', ( #231 ) );
#166 = AXIS2_PLACEMENT_3D( '', #232, #233, #234 );
#167 = SURFACE_SIDE_STYLE( '', ( #235 ) );
#168 = EDGE_LOOP( '', ( #236 ) );
#169 = AXIS2_PLACEMENT_3D( '', #237, #238, #239 );
#170 = SURFACE_SIDE_STYLE( '', ( #240 ) );
#171 = EDGE_LOOP( '', ( #241 ) );
#172 = EDGE_LOOP( '', ( #242 ) );
#173 = AXIS2_PLACEMENT_3D( '', #243, #244, #245 );
#174 = SURFACE_SIDE_STYLE( '', ( #246 ) );
#175 = EDGE_LOOP( '', ( #247 ) );
#176 = EDGE_LOOP( '', ( #248 ) );
#177 = AXIS2_PLACEMENT_3D( '', #249, #250, #251 );
#178 = SURFACE_SIDE_STYLE( '', ( #252 ) );
#179 = EDGE_LOOP( '', ( #253 ) );
#180 = EDGE_LOOP( '', ( #254 ) );
#181 = AXIS2_PLACEMENT_3D( '', #255, #256, #257 );
#182 = SURFACE_SIDE_STYLE( '', ( #258 ) );
#183 = VERTEX_LOOP( '', #259 );
#184 = EDGE_LOOP( '', ( #260 ) );
#185 = AXIS2_PLACEMENT_3D( '', #261, #262, #263 );
#186 = SURFACE_SIDE_STYLE( '', ( #264 ) );
#187 = EDGE_LOOP( '', ( #265 ) );
#188 = EDGE_LOOP( '', ( #266 ) );
#189 = AXIS2_PLACEMENT_3D( '', #267, #268, #269 );
#190 = SURFACE_SIDE_STYLE( '', ( #270 ) );
#191 = EDGE_LOOP( '', ( #271 ) );
#192 = EDGE_LOOP( '', ( #272 ) );
#193 = AXIS2_PLACEMENT_3D( '', #273, #274, #275 );
#194 = SURFACE_SIDE_STYLE( '', ( #276 ) );
#195 = EDGE_LOOP( '', ( #277 ) );
#196 = EDGE_LOOP( '', ( #278 ) );
#197 = AXIS2_PLACEMENT_3D( '', #279, #280, #281 );
#198 = SURFACE_SIDE_STYLE( '', ( #282 ) );
#199 = EDGE_LOOP( '', ( #283 ) );
#200 = EDGE_LOOP( '', ( #284 ) );
#201 = AXIS2_PLACEMENT_3D( '', #285, #286, #287 );
#202 = SURFACE_SIDE_STYLE( '', ( #288 ) );
#203 = EDGE_LOOP( '', ( #289 ) );
#204 = EDGE_LOOP( '', ( #290 ) );
#205 = AXIS2_PLACEMENT_3D( '', #291, #292, #293 );
#206 = SURFACE_SIDE_STYLE( '', ( #294 ) );
#207 = EDGE_LOOP( '', ( #295 ) );
#208 = EDGE_LOOP( '', ( #296 ) );
#209 = AXIS2_PLACEMENT_3D( '', #297, #298, #299 );
#211 = SURFACE_STYLE_FILL_AREA( #300 );
#212 = ORIENTED_EDGE( '', *, *, #301, .T. );
#213 = ORIENTED_EDGE( '', *, *, #302, .F. );
#214 = CARTESIAN_POINT( '', ( 0.000000000000000, 1.58400000000000, 0.000000000000000 ) );
#215 = DIRECTION( '', ( 0.000000000000000, -1.00000000000000, -0.000000000000000 ) );
#216 = DIRECTION( '', ( 0.000000000000000, 0.000000000000000, -1.00000000000000 ) );
#217 = SURFACE_STYLE_FILL_AREA( #303 );
#218 = ORIENTED_EDGE( '', *, *, #304, .F. );
#219 = ORIENTED_EDGE( '', *, *, #305, .T. );
#220 = CARTESIAN_POINT( '', ( 6.71639039961198, 17.8000000000000, 0.000000000000000 ) );
#221 = DIRECTION( '', ( 0.000000000000000, -1.00000000000000, -0.000000000000000 ) );
#222 = DIRECTION( '', ( 0.000000000000000, 0.000000000000000, -1.00000000000000 ) );
#223 = SURFACE_STYLE_FILL_AREA( #306 );
#224 = ORIENTED_EDGE( '', *, *, #307, .F. );
#225 = ORIENTED_EDGE( '', *, *, #308, .T. );
#226 = CARTESIAN_POINT( '', ( 0.000000000000000, 14.8214000000000, 0.000000000000000 ) );
#227 = DIRECTION( '', ( 0.000000000000000, -1.00000000000000, -0.000000000000000 ) );
#228 = DIRECTION( '', ( 0.000000000000000, 0.000000000000000, -1.00000000000000 ) );
#229 = SURFACE_STYLE_FILL_AREA( #309 );
#230 = ORIENTED_EDGE( '', *, *, #310, .F. );
#231 = ORIENTED_EDGE( '', *, *, #307, .T. );
#232 = CARTESIAN_POINT( '', ( 9.33216843398503, 14.3000000000000, 0.000000000000000 ) );
#233 = DIRECTION( '', ( 0.000000000000000, -1.00000000000000, -0.000000000000000 ) );
#234 = DIRECTION( '', ( 0.000000000000000, 0.000000000000000, -1.00000000000000 ) );
#235 = SURFACE_STYLE_FILL_AREA( #311 );
#236 = ORIENTED_EDGE( '', *, *, #302, .T. );
#237 = CARTESIAN_POINT( '', ( 10.4160000000000, 0.000000000000000, 0.000000000000000 ) );
#238 = DIRECTION( '', ( 0.000000000000000, 1.00000000000000, 0.000000000000000 ) );
#239 = DIRECTION( '', ( 0.000000000000000, -0.000000000000000, 1.00000000000000 ) );
#240 = SURFACE_STYLE_FILL_AREA( #312 );
#241 = ORIENTED_EDGE( '', *, *, #301, .F. );
#242 = ORIENTED_EDGE( '', *, *, #313, .T. );
#243 = CARTESIAN_POINT( '', ( 0.000000000000000, 0.000000000000000, 0.000000000000000 ) );
#244 = DIRECTION( '', ( -0.000000000000000, 1.00000000000000, 0.000000000000000 ) );
#245 = DIRECTION( '', ( 0.000000000000000, 0.000000000000000, -1.00000000000000 ) );
#246 = SURFACE_STYLE_FILL_AREA( #314 );
#247 = ORIENTED_EDGE( '', *, *, #310, .T. );
#248 = ORIENTED_EDGE( '', *, *, #315, .F. );
#249 = CARTESIAN_POINT( '', ( 0.000000000000000, 13.5800000000000, 0.000000000000000 ) );
#250 = DIRECTION( '', ( 0.000000000000000, -1.00000000000000, -0.000000000000000 ) );
#251 = DIRECTION( '', ( 0.000000000000000, 0.000000000000000, -1.00000000000000 ) );
#252 = SURFACE_STYLE_FILL_AREA( #316 );
#253 = ORIENTED_EDGE( '', *, *, #317, .F. );
#254 = ORIENTED_EDGE( '', *, *, #315, .T. );
#255 = CARTESIAN_POINT( '', ( 0.000000000000000, 0.000000000000000, 0.000000000000000 ) );
#256 = DIRECTION( '', ( -0.000000000000000, 1.00000000000000, 0.000000000000000 ) );
#257 = DIRECTION( '', ( 0.000000000000000, 0.000000000000000, -1.00000000000000 ) );
#258 = SURFACE_STYLE_FILL_AREA( #318 );
#259 = VERTEX_POINT( '', #319 );
#260 = ORIENTED_EDGE( '', *, *, #320, .F. );
#261 = CARTESIAN_POINT( '', ( -8.67361737988404E-16, 13.0500000000000, 0.000000000000000 ) );
#262 = DIRECTION( '', ( 0.000000000000000, -1.00000000000000, 0.000000000000000 ) );
#263 = DIRECTION( '', ( -1.00000000000000, 0.000000000000000, 0.000000000000000 ) );
#264 = SURFACE_STYLE_FILL_AREA( #321 );
#265 = ORIENTED_EDGE( '', *, *, #317, .T. );
#266 = ORIENTED_EDGE( '', *, *, #322, .F. );
#267 = CARTESIAN_POINT( '', ( 0.000000000000000, 12.2200000000000, 0.000000000000000 ) );
#268 = DIRECTION( '', ( 0.000000000000000, -1.00000000000000, -0.000000000000000 ) );
#269 = DIRECTION( '', ( 0.000000000000000, 0.000000000000000, -1.00000000000000 ) );
#270 = SURFACE_STYLE_FILL_AREA( #323 );
#271 = ORIENTED_EDGE( '', *, *, #313, .F. );
#272 = ORIENTED_EDGE( '', *, *, #322, .T. );
#273 = CARTESIAN_POINT( '', ( 14.7800000000000, 11.5000000000000, 0.000000000000000 ) );
#274 = DIRECTION( '', ( 0.000000000000000, 1.00000000000000, 0.000000000000000 ) );
#275 = DIRECTION( '', ( 0.000000000000000, -0.000000000000000, 1.00000000000000 ) );
#276 = SURFACE_STYLE_FILL_AREA( #324 );
#277 = ORIENTED_EDGE( '', *, *, #325, .F. );
#278 = ORIENTED_EDGE( '', *, *, #320, .T. );
#279 = CARTESIAN_POINT( '', ( 8.67361737988404E-15, 13.1000000000000, 0.000000000000000 ) );
#280 = DIRECTION( '', ( 0.000000000000000, -1.00000000000000, 0.000000000000000 ) );
#281 = DIRECTION( '', ( -1.00000000000000, 0.000000000000000, 0.000000000000000 ) );
#282 = SURFACE_STYLE_FILL_AREA( #326 );
#283 = ORIENTED_EDGE( '', *, *, #304, .T. );
#284 = ORIENTED_EDGE( '', *, *, #327, .F. );
#285 = CARTESIAN_POINT( '', ( 0.000000000000000, 17.0100000000000, 0.000000000000000 ) );
#286 = DIRECTION( '', ( 0.000000000000000, -1.00000000000000, -0.000000000000000 ) );
#287 = DIRECTION( '', ( 0.000000000000000, 0.000000000000000, -1.00000000000000 ) );
#288 = SURFACE_STYLE_FILL_AREA( #328 );
#289 = ORIENTED_EDGE( '', *, *, #325, .T. );
#290 = ORIENTED_EDGE( '', *, *, #305, .F. );
#291 = CARTESIAN_POINT( '', ( 0.000000000000000, 17.6420000000000, 0.000000000000000 ) );
#292 = DIRECTION( '', ( 0.000000000000000, -1.00000000000000, -0.000000000000000 ) );
#293 = DIRECTION( '', ( 0.000000000000000, 0.000000000000000, -1.00000000000000 ) );
#294 = SURFACE_STYLE_FILL_AREA( #329 );
#295 = ORIENTED_EDGE( '', *, *, #308, .F. );
#296 = ORIENTED_EDGE( '', *, *, #327, .T. );
#297 = CARTESIAN_POINT( '', ( 0.000000000000000, 17.3438684267752, 0.000000000000000 ) );
#298 = DIRECTION( '', ( -0.000000000000000, -1.00000000000000, -0.000000000000000 ) );
#299 = DIRECTION( '', ( 0.000000000000000, 0.000000000000000, -1.00000000000000 ) );
#300 = FILL_AREA_STYLE( '', ( #330 ) );
#301 = EDGE_CURVE( '', #331, #331, #332, .T. );
#302 = EDGE_CURVE( '', #333, #333, #334, .T. );
#303 = FILL_AREA_STYLE( '', ( #335 ) );
#304 = EDGE_CURVE( '', #336, #336, #337, .T. );
#305 = EDGE_CURVE( '', #338, #338, #339, .T. );
#306 = FILL_AREA_STYLE( '', ( #340 ) );
#307 = EDGE_CURVE( '', #341, #341, #342, .T. );
#308 = EDGE_CURVE( '', #343, #343, #344, .T. );
#309 = FILL_AREA_STYLE( '', ( #345 ) );
#310 = EDGE_CURVE( '', #346, #346, #347, .T. );
#311 = FILL_AREA_STYLE( '', ( #348 ) );
#312 = FILL_AREA_STYLE( '', ( #349 ) );
#313 = EDGE_CURVE( '', #350, #350, #351, .T. );
#314 = FILL_AREA_STYLE( '', ( #352 ) );
#315 = EDGE_CURVE( '', #353, #353, #354, .T. );
#316 = FILL_AREA_STYLE( '', ( #355 ) );
#317 = EDGE_CURVE( '', #356, #356, #357, .T. );
#318 = FILL_AREA_STYLE( '', ( #358 ) );
#319 = CARTESIAN_POINT( '', ( -1.35170954705118E-15, 20.9600000000000, 0.000000000000000 ) );
#320 = EDGE_CURVE( '', #359, #359, #360, .T. );
#321 = FILL_AREA_STYLE( '', ( #361 ) );
#322 = EDGE_CURVE( '', #362, #362, #363, .T. );
#323 = FILL_AREA_STYLE( '', ( #364 ) );
#324 = FILL_AREA_STYLE( '', ( #365 ) );
#325 = EDGE_CURVE( '', #366, #366, #367, .T. );
#326 = FILL_AREA_STYLE( '', ( #368 ) );
#327 = EDGE_CURVE( '', #369, #369, #370, .T. );
#328 = FILL_AREA_STYLE( '', ( #371 ) );
#329 = FILL_AREA_STYLE( '', ( #372 ) );
#330 = FILL_AREA_STYLE_COLOUR( '', #373 );
#331 = VERTEX_POINT( '', #374 );
#332 = CIRCLE( '', #375, 12.0000000000000 );
#333 = VERTEX_POINT( '', #376 );
#334 = CIRCLE( '', #377, 10.4160000000000 );
#335 = FILL_AREA_STYLE_COLOUR( '', #378 );
#336 = VERTEX_POINT( '', #379 );
#337 = CIRCLE( '', #380, 6.86463769040000 );
#338 = VERTEX_POINT( '', #381 );
#339 = CIRCLE( '', #382, 6.71639039960000 );
#340 = FILL_AREA_STYLE_COLOUR( '', #383 );
#341 = VERTEX_POINT( '', #384 );
#342 = CIRCLE( '', #385, 9.33216843400000 );
#343 = VERTEX_POINT( '', #386 );
#344 = CIRCLE( '', #387, 8.85961955380000 );
#345 = FILL_AREA_STYLE_COLOUR( '', #388 );
#346 = VERTEX_POINT( '', #389 );
#347 = CIRCLE( '', #390, 14.7800000000000 );
#348 = FILL_AREA_STYLE_COLOUR( '', #391 );
#349 = FILL_AREA_STYLE_COLOUR( '', #392 );
#350 = VERTEX_POINT( '', #393 );
#351 = CIRCLE( '', #394, 12.0000000000000 );
#352 = FILL_AREA_STYLE_COLOUR( '', #395 );
#353 = VERTEX_POINT( '', #396 );
#354 = CIRCLE( '', #397, 15.5000000000000 );
#355 = FILL_AREA_STYLE_COLOUR( '', #398 );
#356 = VERTEX_POINT( '', #399 );
#357 = CIRCLE( '', #400, 15.5000000000000 );
#358 = FILL_AREA_STYLE_COLOUR( '', #401 );
#359 = VERTEX_POINT( '', #402 );
#360 = CIRCLE( '', #403, 4.75797635560000 );
#361 = FILL_AREA_STYLE_COLOUR( '', #404 );
#362 = VERTEX_POINT( '', #405 );
#363 = CIRCLE( '', #406, 14.7800000000000 );
#364 = FILL_AREA_STYLE_COLOUR( '', #407 );
#365 = FILL_AREA_STYLE_COLOUR( '', #408 );
#366 = VERTEX_POINT( '', #409 );
#367 = CIRCLE( '', #410, 6.58550849920000 );
#368 = FILL_AREA_STYLE_COLOUR( '', #411 );
#369 = VERTEX_POINT( '', #412 );
#370 = CIRCLE( '', #413, 7.58062084220000 );
#371 = FILL_AREA_STYLE_COLOUR( '', #414 );
#372 = FILL_AREA_STYLE_COLOUR( '', #415 );
#373 = COLOUR_RGB( '', 0.689999997600000, 0.689999997600000, 0.689999997600000 );
#374 = CARTESIAN_POINT( '', ( 0.000000000000000, 1.58400000000000, -12.0000000000000 ) );
#375 = AXIS2_PLACEMENT_3D( '', #416, #417, #418 );
#376 = CARTESIAN_POINT( '', ( 0.000000000000000, 0.000000000000000, -10.4160000000000 ) );
#377 = AXIS2_PLACEMENT_3D( '', #419, #420, #421 );
#378 = COLOUR_RGB( '', 0.689999997600000, 0.689999997600000, 0.689999997600000 );
#379 = CARTESIAN_POINT( '', ( 0.000000000000000, 17.8000000000000, -6.86463769041958 ) );
#380 = AXIS2_PLACEMENT_3D( '', #422, #423, #424 );
#381 = CARTESIAN_POINT( '', ( 0.000000000000000, 17.8000000000000, -6.71639039961198 ) );
#382 = AXIS2_PLACEMENT_3D( '', #425, #426, #427 );
#383 = COLOUR_RGB( '', 0.689999997600000, 0.689999997600000, 0.689999997600000 );
#384 = CARTESIAN_POINT( '', ( 0.000000000000000, 14.3000000000000, -9.33216843398503 ) );
#385 = AXIS2_PLACEMENT_3D( '', #428, #429, #430 );
#386 = CARTESIAN_POINT( '', ( 0.000000000000000, 14.6010468383284, -8.85961955382412 ) );
#387 = AXIS2_PLACEMENT_3D( '', #431, #432, #433 );
#388 = COLOUR_RGB( '', 0.689999997600000, 0.689999997600000, 0.689999997600000 );
#389 = CARTESIAN_POINT( '', ( 0.000000000000000, 14.3000000000000, -14.7800000000000 ) );
#390 = AXIS2_PLACEMENT_3D( '', #434, #435, #436 );
#391 = COLOUR_RGB( '', 0.689999997600000, 0.689999997600000, 0.689999997600000 );
#392 = COLOUR_RGB( '', 0.689999997600000, 0.689999997600000, 0.689999997600000 );
#393 = CARTESIAN_POINT( '', ( 0.000000000000000, 11.5000000000000, -12.0000000000000 ) );
#394 = AXIS2_PLACEMENT_3D( '', #437, #438, #439 );
#395 = COLOUR_RGB( '', 0.689999997600000, 0.689999997600000, 0.689999997600000 );
#396 = CARTESIAN_POINT( '', ( 0.000000000000000, 13.5800000000000, -15.5000000000000 ) );
#397 = AXIS2_PLACEMENT_3D( '', #440, #441, #442 );
#398 = COLOUR_RGB( '', 0.689999997600000, 0.689999997600000, 0.689999997600000 );
#399 = CARTESIAN_POINT( '', ( 0.000000000000000, 12.2200000000000, -15.5000000000000 ) );
#400 = AXIS2_PLACEMENT_3D( '', #443, #444, #445 );
#401 = COLOUR_RGB( '', 0.689999997600000, 0.689999997600000, 0.689999997600000 );
#402 = CARTESIAN_POINT( '', ( 4.75797635555187, 6.73099999999926, 0.000000000000000 ) );
#403 = AXIS2_PLACEMENT_3D( '', #446, #447, #448 );
#404 = COLOUR_RGB( '', 0.689999997600000, 0.689999997600000, 0.689999997600000 );
#405 = CARTESIAN_POINT( '', ( 0.000000000000000, 11.5000000000000, -14.7800000000000 ) );
#406 = AXIS2_PLACEMENT_3D( '', #449, #450, #451 );
#407 = COLOUR_RGB( '', 0.689999997600000, 0.689999997600000, 0.689999997600000 );
#408 = COLOUR_RGB( '', 0.689999997600000, 0.689999997600000, 0.689999997600000 );
#409 = CARTESIAN_POINT( '', ( 0.000000000000000, 17.5534905195238, -6.58550849916025 ) );
#410 = AXIS2_PLACEMENT_3D( '', #452, #453, #454 );
#411 = COLOUR_RGB( '', 0.689999997600000, 0.689999997600000, 0.689999997600000 );
#412 = CARTESIAN_POINT( '', ( 0.000000000000000, 17.3438684267752, -7.58062084217854 ) );
#413 = AXIS2_PLACEMENT_3D( '', #455, #456, #457 );
#414 = COLOUR_RGB( '', 0.689999997600000, 0.689999997600000, 0.689999997600000 );
#415 = COLOUR_RGB( '', 0.689999997600000, 0.689999997600000, 0.689999997600000 );
#416 = CARTESIAN_POINT( '', ( 0.000000000000000, 1.58400000000000, 0.000000000000000 ) );
#417 = DIRECTION( '', ( 0.000000000000000, -1.00000000000000, -0.000000000000000 ) );
#418 = DIRECTION( '', ( 0.000000000000000, 0.000000000000000, -1.00000000000000 ) );
#419 = CARTESIAN_POINT( '', ( 0.000000000000000, 0.000000000000000, 0.000000000000000 ) );
#420 = DIRECTION( '', ( 0.000000000000000, -1.00000000000000, -0.000000000000000 ) );
#421 = DIRECTION( '', ( 0.000000000000000, 0.000000000000000, -1.00000000000000 ) );
#422 = CARTESIAN_POINT( '', ( 0.000000000000000, 17.8000000000000, 0.000000000000000 ) );
#423 = DIRECTION( '', ( 0.000000000000000, -1.00000000000000, -0.000000000000000 ) );
#424 = DIRECTION( '', ( 0.000000000000000, 0.000000000000000, -1.00000000000000 ) );
#425 = CARTESIAN_POINT( '', ( 0.000000000000000, 17.8000000000000, 0.000000000000000 ) );
#426 = DIRECTION( '', ( 0.000000000000000, -1.00000000000000, -0.000000000000000 ) );
#427 = DIRECTION( '', ( 0.000000000000000, 0.000000000000000, -1.00000000000000 ) );
#428 = CARTESIAN_POINT( '', ( 0.000000000000000, 14.3000000000000, 0.000000000000000 ) );
#429 = DIRECTION( '', ( 0.000000000000000, -1.00000000000000, -0.000000000000000 ) );
#430 = DIRECTION( '', ( 0.000000000000000, 0.000000000000000, -1.00000000000000 ) );
#431 = CARTESIAN_POINT( '', ( 0.000000000000000, 14.6010468383284, 0.000000000000000 ) );
#432 = DIRECTION( '', ( 0.000000000000000, -1.00000000000000, -0.000000000000000 ) );
#433 = DIRECTION( '', ( 0.000000000000000, 0.000000000000000, -1.00000000000000 ) );
#434 = CARTESIAN_POINT( '', ( 0.000000000000000, 14.3000000000000, 0.000000000000000 ) );
#435 = DIRECTION( '', ( 0.000000000000000, -1.00000000000000, -0.000000000000000 ) );
#436 = DIRECTION( '', ( 0.000000000000000, 0.000000000000000, -1.00000000000000 ) );
#437 = CARTESIAN_POINT( '', ( 0.000000000000000, 11.5000000000000, 0.000000000000000 ) );
#438 = DIRECTION( '', ( 0.000000000000000, -1.00000000000000, -0.000000000000000 ) );
#439 = DIRECTION( '', ( 0.000000000000000, 0.000000000000000, -1.00000000000000 ) );
#440 = CARTESIAN_POINT( '', ( 0.000000000000000, 13.5800000000000, 0.000000000000000 ) );
#441 = DIRECTION( '', ( 0.000000000000000, -1.00000000000000, -0.000000000000000 ) );
#442 = DIRECTION( '', ( 0.000000000000000, 0.000000000000000, -1.00000000000000 ) );
#443 = CARTESIAN_POINT( '', ( 0.000000000000000, 12.2200000000000, 0.000000000000000 ) );
#444 = DIRECTION( '', ( 0.000000000000000, -1.00000000000000, -0.000000000000000 ) );
#445 = DIRECTION( '', ( 0.000000000000000, 0.000000000000000, -1.00000000000000 ) );
#446 = CARTESIAN_POINT( '', ( 0.000000000000000, 6.73100000000017, 0.000000000000000 ) );
#447 = DIRECTION( '', ( -1.90819582357470E-13, -1.00000000000000, 0.000000000000000 ) );
#448 = DIRECTION( '', ( 1.00000000000000, -1.90819582357470E-13, 0.000000000000000 ) );
#449 = CARTESIAN_POINT( '', ( 0.000000000000000, 11.5000000000000, 0.000000000000000 ) );
#450 = DIRECTION( '', ( 0.000000000000000, -1.00000000000000, -0.000000000000000 ) );
#451 = DIRECTION( '', ( 0.000000000000000, 0.000000000000000, -1.00000000000000 ) );
#452 = CARTESIAN_POINT( '', ( 0.000000000000000, 17.5534905195238, 0.000000000000000 ) );
#453 = DIRECTION( '', ( 0.000000000000000, -1.00000000000000, -0.000000000000000 ) );
#454 = DIRECTION( '', ( 0.000000000000000, 0.000000000000000, -1.00000000000000 ) );
#455 = CARTESIAN_POINT( '', ( 0.000000000000000, 17.3438684267752, 0.000000000000000 ) );
#456 = DIRECTION( '', ( 0.000000000000000, -1.00000000000000, -0.000000000000000 ) );
#457 = DIRECTION( '', ( 0.000000000000000, 0.000000000000000, -1.00000000000000 ) );
ENDSEC;
END-ISO-10303-21;
