ISO-10303-21;
HEADER;
FILE_DESCRIPTION( ( 'STEP AP214' ), '1' );
FILE_NAME( '//goodhand-server/Shared Folders/GoodHand Data/Kipp CAD/K0163/K0163.1080X12.stp', '2020-11-26T10:29:39', ( '' ), ( '' ), ' ', 'PARTsolutions', ' ' );
FILE_SCHEMA( ( 'AUTOMOTIVE_DESIGN { 1 0 10303 214 1 1 1 1 }' ) );
ENDSEC;
DATA;
#1 = MECHANICAL_DESIGN_GEOMETRIC_PRESENTATION_REPRESENTATION( ' ', ( #10, #11, #12, #13, #14, #15, #16, #17, #18, #19, #20, #21, #22, #23, #24 ), #6 );
#2 = PRODUCT_DEFINITION_CONTEXT( '', #25, 'design' );
#3 = APPLICATION_PROTOCOL_DEFINITION( 'international standard', 'automotive_design', 2001, #25 );
#4 = PRODUCT_CATEGORY_RELATIONSHIP( 'NONE', 'NONE', #26, #27 );
#5 = SHAPE_DEFINITION_REPRESENTATION( #28, #29 );
#6 =  ( GEOMETRIC_REPRESENTATION_CONTEXT( 3 )GLOBAL_UNCERTAINTY_ASSIGNED_CONTEXT( ( #32 ) )GLOBAL_UNIT_ASSIGNED_CONTEXT( ( #34, #35, #36 ) )REPRESENTATION_CONTEXT( 'NONE', 'WORKSPACE' ) );
#10 = STYLED_ITEM( '', ( #38 ), #39 );
#11 = STYLED_ITEM( '', ( #40 ), #41 );
#12 = STYLED_ITEM( '', ( #42 ), #43 );
#13 = STYLED_ITEM( '', ( #44 ), #45 );
#14 = STYLED_ITEM( '', ( #46 ), #47 );
#15 = STYLED_ITEM( '', ( #48 ), #49 );
#16 = STYLED_ITEM( '', ( #50 ), #51 );
#17 = STYLED_ITEM( '', ( #52 ), #53 );
#18 = STYLED_ITEM( '', ( #54 ), #55 );
#19 = STYLED_ITEM( '', ( #56 ), #57 );
#20 = STYLED_ITEM( '', ( #58 ), #59 );
#21 = STYLED_ITEM( '', ( #60 ), #61 );
#22 = STYLED_ITEM( '', ( #62 ), #63 );
#23 = STYLED_ITEM( '', ( #64 ), #65 );
#24 = STYLED_ITEM( '', ( #66 ), #67 );
#25 = APPLICATION_CONTEXT( 'core data for automotive mechanical design processes' );
#26 = PRODUCT_CATEGORY( 'part', 'NONE' );
#27 = PRODUCT_RELATED_PRODUCT_CATEGORY( 'detail', ' ', ( #68 ) );
#28 = PRODUCT_DEFINITION_SHAPE( 'NONE', 'NONE', #69 );
#29 = ADVANCED_BREP_SHAPE_REPRESENTATION( '_K0163.1080X12', ( #70, #71 ), #6 );
#32 = UNCERTAINTY_MEASURE_WITH_UNIT( LENGTH_MEASURE( 0.00100000000000000 ), #34, '', '' );
#34 =  ( CONVERSION_BASED_UNIT( 'MILLIMETRE', #74 )LENGTH_UNIT(  )NAMED_UNIT( #77 ) );
#35 =  ( NAMED_UNIT( #79 )PLANE_ANGLE_UNIT(  )SI_UNIT( $, .RADIAN. ) );
#36 =  ( NAMED_UNIT( #79 )SI_UNIT( $, .STERADIAN. )SOLID_ANGLE_UNIT(  ) );
#38 = PRESENTATION_STYLE_ASSIGNMENT( ( #85 ) );
#39 = ADVANCED_FACE( '', ( #86, #87 ), #88, .T. );
#40 = PRESENTATION_STYLE_ASSIGNMENT( ( #89 ) );
#41 = ADVANCED_FACE( '', ( #90, #91 ), #92, .T. );
#42 = PRESENTATION_STYLE_ASSIGNMENT( ( #93 ) );
#43 = ADVANCED_FACE( '', ( #94, #95 ), #96, .T. );
#44 = PRESENTATION_STYLE_ASSIGNMENT( ( #97 ) );
#45 = ADVANCED_FACE( '', ( #98, #99 ), #100, .T. );
#46 = PRESENTATION_STYLE_ASSIGNMENT( ( #101 ) );
#47 = ADVANCED_FACE( '', ( #102, #103 ), #104, .F. );
#48 = PRESENTATION_STYLE_ASSIGNMENT( ( #105 ) );
#49 = ADVANCED_FACE( '', ( #106, #107 ), #108, .F. );
#50 = PRESENTATION_STYLE_ASSIGNMENT( ( #109 ) );
#51 = ADVANCED_FACE( '', ( #110, #111 ), #112, .F. );
#52 = PRESENTATION_STYLE_ASSIGNMENT( ( #113 ) );
#53 = ADVANCED_FACE( '', ( #114 ), #115, .T. );
#54 = PRESENTATION_STYLE_ASSIGNMENT( ( #116 ) );
#55 = ADVANCED_FACE( '', ( #117 ), #118, .T. );
#56 = PRESENTATION_STYLE_ASSIGNMENT( ( #119 ) );
#57 = ADVANCED_FACE( '', ( #120, #121 ), #122, .F. );
#58 = PRESENTATION_STYLE_ASSIGNMENT( ( #123 ) );
#59 = ADVANCED_FACE( '', ( #124, #125 ), #126, .F. );
#60 = PRESENTATION_STYLE_ASSIGNMENT( ( #127 ) );
#61 = ADVANCED_FACE( '', ( #128, #129 ), #130, .F. );
#62 = PRESENTATION_STYLE_ASSIGNMENT( ( #131 ) );
#63 = ADVANCED_FACE( '', ( #132 ), #133, .T. );
#64 = PRESENTATION_STYLE_ASSIGNMENT( ( #134 ) );
#65 = ADVANCED_FACE( '', ( #135, #136, #137 ), #138, .T. );
#66 = PRESENTATION_STYLE_ASSIGNMENT( ( #139 ) );
#67 = ADVANCED_FACE( '', ( #140 ), #141, .F. );
#68 = PRODUCT( '_K0163.1080X12', '_K0163.1080X12', 'PART-_K0163.1080X12-DESC', ( #142 ) );
#69 = PRODUCT_DEFINITION( 'NONE', 'NONE', #143, #2 );
#70 = MANIFOLD_SOLID_BREP( '_K0163.1080X12', #144 );
#71 = AXIS2_PLACEMENT_3D( '', #145, #146, #147 );
#74 = LENGTH_MEASURE_WITH_UNIT( LENGTH_MEASURE( 1.00000000000000 ), #148 );
#77 = DIMENSIONAL_EXPONENTS( 1.00000000000000, 0.000000000000000, 0.000000000000000, 0.000000000000000, 0.000000000000000, 0.000000000000000, 0.000000000000000 );
#79 = DIMENSIONAL_EXPONENTS( 0.000000000000000, 0.000000000000000, 0.000000000000000, 0.000000000000000, 0.000000000000000, 0.000000000000000, 0.000000000000000 );
#85 = SURFACE_STYLE_USAGE( .BOTH., #149 );
#86 = FACE_OUTER_BOUND( '', #150, .T. );
#87 = FACE_OUTER_BOUND( '', #151, .T. );
#88 = CYLINDRICAL_SURFACE( '', #152, 12.5000000000000 );
#89 = SURFACE_STYLE_USAGE( .BOTH., #153 );
#90 = FACE_BOUND( '', #154, .T. );
#91 = FACE_OUTER_BOUND( '', #155, .T. );
#92 = CONICAL_SURFACE( '', #156, 28.0000000000000, 0.911990290700000 );
#93 = SURFACE_STYLE_USAGE( .BOTH., #157 );
#94 = FACE_OUTER_BOUND( '', #158, .T. );
#95 = FACE_OUTER_BOUND( '', #159, .T. );
#96 = CYLINDRICAL_SURFACE( '', #160, 12.5000000000000 );
#97 = SURFACE_STYLE_USAGE( .BOTH., #161 );
#98 = FACE_OUTER_BOUND( '', #162, .T. );
#99 = FACE_OUTER_BOUND( '', #163, .T. );
#100 = TOROIDAL_SURFACE( '', #164, 32.9528845709000, 8.00000000000000 );
#101 = SURFACE_STYLE_USAGE( .BOTH., #165 );
#102 = FACE_OUTER_BOUND( '', #166, .T. );
#103 = FACE_BOUND( '', #167, .T. );
#104 = CONICAL_SURFACE( '', #168, 12.5000000000000, 1.00148313570000 );
#105 = SURFACE_STYLE_USAGE( .BOTH., #169 );
#106 = FACE_BOUND( '', #170, .T. );
#107 = FACE_OUTER_BOUND( '', #171, .T. );
#108 = CONICAL_SURFACE( '', #172, 32.0000000000000, 1.21202565650000 );
#109 = SURFACE_STYLE_USAGE( .BOTH., #173 );
#110 = FACE_OUTER_BOUND( '', #174, .T. );
#111 = FACE_BOUND( '', #175, .T. );
#112 = CONICAL_SURFACE( '', #176, 31.5000000000000, 0.245454072200000 );
#113 = SURFACE_STYLE_USAGE( .BOTH., #177 );
#114 = FACE_OUTER_BOUND( '', #178, .T. );
#115 = PLANE( '', #179 );
#116 = SURFACE_STYLE_USAGE( .BOTH., #180 );
#117 = FACE_OUTER_BOUND( '', #181, .T. );
#118 = PLANE( '', #182 );
#119 = SURFACE_STYLE_USAGE( .BOTH., #183 );
#120 = FACE_BOUND( '', #184, .T. );
#121 = FACE_OUTER_BOUND( '', #185, .T. );
#122 = CONICAL_SURFACE( '', #186, 33.0000000000000, 0.471030031100000 );
#123 = SURFACE_STYLE_USAGE( .BOTH., #187 );
#124 = FACE_OUTER_BOUND( '', #188, .T. );
#125 = FACE_BOUND( '', #189, .T. );
#126 = PLANE( '', #190 );
#127 = SURFACE_STYLE_USAGE( .BOTH., #191 );
#128 = FACE_BOUND( '', #192, .T. );
#129 = FACE_OUTER_BOUND( '', #193, .T. );
#130 = PLANE( '', #194 );
#131 = SURFACE_STYLE_USAGE( .BOTH., #195 );
#132 = FACE_OUTER_BOUND( '', #196, .T. );
#133 = PLANE( '', #197 );
#134 = SURFACE_STYLE_USAGE( .BOTH., #198 );
#135 = FACE_BOUND( '', #199, .T. );
#136 = FACE_OUTER_BOUND( '', #200, .T. );
#137 = FACE_OUTER_BOUND( '', #201, .T. );
#138 = TOROIDAL_SURFACE( '', #202, 32.2500000000000, 7.75000000000000 );
#139 = SURFACE_STYLE_USAGE( .BOTH., #203 );
#140 = FACE_OUTER_BOUND( '', #204, .T. );
#141 = CYLINDRICAL_SURFACE( '', #205, 6.00000000000000 );
#142 = PRODUCT_CONTEXT( '', #25, 'mechanical' );
#143 = PRODUCT_DEFINITION_FORMATION_WITH_SPECIFIED_SOURCE( ' ', 'NONE', #68, .NOT_KNOWN. );
#144 = CLOSED_SHELL( '', ( #59, #63, #53, #67, #55, #61, #39, #41, #49, #57, #65, #51, #45, #47, #43 ) );
#145 = CARTESIAN_POINT( '', ( 0.000000000000000, 0.000000000000000, 0.000000000000000 ) );
#146 = DIRECTION( '', ( 0.000000000000000, 0.000000000000000, 1.00000000000000 ) );
#147 = DIRECTION( '', ( 1.00000000000000, 0.000000000000000, 0.000000000000000 ) );
#148 =  ( LENGTH_UNIT(  )NAMED_UNIT( #77 )SI_UNIT( .MILLI., .METRE. ) );
#149 = SURFACE_SIDE_STYLE( '', ( #207 ) );
#150 = EDGE_LOOP( '', ( #208 ) );
#151 = EDGE_LOOP( '', ( #209 ) );
#152 = AXIS2_PLACEMENT_3D( '', #210, #211, #212 );
#153 = SURFACE_SIDE_STYLE( '', ( #213 ) );
#154 = EDGE_LOOP( '', ( #214 ) );
#155 = EDGE_LOOP( '', ( #215 ) );
#156 = AXIS2_PLACEMENT_3D( '', #216, #217, #218 );
#157 = SURFACE_SIDE_STYLE( '', ( #219 ) );
#158 = EDGE_LOOP( '', ( #220 ) );
#159 = EDGE_LOOP( '', ( #221 ) );
#160 = AXIS2_PLACEMENT_3D( '', #222, #223, #224 );
#161 = SURFACE_SIDE_STYLE( '', ( #225 ) );
#162 = EDGE_LOOP( '', ( #226 ) );
#163 = EDGE_LOOP( '', ( #227 ) );
#164 = AXIS2_PLACEMENT_3D( '', #228, #229, #230 );
#165 = SURFACE_SIDE_STYLE( '', ( #231 ) );
#166 = EDGE_LOOP( '', ( #232 ) );
#167 = EDGE_LOOP( '', ( #233 ) );
#168 = AXIS2_PLACEMENT_3D( '', #234, #235, #236 );
#169 = SURFACE_SIDE_STYLE( '', ( #237 ) );
#170 = EDGE_LOOP( '', ( #238 ) );
#171 = EDGE_LOOP( '', ( #239 ) );
#172 = AXIS2_PLACEMENT_3D( '', #240, #241, #242 );
#173 = SURFACE_SIDE_STYLE( '', ( #243 ) );
#174 = EDGE_LOOP( '', ( #244 ) );
#175 = EDGE_LOOP( '', ( #245 ) );
#176 = AXIS2_PLACEMENT_3D( '', #246, #247, #248 );
#177 = SURFACE_SIDE_STYLE( '', ( #249 ) );
#178 = EDGE_LOOP( '', ( #250, #251, #252, #253 ) );
#179 = AXIS2_PLACEMENT_3D( '', #254, #255, #256 );
#180 = SURFACE_SIDE_STYLE( '', ( #257 ) );
#181 = EDGE_LOOP( '', ( #258, #259, #260, #261 ) );
#182 = AXIS2_PLACEMENT_3D( '', #262, #263, #264 );
#183 = SURFACE_SIDE_STYLE( '', ( #265 ) );
#184 = EDGE_LOOP( '', ( #266 ) );
#185 = EDGE_LOOP( '', ( #267 ) );
#186 = AXIS2_PLACEMENT_3D( '', #268, #269, #270 );
#187 = SURFACE_SIDE_STYLE( '', ( #271 ) );
#188 = EDGE_LOOP( '', ( #272 ) );
#189 = EDGE_LOOP( '', ( #273, #274, #275, #276 ) );
#190 = AXIS2_PLACEMENT_3D( '', #277, #278, #279 );
#191 = SURFACE_SIDE_STYLE( '', ( #280 ) );
#192 = EDGE_LOOP( '', ( #281, #282, #283, #284 ) );
#193 = EDGE_LOOP( '', ( #285 ) );
#194 = AXIS2_PLACEMENT_3D( '', #286, #287, #288 );
#195 = SURFACE_SIDE_STYLE( '', ( #289 ) );
#196 = EDGE_LOOP( '', ( #290, #291, #292, #293 ) );
#197 = AXIS2_PLACEMENT_3D( '', #294, #295, #296 );
#198 = SURFACE_SIDE_STYLE( '', ( #297 ) );
#199 = VERTEX_LOOP( '', #298 );
#200 = EDGE_LOOP( '', ( #299 ) );
#201 = EDGE_LOOP( '', ( #300 ) );
#202 = AXIS2_PLACEMENT_3D( '', #301, #302, #303 );
#203 = SURFACE_SIDE_STYLE( '', ( #304 ) );
#204 = EDGE_LOOP( '', ( #305, #306, #307, #308 ) );
#205 = AXIS2_PLACEMENT_3D( '', #309, #310, #311 );
#207 = SURFACE_STYLE_FILL_AREA( #312 );
#208 = ORIENTED_EDGE( '', *, *, #313, .F. );
#209 = ORIENTED_EDGE( '', *, *, #314, .T. );
#210 = CARTESIAN_POINT( '', ( 0.000000000000000, 0.000000000000000, 0.000000000000000 ) );
#211 = DIRECTION( '', ( 1.00000000000000, -0.000000000000000, -0.000000000000000 ) );
#212 = DIRECTION( '', ( 0.000000000000000, 0.000000000000000, 1.00000000000000 ) );
#213 = SURFACE_STYLE_FILL_AREA( #315 );
#214 = ORIENTED_EDGE( '', *, *, #314, .F. );
#215 = ORIENTED_EDGE( '', *, *, #316, .T. );
#216 = CARTESIAN_POINT( '', ( 18.0000000000000, 0.000000000000000, 0.000000000000000 ) );
#217 = DIRECTION( '', ( 1.00000000000000, -0.000000000000000, 0.000000000000000 ) );
#218 = DIRECTION( '', ( 0.000000000000000, 0.000000000000000, -1.00000000000000 ) );
#219 = SURFACE_STYLE_FILL_AREA( #317 );
#220 = ORIENTED_EDGE( '', *, *, #318, .F. );
#221 = ORIENTED_EDGE( '', *, *, #319, .T. );
#222 = CARTESIAN_POINT( '', ( 0.000000000000000, 0.000000000000000, 0.000000000000000 ) );
#223 = DIRECTION( '', ( 1.00000000000000, -0.000000000000000, -0.000000000000000 ) );
#224 = DIRECTION( '', ( 0.000000000000000, 0.000000000000000, 1.00000000000000 ) );
#225 = SURFACE_STYLE_FILL_AREA( #320 );
#226 = ORIENTED_EDGE( '', *, *, #321, .T. );
#227 = ORIENTED_EDGE( '', *, *, #322, .F. );
#228 = CARTESIAN_POINT( '', ( 20.1330357555473, 0.000000000000000, 0.000000000000000 ) );
#229 = DIRECTION( '', ( -1.00000000000000, 0.000000000000000, 0.000000000000000 ) );
#230 = DIRECTION( '', ( 0.000000000000000, 0.000000000000000, 1.00000000000000 ) );
#231 = SURFACE_STYLE_FILL_AREA( #323 );
#232 = ORIENTED_EDGE( '', *, *, #321, .F. );
#233 = ORIENTED_EDGE( '', *, *, #318, .T. );
#234 = CARTESIAN_POINT( '', ( 13.0000000000000, 0.000000000000000, 0.000000000000000 ) );
#235 = DIRECTION( '', ( 1.00000000000000, -0.000000000000000, 0.000000000000000 ) );
#236 = DIRECTION( '', ( 0.000000000000000, 0.000000000000000, -1.00000000000000 ) );
#237 = SURFACE_STYLE_FILL_AREA( #324 );
#238 = ORIENTED_EDGE( '', *, *, #316, .F. );
#239 = ORIENTED_EDGE( '', *, *, #325, .T. );
#240 = CARTESIAN_POINT( '', ( 16.5000000000000, 0.000000000000000, 0.000000000000000 ) );
#241 = DIRECTION( '', ( -1.00000000000000, -0.000000000000000, -0.000000000000000 ) );
#242 = DIRECTION( '', ( 0.000000000000000, 0.000000000000000, 1.00000000000000 ) );
#243 = SURFACE_STYLE_FILL_AREA( #326 );
#244 = ORIENTED_EDGE( '', *, *, #327, .F. );
#245 = ORIENTED_EDGE( '', *, *, #322, .T. );
#246 = CARTESIAN_POINT( '', ( 28.0000000000000, 0.000000000000000, 0.000000000000000 ) );
#247 = DIRECTION( '', ( 1.00000000000000, -0.000000000000000, 0.000000000000000 ) );
#248 = DIRECTION( '', ( 0.000000000000000, 0.000000000000000, -1.00000000000000 ) );
#249 = SURFACE_STYLE_FILL_AREA( #328 );
#250 = ORIENTED_EDGE( '', *, *, #329, .T. );
#251 = ORIENTED_EDGE( '', *, *, #330, .T. );
#252 = ORIENTED_EDGE( '', *, *, #331, .F. );
#253 = ORIENTED_EDGE( '', *, *, #332, .F. );
#254 = CARTESIAN_POINT( '', ( 24.0000000000000, 5.65685424949238, -2.00000000000000 ) );
#255 = DIRECTION( '', ( 0.000000000000000, 0.000000000000000, 1.00000000000000 ) );
#256 = DIRECTION( '', ( 1.00000000000000, 0.000000000000000, -0.000000000000000 ) );
#257 = SURFACE_STYLE_FILL_AREA( #333 );
#258 = ORIENTED_EDGE( '', *, *, #334, .T. );
#259 = ORIENTED_EDGE( '', *, *, #335, .T. );
#260 = ORIENTED_EDGE( '', *, *, #336, .F. );
#261 = ORIENTED_EDGE( '', *, *, #337, .F. );
#262 = CARTESIAN_POINT( '', ( 24.0000000000000, 7.80000000000000, 2.00000000000001 ) );
#263 = DIRECTION( '', ( 0.000000000000000, 3.23771442155238E-15, -1.00000000000000 ) );
#264 = DIRECTION( '', ( 0.000000000000000, 1.00000000000000, 3.23771442155238E-15 ) );
#265 = SURFACE_STYLE_FILL_AREA( #338 );
#266 = ORIENTED_EDGE( '', *, *, #325, .F. );
#267 = ORIENTED_EDGE( '', *, *, #339, .T. );
#268 = CARTESIAN_POINT( '', ( 14.5363756897292, 0.000000000000000, 0.000000000000000 ) );
#269 = DIRECTION( '', ( -1.00000000000000, -0.000000000000000, -0.000000000000000 ) );
#270 = DIRECTION( '', ( 0.000000000000000, 0.000000000000000, 1.00000000000000 ) );
#271 = SURFACE_STYLE_FILL_AREA( #340 );
#272 = ORIENTED_EDGE( '', *, *, #319, .F. );
#273 = ORIENTED_EDGE( '', *, *, #334, .F. );
#274 = ORIENTED_EDGE( '', *, *, #341, .F. );
#275 = ORIENTED_EDGE( '', *, *, #329, .F. );
#276 = ORIENTED_EDGE( '', *, *, #342, .F. );
#277 = CARTESIAN_POINT( '', ( 16.0000000000000, 0.000000000000000, 0.000000000000000 ) );
#278 = DIRECTION( '', ( -1.00000000000000, 0.000000000000000, 0.000000000000000 ) );
#279 = DIRECTION( '', ( 0.000000000000000, 0.000000000000000, 1.00000000000000 ) );
#280 = SURFACE_STYLE_FILL_AREA( #343 );
#281 = ORIENTED_EDGE( '', *, *, #336, .T. );
#282 = ORIENTED_EDGE( '', *, *, #344, .F. );
#283 = ORIENTED_EDGE( '', *, *, #331, .T. );
#284 = ORIENTED_EDGE( '', *, *, #345, .T. );
#285 = ORIENTED_EDGE( '', *, *, #313, .T. );
#286 = CARTESIAN_POINT( '', ( 0.000000000000000, -12.5000000000000, 0.000000000000000 ) );
#287 = DIRECTION( '', ( 1.00000000000000, 0.000000000000000, 0.000000000000000 ) );
#288 = DIRECTION( '', ( 0.000000000000000, 0.000000000000000, -1.00000000000000 ) );
#289 = SURFACE_STYLE_FILL_AREA( #346 );
#290 = ORIENTED_EDGE( '', *, *, #341, .T. );
#291 = ORIENTED_EDGE( '', *, *, #337, .T. );
#292 = ORIENTED_EDGE( '', *, *, #345, .F. );
#293 = ORIENTED_EDGE( '', *, *, #330, .F. );
#294 = CARTESIAN_POINT( '', ( 24.0000000000000, 7.80000000000000, -2.00000000000000 ) );
#295 = DIRECTION( '', ( 0.000000000000000, -1.00000000000000, 0.000000000000000 ) );
#296 = DIRECTION( '', ( 0.000000000000000, 0.000000000000000, -1.00000000000000 ) );
#297 = SURFACE_STYLE_FILL_AREA( #347 );
#298 = VERTEX_POINT( '', #348 );
#299 = ORIENTED_EDGE( '', *, *, #327, .T. );
#300 = ORIENTED_EDGE( '', *, *, #339, .F. );
#301 = CARTESIAN_POINT( '', ( 22.2500000000000, 0.000000000000000, 0.000000000000000 ) );
#302 = DIRECTION( '', ( -1.00000000000000, 0.000000000000000, 0.000000000000000 ) );
#303 = DIRECTION( '', ( 0.000000000000000, 0.000000000000000, 1.00000000000000 ) );
#304 = SURFACE_STYLE_FILL_AREA( #349 );
#305 = ORIENTED_EDGE( '', *, *, #342, .T. );
#306 = ORIENTED_EDGE( '', *, *, #332, .T. );
#307 = ORIENTED_EDGE( '', *, *, #344, .T. );
#308 = ORIENTED_EDGE( '', *, *, #335, .F. );
#309 = CARTESIAN_POINT( '', ( 24.0000000000000, 3.25260651745651E-16, 0.000000000000000 ) );
#310 = DIRECTION( '', ( 1.00000000000000, -0.000000000000000, -0.000000000000000 ) );
#311 = DIRECTION( '', ( 0.000000000000000, 0.000000000000000, 1.00000000000000 ) );
#312 = FILL_AREA_STYLE( '', ( #350 ) );
#313 = EDGE_CURVE( '', #351, #351, #352, .T. );
#314 = EDGE_CURVE( '', #353, #353, #354, .T. );
#315 = FILL_AREA_STYLE( '', ( #355 ) );
#316 = EDGE_CURVE( '', #356, #356, #357, .T. );
#317 = FILL_AREA_STYLE( '', ( #358 ) );
#318 = EDGE_CURVE( '', #359, #359, #360, .T. );
#319 = EDGE_CURVE( '', #361, #361, #362, .T. );
#320 = FILL_AREA_STYLE( '', ( #363 ) );
#321 = EDGE_CURVE( '', #364, #364, #365, .T. );
#322 = EDGE_CURVE( '', #366, #366, #367, .T. );
#323 = FILL_AREA_STYLE( '', ( #368 ) );
#324 = FILL_AREA_STYLE( '', ( #369 ) );
#325 = EDGE_CURVE( '', #370, #370, #371, .T. );
#326 = FILL_AREA_STYLE( '', ( #372 ) );
#327 = EDGE_CURVE( '', #373, #373, #374, .T. );
#328 = FILL_AREA_STYLE( '', ( #375 ) );
#329 = EDGE_CURVE( '', #376, #377, #378, .T. );
#330 = EDGE_CURVE( '', #377, #379, #380, .T. );
#331 = EDGE_CURVE( '', #381, #379, #382, .T. );
#332 = EDGE_CURVE( '', #376, #381, #383, .T. );
#333 = FILL_AREA_STYLE( '', ( #384 ) );
#334 = EDGE_CURVE( '', #385, #386, #387, .T. );
#335 = EDGE_CURVE( '', #386, #388, #389, .T. );
#336 = EDGE_CURVE( '', #390, #388, #391, .T. );
#337 = EDGE_CURVE( '', #385, #390, #392, .T. );
#338 = FILL_AREA_STYLE( '', ( #393 ) );
#339 = EDGE_CURVE( '', #394, #394, #395, .T. );
#340 = FILL_AREA_STYLE( '', ( #396 ) );
#341 = EDGE_CURVE( '', #377, #385, #397, .T. );
#342 = EDGE_CURVE( '', #386, #376, #398, .F. );
#343 = FILL_AREA_STYLE( '', ( #399 ) );
#344 = EDGE_CURVE( '', #381, #388, #400, .F. );
#345 = EDGE_CURVE( '', #379, #390, #401, .T. );
#346 = FILL_AREA_STYLE( '', ( #402 ) );
#347 = FILL_AREA_STYLE( '', ( #403 ) );
#348 = CARTESIAN_POINT( '', ( 22.2500000000000, 0.000000000000000, 40.0000000000000 ) );
#349 = FILL_AREA_STYLE( '', ( #404 ) );
#350 = FILL_AREA_STYLE_COLOUR( '', #405 );
#351 = VERTEX_POINT( '', #406 );
#352 = CIRCLE( '', #407, 12.5000000000000 );
#353 = VERTEX_POINT( '', #408 );
#354 = CIRCLE( '', #409, 12.5000000000000 );
#355 = FILL_AREA_STYLE_COLOUR( '', #410 );
#356 = VERTEX_POINT( '', #411 );
#357 = CIRCLE( '', #412, 28.0000000000000 );
#358 = FILL_AREA_STYLE_COLOUR( '', #413 );
#359 = VERTEX_POINT( '', #414 );
#360 = CIRCLE( '', #415, 12.5000000000000 );
#361 = VERTEX_POINT( '', #416 );
#362 = CIRCLE( '', #417, 12.5000000000000 );
#363 = FILL_AREA_STYLE_COLOUR( '', #418 );
#364 = VERTEX_POINT( '', #419 );
#365 = CIRCLE( '', #420, 25.0000000000000 );
#366 = VERTEX_POINT( '', #421 );
#367 = CIRCLE( '', #422, 31.5000000000000 );
#368 = FILL_AREA_STYLE_COLOUR( '', #423 );
#369 = FILL_AREA_STYLE_COLOUR( '', #424 );
#370 = VERTEX_POINT( '', #425 );
#371 = CIRCLE( '', #426, 32.0000000000000 );
#372 = FILL_AREA_STYLE_COLOUR( '', #427 );
#373 = VERTEX_POINT( '', #428 );
#374 = CIRCLE( '', #429, 32.0000000000000 );
#375 = FILL_AREA_STYLE_COLOUR( '', #430 );
#376 = VERTEX_POINT( '', #431 );
#377 = VERTEX_POINT( '', #432 );
#378 = LINE( '', #433, #434 );
#379 = VERTEX_POINT( '', #435 );
#380 = LINE( '', #436, #437 );
#381 = VERTEX_POINT( '', #438 );
#382 = LINE( '', #439, #440 );
#383 = LINE( '', #441, #442 );
#384 = FILL_AREA_STYLE_COLOUR( '', #443 );
#385 = VERTEX_POINT( '', #444 );
#386 = VERTEX_POINT( '', #445 );
#387 = LINE( '', #446, #447 );
#388 = VERTEX_POINT( '', #448 );
#389 = LINE( '', #449, #450 );
#390 = VERTEX_POINT( '', #451 );
#391 = LINE( '', #452, #453 );
#392 = LINE( '', #454, #455 );
#393 = FILL_AREA_STYLE_COLOUR( '', #456 );
#394 = VERTEX_POINT( '', #457 );
#395 = CIRCLE( '', #458, 33.0000000000000 );
#396 = FILL_AREA_STYLE_COLOUR( '', #459 );
#397 = LINE( '', #460, #461 );
#398 = CIRCLE( '', #462, 6.00000000000000 );
#399 = FILL_AREA_STYLE_COLOUR( '', #463 );
#400 = CIRCLE( '', #464, 6.00000000000000 );
#401 = LINE( '', #465, #466 );
#402 = FILL_AREA_STYLE_COLOUR( '', #467 );
#403 = FILL_AREA_STYLE_COLOUR( '', #468 );
#404 = FILL_AREA_STYLE_COLOUR( '', #469 );
#405 = COLOUR_RGB( '', 0.689999997600000, 0.689999997600000, 0.689999997600000 );
#406 = CARTESIAN_POINT( '', ( 0.000000000000000, 0.000000000000000, 12.5000000000000 ) );
#407 = AXIS2_PLACEMENT_3D( '', #470, #471, #472 );
#408 = CARTESIAN_POINT( '', ( 6.00000000000000, 0.000000000000000, 12.5000000000000 ) );
#409 = AXIS2_PLACEMENT_3D( '', #473, #474, #475 );
#410 = COLOUR_RGB( '', 0.689999997600000, 0.689999997600000, 0.689999997600000 );
#411 = CARTESIAN_POINT( '', ( 18.0000000000000, 0.000000000000000, 28.0000000000000 ) );
#412 = AXIS2_PLACEMENT_3D( '', #476, #477, #478 );
#413 = COLOUR_RGB( '', 0.689999997600000, 0.689999997600000, 0.689999997600000 );
#414 = CARTESIAN_POINT( '', ( 13.0000000000000, 0.000000000000000, 12.5000000000000 ) );
#415 = AXIS2_PLACEMENT_3D( '', #479, #480, #481 );
#416 = CARTESIAN_POINT( '', ( 16.0000000000000, 0.000000000000000, 12.5000000000000 ) );
#417 = AXIS2_PLACEMENT_3D( '', #482, #483, #484 );
#418 = COLOUR_RGB( '', 0.689999997600000, 0.689999997600000, 0.689999997600000 );
#419 = CARTESIAN_POINT( '', ( 21.0000000000000, 0.000000000000000, 25.0000000000000 ) );
#420 = AXIS2_PLACEMENT_3D( '', #485, #486, #487 );
#421 = CARTESIAN_POINT( '', ( 28.0000000000000, 0.000000000000000, 31.5000000000000 ) );
#422 = AXIS2_PLACEMENT_3D( '', #488, #489, #490 );
#423 = COLOUR_RGB( '', 0.689999997600000, 0.689999997600000, 0.689999997600000 );
#424 = COLOUR_RGB( '', 0.689999997600000, 0.689999997600000, 0.689999997600000 );
#425 = CARTESIAN_POINT( '', ( 16.5000000000000, 0.000000000000000, 32.0000000000000 ) );
#426 = AXIS2_PLACEMENT_3D( '', #491, #492, #493 );
#427 = COLOUR_RGB( '', 0.689999997600000, 0.689999997600000, 0.689999997600000 );
#428 = CARTESIAN_POINT( '', ( 29.9959666924148, 0.000000000000000, 32.0000000000000 ) );
#429 = AXIS2_PLACEMENT_3D( '', #494, #495, #496 );
#430 = COLOUR_RGB( '', 0.689999997600000, 0.689999997600000, 0.689999997600000 );
#431 = CARTESIAN_POINT( '', ( 16.0000000000000, 5.65685424949238, -1.99999999999999 ) );
#432 = CARTESIAN_POINT( '', ( 16.0000000000000, 7.80000000000000, -2.00000000000000 ) );
#433 = CARTESIAN_POINT( '', ( 16.0000000000000, 0.000000000000000, -2.00000000000000 ) );
#434 = VECTOR( '', #497, 1000.00000000000 );
#435 = CARTESIAN_POINT( '', ( 0.000000000000000, 7.80000000000000, -2.00000000000000 ) );
#436 = CARTESIAN_POINT( '', ( 24.0000000000000, 7.80000000000000, -2.00000000000000 ) );
#437 = VECTOR( '', #498, 1000.00000000000 );
#438 = CARTESIAN_POINT( '', ( 0.000000000000000, 5.65685424949238, -1.99999999999999 ) );
#439 = CARTESIAN_POINT( '', ( 0.000000000000000, 5.65685424949238, -2.00000000000000 ) );
#440 = VECTOR( '', #499, 1000.00000000000 );
#441 = CARTESIAN_POINT( '', ( 24.0000000000000, 5.65685424949238, -1.99999999999999 ) );
#442 = VECTOR( '', #500, 1000.00000000000 );
#443 = COLOUR_RGB( '', 0.689999997600000, 0.689999997600000, 0.689999997600000 );
#444 = CARTESIAN_POINT( '', ( 16.0000000000000, 7.80000000000000, 2.00000000000001 ) );
#445 = CARTESIAN_POINT( '', ( 16.0000000000000, 5.65685424949238, 2.00000000000000 ) );
#446 = CARTESIAN_POINT( '', ( 16.0000000000000, -6.47542884310471E-15, 1.99999999999998 ) );
#447 = VECTOR( '', #501, 1000.00000000000 );
#448 = CARTESIAN_POINT( '', ( 0.000000000000000, 5.65685424949238, 2.00000000000000 ) );
#449 = CARTESIAN_POINT( '', ( 24.0000000000000, 5.65685424949238, 2.00000000000000 ) );
#450 = VECTOR( '', #502, 1000.00000000000 );
#451 = CARTESIAN_POINT( '', ( 0.000000000000000, 7.80000000000000, 2.00000000000001 ) );
#452 = CARTESIAN_POINT( '', ( 0.000000000000000, 7.80000000000000, 2.00000000000001 ) );
#453 = VECTOR( '', #503, 1000.00000000000 );
#454 = CARTESIAN_POINT( '', ( 24.0000000000000, 7.80000000000000, 2.00000000000001 ) );
#455 = VECTOR( '', #504, 1000.00000000000 );
#456 = COLOUR_RGB( '', 0.689999997600000, 0.689999997600000, 0.689999997600000 );
#457 = CARTESIAN_POINT( '', ( 14.5363756897292, 0.000000000000000, 33.0000000000000 ) );
#458 = AXIS2_PLACEMENT_3D( '', #505, #506, #507 );
#459 = COLOUR_RGB( '', 0.689999997600000, 0.689999997600000, 0.689999997600000 );
#460 = CARTESIAN_POINT( '', ( 16.0000000000000, 7.80000000000000, 0.000000000000000 ) );
#461 = VECTOR( '', #508, 1000.00000000000 );
#462 = AXIS2_PLACEMENT_3D( '', #509, #510, #511 );
#463 = COLOUR_RGB( '', 0.689999997600000, 0.689999997600000, 0.689999997600000 );
#464 = AXIS2_PLACEMENT_3D( '', #512, #513, #514 );
#465 = CARTESIAN_POINT( '', ( 0.000000000000000, 7.80000000000000, -2.00000000000000 ) );
#466 = VECTOR( '', #515, 1000.00000000000 );
#467 = COLOUR_RGB( '', 0.689999997600000, 0.689999997600000, 0.689999997600000 );
#468 = COLOUR_RGB( '', 0.689999997600000, 0.689999997600000, 0.689999997600000 );
#469 = COLOUR_RGB( '', 0.689999997600000, 0.689999997600000, 0.689999997600000 );
#470 = CARTESIAN_POINT( '', ( 0.000000000000000, 0.000000000000000, 0.000000000000000 ) );
#471 = DIRECTION( '', ( -1.00000000000000, 0.000000000000000, 0.000000000000000 ) );
#472 = DIRECTION( '', ( 0.000000000000000, 0.000000000000000, 1.00000000000000 ) );
#473 = CARTESIAN_POINT( '', ( 6.00000000000000, 0.000000000000000, 0.000000000000000 ) );
#474 = DIRECTION( '', ( -1.00000000000000, 0.000000000000000, 0.000000000000000 ) );
#475 = DIRECTION( '', ( 0.000000000000000, 0.000000000000000, 1.00000000000000 ) );
#476 = CARTESIAN_POINT( '', ( 18.0000000000000, 0.000000000000000, 0.000000000000000 ) );
#477 = DIRECTION( '', ( -1.00000000000000, 0.000000000000000, 0.000000000000000 ) );
#478 = DIRECTION( '', ( 0.000000000000000, 0.000000000000000, 1.00000000000000 ) );
#479 = CARTESIAN_POINT( '', ( 13.0000000000000, 0.000000000000000, 0.000000000000000 ) );
#480 = DIRECTION( '', ( -1.00000000000000, 0.000000000000000, 0.000000000000000 ) );
#481 = DIRECTION( '', ( 0.000000000000000, 0.000000000000000, 1.00000000000000 ) );
#482 = CARTESIAN_POINT( '', ( 16.0000000000000, 0.000000000000000, 0.000000000000000 ) );
#483 = DIRECTION( '', ( -1.00000000000000, 0.000000000000000, 0.000000000000000 ) );
#484 = DIRECTION( '', ( 0.000000000000000, 0.000000000000000, 1.00000000000000 ) );
#485 = CARTESIAN_POINT( '', ( 21.0000000000000, 0.000000000000000, 0.000000000000000 ) );
#486 = DIRECTION( '', ( -1.00000000000000, 0.000000000000000, 0.000000000000000 ) );
#487 = DIRECTION( '', ( 0.000000000000000, 0.000000000000000, 1.00000000000000 ) );
#488 = CARTESIAN_POINT( '', ( 28.0000000000000, 0.000000000000000, 0.000000000000000 ) );
#489 = DIRECTION( '', ( -1.00000000000000, 0.000000000000000, 0.000000000000000 ) );
#490 = DIRECTION( '', ( 0.000000000000000, 0.000000000000000, 1.00000000000000 ) );
#491 = CARTESIAN_POINT( '', ( 16.5000000000000, 0.000000000000000, 0.000000000000000 ) );
#492 = DIRECTION( '', ( -1.00000000000000, 0.000000000000000, 0.000000000000000 ) );
#493 = DIRECTION( '', ( 0.000000000000000, 0.000000000000000, 1.00000000000000 ) );
#494 = CARTESIAN_POINT( '', ( 29.9959666924148, 0.000000000000000, 0.000000000000000 ) );
#495 = DIRECTION( '', ( -1.00000000000000, 0.000000000000000, 0.000000000000000 ) );
#496 = DIRECTION( '', ( 0.000000000000000, 0.000000000000000, 1.00000000000000 ) );
#497 = DIRECTION( '', ( 0.000000000000000, 1.00000000000000, 0.000000000000000 ) );
#498 = DIRECTION( '', ( -1.00000000000000, -0.000000000000000, -0.000000000000000 ) );
#499 = DIRECTION( '', ( 0.000000000000000, 1.00000000000000, 0.000000000000000 ) );
#500 = DIRECTION( '', ( -1.00000000000000, -0.000000000000000, -0.000000000000000 ) );
#501 = DIRECTION( '', ( 0.000000000000000, -1.00000000000000, -3.23771442155238E-15 ) );
#502 = DIRECTION( '', ( -1.00000000000000, -0.000000000000000, -0.000000000000000 ) );
#503 = DIRECTION( '', ( 0.000000000000000, -1.00000000000000, -3.23771442155238E-15 ) );
#504 = DIRECTION( '', ( -1.00000000000000, -0.000000000000000, -0.000000000000000 ) );
#505 = CARTESIAN_POINT( '', ( 14.5363756897292, 0.000000000000000, 0.000000000000000 ) );
#506 = DIRECTION( '', ( -1.00000000000000, 0.000000000000000, 0.000000000000000 ) );
#507 = DIRECTION( '', ( 0.000000000000000, 0.000000000000000, 1.00000000000000 ) );
#508 = DIRECTION( '', ( 0.000000000000000, 0.000000000000000, 1.00000000000000 ) );
#509 = CARTESIAN_POINT( '', ( 16.0000000000000, 3.25260651745651E-16, 0.000000000000000 ) );
#510 = DIRECTION( '', ( -1.00000000000000, 0.000000000000000, 0.000000000000000 ) );
#511 = DIRECTION( '', ( 0.000000000000000, 0.000000000000000, 1.00000000000000 ) );
#512 = CARTESIAN_POINT( '', ( 0.000000000000000, 3.25260651745651E-16, 0.000000000000000 ) );
#513 = DIRECTION( '', ( 1.00000000000000, 0.000000000000000, 0.000000000000000 ) );
#514 = DIRECTION( '', ( 0.000000000000000, 0.000000000000000, -1.00000000000000 ) );
#515 = DIRECTION( '', ( 0.000000000000000, 0.000000000000000, 1.00000000000000 ) );
ENDSEC;
END-ISO-10303-21;
