ISO-10303-21;
HEADER;
FILE_DESCRIPTION( ( 'STEP AP214' ), '1' );
FILE_NAME( '//goodhand-server/Shared Folders/GoodHand Data/Kipp CAD/K0334/K0335.305_0.stp', '2020-12-03T09:01:29', ( '' ), ( '' ), ' ', 'PARTsolutions', ' ' );
FILE_SCHEMA( ( 'AUTOMOTIVE_DESIGN { 1 0 10303 214 1 1 1 1 }' ) );
ENDSEC;
DATA;
#1 = MECHANICAL_DESIGN_GEOMETRIC_PRESENTATION_REPRESENTATION( ' ', ( #10, #11, #12, #13, #14, #15, #16, #17, #18 ), #6 );
#2 = PRODUCT_DEFINITION_CONTEXT( '', #19, 'design' );
#3 = APPLICATION_PROTOCOL_DEFINITION( 'international standard', 'automotive_design', 2001, #19 );
#4 = PRODUCT_CATEGORY_RELATIONSHIP( 'NONE', 'NONE', #20, #21 );
#5 = SHAPE_DEFINITION_REPRESENTATION( #22, #23 );
#6 =  ( GEOMETRIC_REPRESENTATION_CONTEXT( 3 )GLOBAL_UNCERTAINTY_ASSIGNED_CONTEXT( ( #26 ) )GLOBAL_UNIT_ASSIGNED_CONTEXT( ( #28, #29, #30 ) )REPRESENTATION_CONTEXT( 'NONE', 'WORKSPACE' ) );
#10 = STYLED_ITEM( '', ( #32 ), #33 );
#11 = STYLED_ITEM( '', ( #34 ), #35 );
#12 = STYLED_ITEM( '', ( #36 ), #37 );
#13 = STYLED_ITEM( '', ( #38 ), #39 );
#14 = STYLED_ITEM( '', ( #40 ), #41 );
#15 = STYLED_ITEM( '', ( #42 ), #43 );
#16 = STYLED_ITEM( '', ( #44 ), #45 );
#17 = STYLED_ITEM( '', ( #46 ), #47 );
#18 = STYLED_ITEM( '', ( #48 ), #49 );
#19 = APPLICATION_CONTEXT( 'core data for automotive mechanical design processes' );
#20 = PRODUCT_CATEGORY( 'part', 'NONE' );
#21 = PRODUCT_RELATED_PRODUCT_CATEGORY( 'detail', ' ', ( #50 ) );
#22 = PRODUCT_DEFINITION_SHAPE( 'NONE', 'NONE', #51 );
#23 = ADVANCED_BREP_SHAPE_REPRESENTATION( '_K0335.305_0', ( #52, #53 ), #6 );
#26 = UNCERTAINTY_MEASURE_WITH_UNIT( LENGTH_MEASURE( 0.00100000000000000 ), #28, '', '' );
#28 =  ( CONVERSION_BASED_UNIT( 'MILLIMETRE', #56 )LENGTH_UNIT(  )NAMED_UNIT( #59 ) );
#29 =  ( NAMED_UNIT( #61 )PLANE_ANGLE_UNIT(  )SI_UNIT( $, .RADIAN. ) );
#30 =  ( NAMED_UNIT( #61 )SI_UNIT( $, .STERADIAN. )SOLID_ANGLE_UNIT(  ) );
#32 = PRESENTATION_STYLE_ASSIGNMENT( ( #67 ) );
#33 = ADVANCED_FACE( '', ( #68, #69 ), #70, .F. );
#34 = PRESENTATION_STYLE_ASSIGNMENT( ( #71 ) );
#35 = ADVANCED_FACE( '', ( #72 ), #73, .F. );
#36 = PRESENTATION_STYLE_ASSIGNMENT( ( #74 ) );
#37 = ADVANCED_FACE( '', ( #75, #76 ), #77, .T. );
#38 = PRESENTATION_STYLE_ASSIGNMENT( ( #78 ) );
#39 = ADVANCED_FACE( '', ( #79, #80 ), #81, .F. );
#40 = PRESENTATION_STYLE_ASSIGNMENT( ( #82 ) );
#41 = ADVANCED_FACE( '', ( #83, #84 ), #85, .T. );
#42 = PRESENTATION_STYLE_ASSIGNMENT( ( #86 ) );
#43 = ADVANCED_FACE( '', ( #87, #88 ), #89, .T. );
#44 = PRESENTATION_STYLE_ASSIGNMENT( ( #90 ) );
#45 = ADVANCED_FACE( '', ( #91, #92 ), #93, .T. );
#46 = PRESENTATION_STYLE_ASSIGNMENT( ( #94 ) );
#47 = ADVANCED_FACE( '', ( #95 ), #96, .F. );
#48 = PRESENTATION_STYLE_ASSIGNMENT( ( #97 ) );
#49 = ADVANCED_FACE( '', ( #98, #99 ), #100, .F. );
#50 = PRODUCT( '_K0335.305_0', '_K0335.305_0', 'PART-_K0335.305_0-DESC', ( #101 ) );
#51 = PRODUCT_DEFINITION( 'NONE', 'NONE', #102, #2 );
#52 = BREP_WITH_VOIDS( '_K0335.305_0', #103, ( #104 ) );
#53 = AXIS2_PLACEMENT_3D( '', #105, #106, #107 );
#56 = LENGTH_MEASURE_WITH_UNIT( LENGTH_MEASURE( 1.00000000000000 ), #108 );
#59 = DIMENSIONAL_EXPONENTS( 1.00000000000000, 0.000000000000000, 0.000000000000000, 0.000000000000000, 0.000000000000000, 0.000000000000000, 0.000000000000000 );
#61 = DIMENSIONAL_EXPONENTS( 0.000000000000000, 0.000000000000000, 0.000000000000000, 0.000000000000000, 0.000000000000000, 0.000000000000000, 0.000000000000000 );
#67 = SURFACE_STYLE_USAGE( .BOTH., #109 );
#68 = FACE_OUTER_BOUND( '', #110, .T. );
#69 = FACE_OUTER_BOUND( '', #111, .T. );
#70 = CYLINDRICAL_SURFACE( '', #112, 1.99900000000000 );
#71 = SURFACE_STYLE_USAGE( .BOTH., #113 );
#72 = FACE_OUTER_BOUND( '', #114, .T. );
#73 = PLANE( '', #115 );
#74 = SURFACE_STYLE_USAGE( .BOTH., #116 );
#75 = FACE_OUTER_BOUND( '', #117, .T. );
#76 = FACE_OUTER_BOUND( '', #118, .T. );
#77 = CYLINDRICAL_SURFACE( '', #119, 2.50000000000000 );
#78 = SURFACE_STYLE_USAGE( .BOTH., #120 );
#79 = FACE_BOUND( '', #121, .T. );
#80 = FACE_OUTER_BOUND( '', #122, .T. );
#81 = PLANE( '', #123 );
#82 = SURFACE_STYLE_USAGE( .BOTH., #124 );
#83 = FACE_OUTER_BOUND( '', #125, .T. );
#84 = FACE_BOUND( '', #126, .T. );
#85 = CONICAL_SURFACE( '', #127, 2.21132486540000, 0.523598775600000 );
#86 = SURFACE_STYLE_USAGE( .BOTH., #128 );
#87 = FACE_BOUND( '', #129, .T. );
#88 = FACE_OUTER_BOUND( '', #130, .T. );
#89 = SPHERICAL_SURFACE( '', #131, 2.00000000000000 );
#90 = SURFACE_STYLE_USAGE( .BOTH., #132 );
#91 = FACE_BOUND( '', #133, .T. );
#92 = FACE_OUTER_BOUND( '', #134, .T. );
#93 = SPHERICAL_SURFACE( '', #135, 2.00000000000000 );
#94 = SURFACE_STYLE_USAGE( .BOTH., #136 );
#95 = FACE_OUTER_BOUND( '', #137, .T. );
#96 = PLANE( '', #138 );
#97 = SURFACE_STYLE_USAGE( .BOTH., #139 );
#98 = FACE_OUTER_BOUND( '', #140, .T. );
#99 = FACE_OUTER_BOUND( '', #141, .T. );
#100 = CYLINDRICAL_SURFACE( '', #142, 1.99900000000000 );
#101 = PRODUCT_CONTEXT( '', #19, 'mechanical' );
#102 = PRODUCT_DEFINITION_FORMATION_WITH_SPECIFIED_SOURCE( ' ', 'NONE', #50, .NOT_KNOWN. );
#103 = CLOSED_SHELL( '', ( #33, #35, #39, #37, #41, #43 ) );
#104 = ORIENTED_CLOSED_SHELL( '', *, #143, .T. );
#105 = CARTESIAN_POINT( '', ( 0.000000000000000, 0.000000000000000, 0.000000000000000 ) );
#106 = DIRECTION( '', ( 0.000000000000000, 0.000000000000000, 1.00000000000000 ) );
#107 = DIRECTION( '', ( 1.00000000000000, 0.000000000000000, 0.000000000000000 ) );
#108 =  ( LENGTH_UNIT(  )NAMED_UNIT( #59 )SI_UNIT( .MILLI., .METRE. ) );
#109 = SURFACE_SIDE_STYLE( '', ( #145 ) );
#110 = EDGE_LOOP( '', ( #146 ) );
#111 = EDGE_LOOP( '', ( #147 ) );
#112 = AXIS2_PLACEMENT_3D( '', #148, #149, #150 );
#113 = SURFACE_SIDE_STYLE( '', ( #151 ) );
#114 = EDGE_LOOP( '', ( #152 ) );
#115 = AXIS2_PLACEMENT_3D( '', #153, #154, #155 );
#116 = SURFACE_SIDE_STYLE( '', ( #156 ) );
#117 = EDGE_LOOP( '', ( #157 ) );
#118 = EDGE_LOOP( '', ( #158 ) );
#119 = AXIS2_PLACEMENT_3D( '', #159, #160, #161 );
#120 = SURFACE_SIDE_STYLE( '', ( #162 ) );
#121 = EDGE_LOOP( '', ( #163 ) );
#122 = EDGE_LOOP( '', ( #164 ) );
#123 = AXIS2_PLACEMENT_3D( '', #165, #166, #167 );
#124 = SURFACE_SIDE_STYLE( '', ( #168 ) );
#125 = EDGE_LOOP( '', ( #169 ) );
#126 = EDGE_LOOP( '', ( #170 ) );
#127 = AXIS2_PLACEMENT_3D( '', #171, #172, #173 );
#128 = SURFACE_SIDE_STYLE( '', ( #174 ) );
#129 = VERTEX_LOOP( '', #175 );
#130 = EDGE_LOOP( '', ( #176 ) );
#131 = AXIS2_PLACEMENT_3D( '', #177, #178, #179 );
#132 = SURFACE_SIDE_STYLE( '', ( #180 ) );
#133 = VERTEX_LOOP( '', #181 );
#134 = EDGE_LOOP( '', ( #182 ) );
#135 = AXIS2_PLACEMENT_3D( '', #183, #184, #185 );
#136 = SURFACE_SIDE_STYLE( '', ( #186 ) );
#137 = EDGE_LOOP( '', ( #187 ) );
#138 = AXIS2_PLACEMENT_3D( '', #188, #189, #190 );
#139 = SURFACE_SIDE_STYLE( '', ( #191 ) );
#140 = EDGE_LOOP( '', ( #192 ) );
#141 = EDGE_LOOP( '', ( #193 ) );
#142 = AXIS2_PLACEMENT_3D( '', #194, #195, #196 );
#143 = CLOSED_SHELL( '', ( #49, #45, #47 ) );
#145 = SURFACE_STYLE_FILL_AREA( #197 );
#146 = ORIENTED_EDGE( '', *, *, #198, .T. );
#147 = ORIENTED_EDGE( '', *, *, #199, .T. );
#148 = CARTESIAN_POINT( '', ( 6.00000000000000, 0.000000000000000, 0.000000000000000 ) );
#149 = DIRECTION( '', ( -1.00000000000000, -0.000000000000000, 0.000000000000000 ) );
#150 = DIRECTION( '', ( -0.000000000000000, 0.000000000000000, -1.00000000000000 ) );
#151 = SURFACE_STYLE_FILL_AREA( #200 );
#152 = ORIENTED_EDGE( '', *, *, #201, .F. );
#153 = CARTESIAN_POINT( '', ( 0.000000000000000, 0.000000000000000, 0.000000000000000 ) );
#154 = DIRECTION( '', ( 1.00000000000000, 0.000000000000000, -0.000000000000000 ) );
#155 = DIRECTION( '', ( -0.000000000000000, 0.000000000000000, -1.00000000000000 ) );
#156 = SURFACE_STYLE_FILL_AREA( #202 );
#157 = ORIENTED_EDGE( '', *, *, #203, .F. );
#158 = ORIENTED_EDGE( '', *, *, #204, .T. );
#159 = CARTESIAN_POINT( '', ( 6.00000000000000, 0.000000000000000, 0.000000000000000 ) );
#160 = DIRECTION( '', ( -1.00000000000000, -0.000000000000000, 0.000000000000000 ) );
#161 = DIRECTION( '', ( -0.000000000000000, 0.000000000000000, -1.00000000000000 ) );
#162 = SURFACE_STYLE_FILL_AREA( #205 );
#163 = ORIENTED_EDGE( '', *, *, #199, .F. );
#164 = ORIENTED_EDGE( '', *, *, #203, .T. );
#165 = CARTESIAN_POINT( '', ( 12.0000000000000, 2.50000000000000, 0.000000000000000 ) );
#166 = DIRECTION( '', ( -1.00000000000000, 0.000000000000000, 0.000000000000000 ) );
#167 = DIRECTION( '', ( 0.000000000000000, 0.000000000000000, 1.00000000000000 ) );
#168 = SURFACE_STYLE_FILL_AREA( #206 );
#169 = ORIENTED_EDGE( '', *, *, #204, .F. );
#170 = ORIENTED_EDGE( '', *, *, #201, .T. );
#171 = CARTESIAN_POINT( '', ( 0.000000000000000, 0.000000000000000, 0.000000000000000 ) );
#172 = DIRECTION( '', ( 1.00000000000000, -0.000000000000000, -0.000000000000000 ) );
#173 = DIRECTION( '', ( -0.000000000000000, 0.000000000000000, -1.00000000000000 ) );
#174 = SURFACE_STYLE_FILL_AREA( #207 );
#175 = VERTEX_POINT( '', #208 );
#176 = ORIENTED_EDGE( '', *, *, #198, .F. );
#177 = CARTESIAN_POINT( '', ( 10.0000000000000, 8.67361737988404E-16, 0.000000000000000 ) );
#178 = DIRECTION( '', ( 1.00000000000000, 0.000000000000000, 0.000000000000000 ) );
#179 = DIRECTION( '', ( 0.000000000000000, -1.00000000000000, 0.000000000000000 ) );
#180 = SURFACE_STYLE_FILL_AREA( #209 );
#181 = VERTEX_POINT( '', #210 );
#182 = ORIENTED_EDGE( '', *, *, #211, .F. );
#183 = CARTESIAN_POINT( '', ( 10.0000000000000, 8.67361737988404E-16, 0.000000000000000 ) );
#184 = DIRECTION( '', ( 1.00000000000000, 0.000000000000000, 0.000000000000000 ) );
#185 = DIRECTION( '', ( 0.000000000000000, -1.00000000000000, 0.000000000000000 ) );
#186 = SURFACE_STYLE_FILL_AREA( #212 );
#187 = ORIENTED_EDGE( '', *, *, #213, .T. );
#188 = CARTESIAN_POINT( '', ( 6.00000000000000, 1.99900000000000, 0.000000000000000 ) );
#189 = DIRECTION( '', ( -1.00000000000000, 0.000000000000000, 0.000000000000000 ) );
#190 = DIRECTION( '', ( 0.000000000000000, 0.000000000000000, 1.00000000000000 ) );
#191 = SURFACE_STYLE_FILL_AREA( #214 );
#192 = ORIENTED_EDGE( '', *, *, #213, .F. );
#193 = ORIENTED_EDGE( '', *, *, #211, .T. );
#194 = CARTESIAN_POINT( '', ( 6.00000000000000, 0.000000000000000, 0.000000000000000 ) );
#195 = DIRECTION( '', ( -1.00000000000000, -0.000000000000000, 0.000000000000000 ) );
#196 = DIRECTION( '', ( -0.000000000000000, 0.000000000000000, -1.00000000000000 ) );
#197 = FILL_AREA_STYLE( '', ( #215 ) );
#198 = EDGE_CURVE( '', #216, #216, #217, .T. );
#199 = EDGE_CURVE( '', #218, #218, #219, .T. );
#200 = FILL_AREA_STYLE( '', ( #220 ) );
#201 = EDGE_CURVE( '', #221, #221, #222, .T. );
#202 = FILL_AREA_STYLE( '', ( #223 ) );
#203 = EDGE_CURVE( '', #224, #224, #225, .T. );
#204 = EDGE_CURVE( '', #226, #226, #227, .T. );
#205 = FILL_AREA_STYLE( '', ( #228 ) );
#206 = FILL_AREA_STYLE( '', ( #229 ) );
#207 = FILL_AREA_STYLE( '', ( #230 ) );
#208 = CARTESIAN_POINT( '', ( 12.0000000000000, 7.44897058073668E-16, 0.000000000000000 ) );
#209 = FILL_AREA_STYLE( '', ( #231 ) );
#210 = CARTESIAN_POINT( '', ( 8.00000000000000, 7.44897058073668E-16, 0.000000000000000 ) );
#211 = EDGE_CURVE( '', #232, #232, #233, .T. );
#212 = FILL_AREA_STYLE( '', ( #234 ) );
#213 = EDGE_CURVE( '', #235, #235, #236, .T. );
#214 = FILL_AREA_STYLE( '', ( #237 ) );
#215 = FILL_AREA_STYLE_COLOUR( '', #238 );
#216 = VERTEX_POINT( '', #239 );
#217 = CIRCLE( '', #240, 1.99900000000000 );
#218 = VERTEX_POINT( '', #241 );
#219 = CIRCLE( '', #242, 1.99900000000000 );
#220 = FILL_AREA_STYLE_COLOUR( '', #243 );
#221 = VERTEX_POINT( '', #244 );
#222 = CIRCLE( '', #245, 2.21132486540000 );
#223 = FILL_AREA_STYLE_COLOUR( '', #246 );
#224 = VERTEX_POINT( '', #247 );
#225 = CIRCLE( '', #248, 2.50000000000000 );
#226 = VERTEX_POINT( '', #249 );
#227 = CIRCLE( '', #250, 2.50000000000000 );
#228 = FILL_AREA_STYLE_COLOUR( '', #251 );
#229 = FILL_AREA_STYLE_COLOUR( '', #252 );
#230 = FILL_AREA_STYLE_COLOUR( '', #253 );
#231 = FILL_AREA_STYLE_COLOUR( '', #254 );
#232 = VERTEX_POINT( '', #255 );
#233 = CIRCLE( '', #256, 1.99900000000000 );
#234 = FILL_AREA_STYLE_COLOUR( '', #257 );
#235 = VERTEX_POINT( '', #258 );
#236 = CIRCLE( '', #259, 1.99900000000000 );
#237 = FILL_AREA_STYLE_COLOUR( '', #260 );
#238 = COLOUR_RGB( '', 0.689999997600000, 0.689999997600000, 0.689999997600000 );
#239 = CARTESIAN_POINT( '', ( 10.0632376470149, 0.000000000000000, 1.99900000000001 ) );
#240 = AXIS2_PLACEMENT_3D( '', #261, #262, #263 );
#241 = CARTESIAN_POINT( '', ( 12.0000000000000, 0.000000000000000, -1.99900000000001 ) );
#242 = AXIS2_PLACEMENT_3D( '', #264, #265, #266 );
#243 = COLOUR_RGB( '', 0.689999997600000, 0.689999997600000, 0.689999997600000 );
#244 = CARTESIAN_POINT( '', ( 0.000000000000000, 0.000000000000000, -2.21132486540519 ) );
#245 = AXIS2_PLACEMENT_3D( '', #267, #268, #269 );
#246 = COLOUR_RGB( '', 0.689999997600000, 0.689999997600000, 0.689999997600000 );
#247 = CARTESIAN_POINT( '', ( 12.0000000000000, 0.000000000000000, -2.50000000000000 ) );
#248 = AXIS2_PLACEMENT_3D( '', #270, #271, #272 );
#249 = CARTESIAN_POINT( '', ( 0.500000000000000, 0.000000000000000, -2.50000000000000 ) );
#250 = AXIS2_PLACEMENT_3D( '', #273, #274, #275 );
#251 = COLOUR_RGB( '', 0.689999997600000, 0.689999997600000, 0.689999997600000 );
#252 = COLOUR_RGB( '', 0.689999997600000, 0.689999997600000, 0.689999997600000 );
#253 = COLOUR_RGB( '', 0.689999997600000, 0.689999997600000, 0.689999997600000 );
#254 = COLOUR_RGB( '', 0.689999997600000, 0.689999997600000, 0.689999997600000 );
#255 = CARTESIAN_POINT( '', ( 9.93676235298511, 0.000000000000000, -1.99900000000001 ) );
#256 = AXIS2_PLACEMENT_3D( '', #276, #277, #278 );
#257 = COLOUR_RGB( '', 0.689999997600000, 0.689999997600000, 0.689999997600000 );
#258 = CARTESIAN_POINT( '', ( 6.00000000000001, 0.000000000000000, -1.99900000000000 ) );
#259 = AXIS2_PLACEMENT_3D( '', #279, #280, #281 );
#260 = COLOUR_RGB( '', 0.689999997600000, 0.689999997600000, 0.689999997600000 );
#261 = CARTESIAN_POINT( '', ( 10.0632376470149, 0.000000000000000, 0.000000000000000 ) );
#262 = DIRECTION( '', ( -1.00000000000000, 0.000000000000000, 0.000000000000000 ) );
#263 = DIRECTION( '', ( 0.000000000000000, 0.000000000000000, 1.00000000000000 ) );
#264 = CARTESIAN_POINT( '', ( 12.0000000000000, 0.000000000000000, 0.000000000000000 ) );
#265 = DIRECTION( '', ( 1.00000000000000, 0.000000000000000, -0.000000000000000 ) );
#266 = DIRECTION( '', ( -0.000000000000000, 0.000000000000000, -1.00000000000000 ) );
#267 = CARTESIAN_POINT( '', ( 0.000000000000000, 0.000000000000000, 0.000000000000000 ) );
#268 = DIRECTION( '', ( 1.00000000000000, 0.000000000000000, -0.000000000000000 ) );
#269 = DIRECTION( '', ( -0.000000000000000, 0.000000000000000, -1.00000000000000 ) );
#270 = CARTESIAN_POINT( '', ( 12.0000000000000, 0.000000000000000, 0.000000000000000 ) );
#271 = DIRECTION( '', ( 1.00000000000000, 0.000000000000000, -0.000000000000000 ) );
#272 = DIRECTION( '', ( -0.000000000000000, 0.000000000000000, -1.00000000000000 ) );
#273 = CARTESIAN_POINT( '', ( 0.500000000000000, 0.000000000000000, 0.000000000000000 ) );
#274 = DIRECTION( '', ( 1.00000000000000, 0.000000000000000, -0.000000000000000 ) );
#275 = DIRECTION( '', ( -0.000000000000000, 0.000000000000000, -1.00000000000000 ) );
#276 = CARTESIAN_POINT( '', ( 9.93676235298511, 0.000000000000000, 0.000000000000000 ) );
#277 = DIRECTION( '', ( 1.00000000000000, 0.000000000000000, -0.000000000000000 ) );
#278 = DIRECTION( '', ( -0.000000000000000, 0.000000000000000, -1.00000000000000 ) );
#279 = CARTESIAN_POINT( '', ( 6.00000000000001, 0.000000000000000, 0.000000000000000 ) );
#280 = DIRECTION( '', ( 1.00000000000000, 0.000000000000000, -0.000000000000000 ) );
#281 = DIRECTION( '', ( -0.000000000000000, 0.000000000000000, -1.00000000000000 ) );
ENDSEC;
END-ISO-10303-21;
