ISO-10303-21;
HEADER;
FILE_DESCRIPTION( ( 'STEP AP214' ), '1' );
FILE_NAME( '//goodhand-server/Shared Folders/GoodHand Data/Kipp CAD/K0292/K0292.165.stp', '2020-11-27T12:52:29', ( '' ), ( '' ), ' ', 'PARTsolutions', ' ' );
FILE_SCHEMA( ( 'AUTOMOTIVE_DESIGN { 1 0 10303 214 1 1 1 1 }' ) );
ENDSEC;
DATA;
#1 = MECHANICAL_DESIGN_GEOMETRIC_PRESENTATION_REPRESENTATION( ' ', ( #10, #11, #12, #13, #14, #15, #16, #17, #18, #19, #20, #21 ), #6 );
#2 = PRODUCT_DEFINITION_CONTEXT( '', #22, 'design' );
#3 = APPLICATION_PROTOCOL_DEFINITION( 'international standard', 'automotive_design', 2001, #22 );
#4 = PRODUCT_CATEGORY_RELATIONSHIP( 'NONE', 'NONE', #23, #24 );
#5 = SHAPE_DEFINITION_REPRESENTATION( #25, #26 );
#6 =  ( GEOMETRIC_REPRESENTATION_CONTEXT( 3 )GLOBAL_UNCERTAINTY_ASSIGNED_CONTEXT( ( #29 ) )GLOBAL_UNIT_ASSIGNED_CONTEXT( ( #31, #32, #33 ) )REPRESENTATION_CONTEXT( 'NONE', 'WORKSPACE' ) );
#10 = STYLED_ITEM( '', ( #35 ), #36 );
#11 = STYLED_ITEM( '', ( #37 ), #38 );
#12 = STYLED_ITEM( '', ( #39 ), #40 );
#13 = STYLED_ITEM( '', ( #41 ), #42 );
#14 = STYLED_ITEM( '', ( #43 ), #44 );
#15 = STYLED_ITEM( '', ( #45 ), #46 );
#16 = STYLED_ITEM( '', ( #47 ), #48 );
#17 = STYLED_ITEM( '', ( #49 ), #50 );
#18 = STYLED_ITEM( '', ( #51 ), #52 );
#19 = STYLED_ITEM( '', ( #53 ), #54 );
#20 = STYLED_ITEM( '', ( #55 ), #56 );
#21 = STYLED_ITEM( '', ( #57 ), #58 );
#22 = APPLICATION_CONTEXT( 'core data for automotive mechanical design processes' );
#23 = PRODUCT_CATEGORY( 'part', 'NONE' );
#24 = PRODUCT_RELATED_PRODUCT_CATEGORY( 'detail', ' ', ( #59 ) );
#25 = PRODUCT_DEFINITION_SHAPE( 'NONE', 'NONE', #60 );
#26 = ADVANCED_BREP_SHAPE_REPRESENTATION( '_K0292.165', ( #61, #62 ), #6 );
#29 = UNCERTAINTY_MEASURE_WITH_UNIT( LENGTH_MEASURE( 0.00100000000000000 ), #31, '', '' );
#31 =  ( CONVERSION_BASED_UNIT( 'MILLIMETRE', #65 )LENGTH_UNIT(  )NAMED_UNIT( #68 ) );
#32 =  ( NAMED_UNIT( #70 )PLANE_ANGLE_UNIT(  )SI_UNIT( $, .RADIAN. ) );
#33 =  ( NAMED_UNIT( #70 )SI_UNIT( $, .STERADIAN. )SOLID_ANGLE_UNIT(  ) );
#35 = PRESENTATION_STYLE_ASSIGNMENT( ( #76 ) );
#36 = ADVANCED_FACE( '', ( #77 ), #78, .F. );
#37 = PRESENTATION_STYLE_ASSIGNMENT( ( #79 ) );
#38 = ADVANCED_FACE( '', ( #80, #81 ), #82, .F. );
#39 = PRESENTATION_STYLE_ASSIGNMENT( ( #83 ) );
#40 = ADVANCED_FACE( '', ( #84 ), #85, .F. );
#41 = PRESENTATION_STYLE_ASSIGNMENT( ( #86 ) );
#42 = ADVANCED_FACE( '', ( #87, #88 ), #89, .F. );
#43 = PRESENTATION_STYLE_ASSIGNMENT( ( #90 ) );
#44 = ADVANCED_FACE( '', ( #91, #92 ), #93, .F. );
#45 = PRESENTATION_STYLE_ASSIGNMENT( ( #94 ) );
#46 = ADVANCED_FACE( '', ( #95, #96 ), #97, .T. );
#47 = PRESENTATION_STYLE_ASSIGNMENT( ( #98 ) );
#48 = ADVANCED_FACE( '', ( #99, #100 ), #101, .T. );
#49 = PRESENTATION_STYLE_ASSIGNMENT( ( #102 ) );
#50 = ADVANCED_FACE( '', ( #103, #104 ), #105, .T. );
#51 = PRESENTATION_STYLE_ASSIGNMENT( ( #106 ) );
#52 = ADVANCED_FACE( '', ( #107, #108 ), #109, .F. );
#53 = PRESENTATION_STYLE_ASSIGNMENT( ( #110 ) );
#54 = ADVANCED_FACE( '', ( #111, #112 ), #113, .T. );
#55 = PRESENTATION_STYLE_ASSIGNMENT( ( #114 ) );
#56 = ADVANCED_FACE( '', ( #115, #116 ), #117, .T. );
#57 = PRESENTATION_STYLE_ASSIGNMENT( ( #118 ) );
#58 = ADVANCED_FACE( '', ( #119, #120 ), #121, .F. );
#59 = PRODUCT( '_K0292.165', '_K0292.165', 'PART-_K0292.165-DESC', ( #122 ) );
#60 = PRODUCT_DEFINITION( 'NONE', 'NONE', #123, #2 );
#61 = MANIFOLD_SOLID_BREP( '_K0292.165', #124 );
#62 = AXIS2_PLACEMENT_3D( '', #125, #126, #127 );
#65 = LENGTH_MEASURE_WITH_UNIT( LENGTH_MEASURE( 1.00000000000000 ), #128 );
#68 = DIMENSIONAL_EXPONENTS( 1.00000000000000, 0.000000000000000, 0.000000000000000, 0.000000000000000, 0.000000000000000, 0.000000000000000, 0.000000000000000 );
#70 = DIMENSIONAL_EXPONENTS( 0.000000000000000, 0.000000000000000, 0.000000000000000, 0.000000000000000, 0.000000000000000, 0.000000000000000, 0.000000000000000 );
#76 = SURFACE_STYLE_USAGE( .BOTH., #129 );
#77 = FACE_OUTER_BOUND( '', #130, .T. );
#78 = PLANE( '', #131 );
#79 = SURFACE_STYLE_USAGE( .BOTH., #132 );
#80 = FACE_OUTER_BOUND( '', #133, .T. );
#81 = FACE_OUTER_BOUND( '', #134, .T. );
#82 = TOROIDAL_SURFACE( '', #135, 8.00000000000000, 0.300000000000000 );
#83 = SURFACE_STYLE_USAGE( .BOTH., #136 );
#84 = FACE_OUTER_BOUND( '', #137, .T. );
#85 = PLANE( '', #138 );
#86 = SURFACE_STYLE_USAGE( .BOTH., #139 );
#87 = FACE_OUTER_BOUND( '', #140, .T. );
#88 = FACE_BOUND( '', #141, .T. );
#89 = PLANE( '', #142 );
#90 = SURFACE_STYLE_USAGE( .BOTH., #143 );
#91 = FACE_BOUND( '', #144, .T. );
#92 = FACE_OUTER_BOUND( '', #145, .T. );
#93 = PLANE( '', #146 );
#94 = SURFACE_STYLE_USAGE( .BOTH., #147 );
#95 = FACE_OUTER_BOUND( '', #148, .T. );
#96 = FACE_OUTER_BOUND( '', #149, .T. );
#97 = CYLINDRICAL_SURFACE( '', #150, 7.70000000000000 );
#98 = SURFACE_STYLE_USAGE( .BOTH., #151 );
#99 = FACE_OUTER_BOUND( '', #152, .T. );
#100 = FACE_OUTER_BOUND( '', #153, .T. );
#101 = CYLINDRICAL_SURFACE( '', #154, 15.0000000000000 );
#102 = SURFACE_STYLE_USAGE( .BOTH., #155 );
#103 = FACE_OUTER_BOUND( '', #156, .T. );
#104 = FACE_BOUND( '', #157, .T. );
#105 = CONICAL_SURFACE( '', #158, 12.5000000000000, 0.785398163400000 );
#106 = SURFACE_STYLE_USAGE( .BOTH., #159 );
#107 = FACE_OUTER_BOUND( '', #160, .T. );
#108 = FACE_OUTER_BOUND( '', #161, .T. );
#109 = CYLINDRICAL_SURFACE( '', #162, 8.50000000000000 );
#110 = SURFACE_STYLE_USAGE( .BOTH., #163 );
#111 = FACE_BOUND( '', #164, .T. );
#112 = FACE_OUTER_BOUND( '', #165, .T. );
#113 = CONICAL_SURFACE( '', #166, 8.00000000000000, 0.261799387800000 );
#114 = SURFACE_STYLE_USAGE( .BOTH., #167 );
#115 = FACE_OUTER_BOUND( '', #168, .T. );
#116 = FACE_OUTER_BOUND( '', #169, .T. );
#117 = CYLINDRICAL_SURFACE( '', #170, 8.00000000000000 );
#118 = SURFACE_STYLE_USAGE( .BOTH., #171 );
#119 = FACE_BOUND( '', #172, .T. );
#120 = FACE_OUTER_BOUND( '', #173, .T. );
#121 = PLANE( '', #174 );
#122 = PRODUCT_CONTEXT( '', #22, 'mechanical' );
#123 = PRODUCT_DEFINITION_FORMATION_WITH_SPECIFIED_SOURCE( ' ', 'NONE', #59, .NOT_KNOWN. );
#124 = CLOSED_SHELL( '', ( #54, #56, #42, #46, #38, #58, #52, #44, #48, #50, #40, #36 ) );
#125 = CARTESIAN_POINT( '', ( 0.000000000000000, 0.000000000000000, 0.000000000000000 ) );
#126 = DIRECTION( '', ( 0.000000000000000, 0.000000000000000, 1.00000000000000 ) );
#127 = DIRECTION( '', ( 1.00000000000000, 0.000000000000000, 0.000000000000000 ) );
#128 =  ( LENGTH_UNIT(  )NAMED_UNIT( #68 )SI_UNIT( .MILLI., .METRE. ) );
#129 = SURFACE_SIDE_STYLE( '', ( #176 ) );
#130 = EDGE_LOOP( '', ( #177 ) );
#131 = AXIS2_PLACEMENT_3D( '', #178, #179, #180 );
#132 = SURFACE_SIDE_STYLE( '', ( #181 ) );
#133 = EDGE_LOOP( '', ( #182 ) );
#134 = EDGE_LOOP( '', ( #183 ) );
#135 = AXIS2_PLACEMENT_3D( '', #184, #185, #186 );
#136 = SURFACE_SIDE_STYLE( '', ( #187 ) );
#137 = EDGE_LOOP( '', ( #188 ) );
#138 = AXIS2_PLACEMENT_3D( '', #189, #190, #191 );
#139 = SURFACE_SIDE_STYLE( '', ( #192 ) );
#140 = EDGE_LOOP( '', ( #193 ) );
#141 = EDGE_LOOP( '', ( #194 ) );
#142 = AXIS2_PLACEMENT_3D( '', #195, #196, #197 );
#143 = SURFACE_SIDE_STYLE( '', ( #198 ) );
#144 = EDGE_LOOP( '', ( #199 ) );
#145 = EDGE_LOOP( '', ( #200 ) );
#146 = AXIS2_PLACEMENT_3D( '', #201, #202, #203 );
#147 = SURFACE_SIDE_STYLE( '', ( #204 ) );
#148 = EDGE_LOOP( '', ( #205 ) );
#149 = EDGE_LOOP( '', ( #206 ) );
#150 = AXIS2_PLACEMENT_3D( '', #207, #208, #209 );
#151 = SURFACE_SIDE_STYLE( '', ( #210 ) );
#152 = EDGE_LOOP( '', ( #211 ) );
#153 = EDGE_LOOP( '', ( #212 ) );
#154 = AXIS2_PLACEMENT_3D( '', #213, #214, #215 );
#155 = SURFACE_SIDE_STYLE( '', ( #216 ) );
#156 = EDGE_LOOP( '', ( #217 ) );
#157 = EDGE_LOOP( '', ( #218 ) );
#158 = AXIS2_PLACEMENT_3D( '', #219, #220, #221 );
#159 = SURFACE_SIDE_STYLE( '', ( #222 ) );
#160 = EDGE_LOOP( '', ( #223 ) );
#161 = EDGE_LOOP( '', ( #224 ) );
#162 = AXIS2_PLACEMENT_3D( '', #225, #226, #227 );
#163 = SURFACE_SIDE_STYLE( '', ( #228 ) );
#164 = EDGE_LOOP( '', ( #229 ) );
#165 = EDGE_LOOP( '', ( #230 ) );
#166 = AXIS2_PLACEMENT_3D( '', #231, #232, #233 );
#167 = SURFACE_SIDE_STYLE( '', ( #234 ) );
#168 = EDGE_LOOP( '', ( #235 ) );
#169 = EDGE_LOOP( '', ( #236 ) );
#170 = AXIS2_PLACEMENT_3D( '', #237, #238, #239 );
#171 = SURFACE_SIDE_STYLE( '', ( #240 ) );
#172 = EDGE_LOOP( '', ( #241 ) );
#173 = EDGE_LOOP( '', ( #242 ) );
#174 = AXIS2_PLACEMENT_3D( '', #243, #244, #245 );
#176 = SURFACE_STYLE_FILL_AREA( #246 );
#177 = ORIENTED_EDGE( '', *, *, #247, .T. );
#178 = CARTESIAN_POINT( '', ( 7.33012701892220, 0.000000000000000, 0.000000000000000 ) );
#179 = DIRECTION( '', ( 0.000000000000000, 1.00000000000000, 0.000000000000000 ) );
#180 = DIRECTION( '', ( 0.000000000000000, -0.000000000000000, 1.00000000000000 ) );
#181 = SURFACE_STYLE_FILL_AREA( #248 );
#182 = ORIENTED_EDGE( '', *, *, #249, .F. );
#183 = ORIENTED_EDGE( '', *, *, #250, .T. );
#184 = CARTESIAN_POINT( '', ( 0.000000000000000, 19.7500000000000, 0.000000000000000 ) );
#185 = DIRECTION( '', ( 0.000000000000000, -1.00000000000000, -0.000000000000000 ) );
#186 = DIRECTION( '', ( 0.000000000000000, 0.000000000000000, -1.00000000000000 ) );
#187 = SURFACE_STYLE_FILL_AREA( #251 );
#188 = ORIENTED_EDGE( '', *, *, #252, .F. );
#189 = CARTESIAN_POINT( '', ( 0.000000000000000, 70.0000000000000, 0.000000000000000 ) );
#190 = DIRECTION( '', ( 0.000000000000000, -1.00000000000000, -0.000000000000000 ) );
#191 = DIRECTION( '', ( 0.000000000000000, 0.000000000000000, -1.00000000000000 ) );
#192 = SURFACE_STYLE_FILL_AREA( #253 );
#193 = ORIENTED_EDGE( '', *, *, #254, .F. );
#194 = ORIENTED_EDGE( '', *, *, #255, .T. );
#195 = CARTESIAN_POINT( '', ( 7.70000000000000, 19.2000000000000, 0.000000000000000 ) );
#196 = DIRECTION( '', ( 0.000000000000000, -1.00000000000000, -0.000000000000000 ) );
#197 = DIRECTION( '', ( 0.000000000000000, 0.000000000000000, -1.00000000000000 ) );
#198 = SURFACE_STYLE_FILL_AREA( #256 );
#199 = ORIENTED_EDGE( '', *, *, #257, .F. );
#200 = ORIENTED_EDGE( '', *, *, #258, .T. );
#201 = CARTESIAN_POINT( '', ( 15.0000000000000, 20.0000000000000, 0.000000000000000 ) );
#202 = DIRECTION( '', ( 0.000000000000000, 1.00000000000000, 0.000000000000000 ) );
#203 = DIRECTION( '', ( 0.000000000000000, -0.000000000000000, 1.00000000000000 ) );
#204 = SURFACE_STYLE_FILL_AREA( #259 );
#205 = ORIENTED_EDGE( '', *, *, #255, .F. );
#206 = ORIENTED_EDGE( '', *, *, #249, .T. );
#207 = CARTESIAN_POINT( '', ( 0.000000000000000, 0.000000000000000, 0.000000000000000 ) );
#208 = DIRECTION( '', ( -0.000000000000000, 1.00000000000000, 0.000000000000000 ) );
#209 = DIRECTION( '', ( 0.000000000000000, 0.000000000000000, -1.00000000000000 ) );
#210 = SURFACE_STYLE_FILL_AREA( #260 );
#211 = ORIENTED_EDGE( '', *, *, #258, .F. );
#212 = ORIENTED_EDGE( '', *, *, #261, .T. );
#213 = CARTESIAN_POINT( '', ( 0.000000000000000, 0.000000000000000, 0.000000000000000 ) );
#214 = DIRECTION( '', ( -0.000000000000000, 1.00000000000000, 0.000000000000000 ) );
#215 = DIRECTION( '', ( 0.000000000000000, 0.000000000000000, -1.00000000000000 ) );
#216 = SURFACE_STYLE_FILL_AREA( #262 );
#217 = ORIENTED_EDGE( '', *, *, #261, .F. );
#218 = ORIENTED_EDGE( '', *, *, #252, .T. );
#219 = CARTESIAN_POINT( '', ( 0.000000000000000, 70.0000000000000, 0.000000000000000 ) );
#220 = DIRECTION( '', ( -0.000000000000000, -1.00000000000000, -0.000000000000000 ) );
#221 = DIRECTION( '', ( 0.000000000000000, 0.000000000000000, -1.00000000000000 ) );
#222 = SURFACE_STYLE_FILL_AREA( #263 );
#223 = ORIENTED_EDGE( '', *, *, #264, .F. );
#224 = ORIENTED_EDGE( '', *, *, #257, .T. );
#225 = CARTESIAN_POINT( '', ( 0.000000000000000, 0.000000000000000, 0.000000000000000 ) );
#226 = DIRECTION( '', ( -0.000000000000000, 1.00000000000000, 0.000000000000000 ) );
#227 = DIRECTION( '', ( 0.000000000000000, 0.000000000000000, -1.00000000000000 ) );
#228 = SURFACE_STYLE_FILL_AREA( #265 );
#229 = ORIENTED_EDGE( '', *, *, #247, .F. );
#230 = ORIENTED_EDGE( '', *, *, #266, .T. );
#231 = CARTESIAN_POINT( '', ( 0.000000000000000, 2.49999999999998, 0.000000000000000 ) );
#232 = DIRECTION( '', ( -0.000000000000000, 1.00000000000000, 0.000000000000000 ) );
#233 = DIRECTION( '', ( 0.000000000000000, -0.000000000000000, 1.00000000000000 ) );
#234 = SURFACE_STYLE_FILL_AREA( #267 );
#235 = ORIENTED_EDGE( '', *, *, #266, .F. );
#236 = ORIENTED_EDGE( '', *, *, #254, .T. );
#237 = CARTESIAN_POINT( '', ( 0.000000000000000, 0.000000000000000, 0.000000000000000 ) );
#238 = DIRECTION( '', ( -0.000000000000000, 1.00000000000000, 0.000000000000000 ) );
#239 = DIRECTION( '', ( 0.000000000000000, 0.000000000000000, -1.00000000000000 ) );
#240 = SURFACE_STYLE_FILL_AREA( #268 );
#241 = ORIENTED_EDGE( '', *, *, #250, .F. );
#242 = ORIENTED_EDGE( '', *, *, #264, .T. );
#243 = CARTESIAN_POINT( '', ( 8.50000000000000, 20.0500000000000, 0.000000000000000 ) );
#244 = DIRECTION( '', ( 0.000000000000000, 1.00000000000000, 0.000000000000000 ) );
#245 = DIRECTION( '', ( 0.000000000000000, -0.000000000000000, 1.00000000000000 ) );
#246 = FILL_AREA_STYLE( '', ( #269 ) );
#247 = EDGE_CURVE( '', #270, #270, #271, .T. );
#248 = FILL_AREA_STYLE( '', ( #272 ) );
#249 = EDGE_CURVE( '', #273, #273, #274, .T. );
#250 = EDGE_CURVE( '', #275, #275, #276, .T. );
#251 = FILL_AREA_STYLE( '', ( #277 ) );
#252 = EDGE_CURVE( '', #278, #278, #279, .T. );
#253 = FILL_AREA_STYLE( '', ( #280 ) );
#254 = EDGE_CURVE( '', #281, #281, #282, .T. );
#255 = EDGE_CURVE( '', #283, #283, #284, .T. );
#256 = FILL_AREA_STYLE( '', ( #285 ) );
#257 = EDGE_CURVE( '', #286, #286, #287, .T. );
#258 = EDGE_CURVE( '', #288, #288, #289, .T. );
#259 = FILL_AREA_STYLE( '', ( #290 ) );
#260 = FILL_AREA_STYLE( '', ( #291 ) );
#261 = EDGE_CURVE( '', #292, #292, #293, .T. );
#262 = FILL_AREA_STYLE( '', ( #294 ) );
#263 = FILL_AREA_STYLE( '', ( #295 ) );
#264 = EDGE_CURVE( '', #296, #296, #297, .T. );
#265 = FILL_AREA_STYLE( '', ( #298 ) );
#266 = EDGE_CURVE( '', #299, #299, #300, .T. );
#267 = FILL_AREA_STYLE( '', ( #301 ) );
#268 = FILL_AREA_STYLE( '', ( #302 ) );
#269 = FILL_AREA_STYLE_COLOUR( '', #303 );
#270 = VERTEX_POINT( '', #304 );
#271 = CIRCLE( '', #305, 7.33012701890000 );
#272 = FILL_AREA_STYLE_COLOUR( '', #306 );
#273 = VERTEX_POINT( '', #307 );
#274 = CIRCLE( '', #308, 7.70000000000000 );
#275 = VERTEX_POINT( '', #309 );
#276 = CIRCLE( '', #310, 8.00000000000000 );
#277 = FILL_AREA_STYLE_COLOUR( '', #311 );
#278 = VERTEX_POINT( '', #312 );
#279 = CIRCLE( '', #313, 12.5000000000000 );
#280 = FILL_AREA_STYLE_COLOUR( '', #314 );
#281 = VERTEX_POINT( '', #315 );
#282 = CIRCLE( '', #316, 8.00000000000000 );
#283 = VERTEX_POINT( '', #317 );
#284 = CIRCLE( '', #318, 7.70000000000000 );
#285 = FILL_AREA_STYLE_COLOUR( '', #319 );
#286 = VERTEX_POINT( '', #320 );
#287 = CIRCLE( '', #321, 8.50000000000000 );
#288 = VERTEX_POINT( '', #322 );
#289 = CIRCLE( '', #323, 15.0000000000000 );
#290 = FILL_AREA_STYLE_COLOUR( '', #324 );
#291 = FILL_AREA_STYLE_COLOUR( '', #325 );
#292 = VERTEX_POINT( '', #326 );
#293 = CIRCLE( '', #327, 15.0000000000000 );
#294 = FILL_AREA_STYLE_COLOUR( '', #328 );
#295 = FILL_AREA_STYLE_COLOUR( '', #329 );
#296 = VERTEX_POINT( '', #330 );
#297 = CIRCLE( '', #331, 8.50000000000000 );
#298 = FILL_AREA_STYLE_COLOUR( '', #332 );
#299 = VERTEX_POINT( '', #333 );
#300 = CIRCLE( '', #334, 8.00000000000000 );
#301 = FILL_AREA_STYLE_COLOUR( '', #335 );
#302 = FILL_AREA_STYLE_COLOUR( '', #336 );
#303 = COLOUR_RGB( '', 0.689999997600000, 0.689999997600000, 0.689999997600000 );
#304 = CARTESIAN_POINT( '', ( 0.000000000000000, 0.000000000000000, -7.33012701892220 ) );
#305 = AXIS2_PLACEMENT_3D( '', #337, #338, #339 );
#306 = COLOUR_RGB( '', 0.689999997600000, 0.689999997600000, 0.689999997600000 );
#307 = CARTESIAN_POINT( '', ( 0.000000000000000, 19.7500000000000, -7.70000000000000 ) );
#308 = AXIS2_PLACEMENT_3D( '', #340, #341, #342 );
#309 = CARTESIAN_POINT( '', ( 0.000000000000000, 20.0500000000000, -8.00000000000000 ) );
#310 = AXIS2_PLACEMENT_3D( '', #343, #344, #345 );
#311 = COLOUR_RGB( '', 0.689999997600000, 0.689999997600000, 0.689999997600000 );
#312 = CARTESIAN_POINT( '', ( 0.000000000000000, 70.0000000000000, -12.5000000000000 ) );
#313 = AXIS2_PLACEMENT_3D( '', #346, #347, #348 );
#314 = COLOUR_RGB( '', 0.689999997600000, 0.689999997600000, 0.689999997600000 );
#315 = CARTESIAN_POINT( '', ( 0.000000000000000, 19.2000000000000, -8.00000000000000 ) );
#316 = AXIS2_PLACEMENT_3D( '', #349, #350, #351 );
#317 = CARTESIAN_POINT( '', ( 0.000000000000000, 19.2000000000000, -7.70000000000000 ) );
#318 = AXIS2_PLACEMENT_3D( '', #352, #353, #354 );
#319 = COLOUR_RGB( '', 0.689999997600000, 0.689999997600000, 0.689999997600000 );
#320 = CARTESIAN_POINT( '', ( 0.000000000000000, 20.0000000000000, -8.50000000000000 ) );
#321 = AXIS2_PLACEMENT_3D( '', #355, #356, #357 );
#322 = CARTESIAN_POINT( '', ( 0.000000000000000, 20.0000000000000, -15.0000000000000 ) );
#323 = AXIS2_PLACEMENT_3D( '', #358, #359, #360 );
#324 = COLOUR_RGB( '', 0.689999997600000, 0.689999997600000, 0.689999997600000 );
#325 = COLOUR_RGB( '', 0.689999997600000, 0.689999997600000, 0.689999997600000 );
#326 = CARTESIAN_POINT( '', ( 0.000000000000000, 67.5000000000000, -15.0000000000000 ) );
#327 = AXIS2_PLACEMENT_3D( '', #361, #362, #363 );
#328 = COLOUR_RGB( '', 0.689999997600000, 0.689999997600000, 0.689999997600000 );
#329 = COLOUR_RGB( '', 0.689999997600000, 0.689999997600000, 0.689999997600000 );
#330 = CARTESIAN_POINT( '', ( 0.000000000000000, 20.0500000000000, -8.50000000000000 ) );
#331 = AXIS2_PLACEMENT_3D( '', #364, #365, #366 );
#332 = COLOUR_RGB( '', 0.689999997600000, 0.689999997600000, 0.689999997600000 );
#333 = CARTESIAN_POINT( '', ( 0.000000000000000, 2.49999999999998, -8.00000000000000 ) );
#334 = AXIS2_PLACEMENT_3D( '', #367, #368, #369 );
#335 = COLOUR_RGB( '', 0.689999997600000, 0.689999997600000, 0.689999997600000 );
#336 = COLOUR_RGB( '', 0.689999997600000, 0.689999997600000, 0.689999997600000 );
#337 = CARTESIAN_POINT( '', ( 0.000000000000000, 0.000000000000000, 0.000000000000000 ) );
#338 = DIRECTION( '', ( 0.000000000000000, -1.00000000000000, -0.000000000000000 ) );
#339 = DIRECTION( '', ( 0.000000000000000, 0.000000000000000, -1.00000000000000 ) );
#340 = CARTESIAN_POINT( '', ( 0.000000000000000, 19.7500000000000, 0.000000000000000 ) );
#341 = DIRECTION( '', ( 0.000000000000000, -1.00000000000000, -0.000000000000000 ) );
#342 = DIRECTION( '', ( 0.000000000000000, 0.000000000000000, -1.00000000000000 ) );
#343 = CARTESIAN_POINT( '', ( 0.000000000000000, 20.0500000000000, 0.000000000000000 ) );
#344 = DIRECTION( '', ( 0.000000000000000, -1.00000000000000, -0.000000000000000 ) );
#345 = DIRECTION( '', ( 0.000000000000000, 0.000000000000000, -1.00000000000000 ) );
#346 = CARTESIAN_POINT( '', ( 0.000000000000000, 70.0000000000000, 0.000000000000000 ) );
#347 = DIRECTION( '', ( 0.000000000000000, -1.00000000000000, -0.000000000000000 ) );
#348 = DIRECTION( '', ( 0.000000000000000, 0.000000000000000, -1.00000000000000 ) );
#349 = CARTESIAN_POINT( '', ( 0.000000000000000, 19.2000000000000, 0.000000000000000 ) );
#350 = DIRECTION( '', ( 0.000000000000000, -1.00000000000000, -0.000000000000000 ) );
#351 = DIRECTION( '', ( 0.000000000000000, 0.000000000000000, -1.00000000000000 ) );
#352 = CARTESIAN_POINT( '', ( 0.000000000000000, 19.2000000000000, 0.000000000000000 ) );
#353 = DIRECTION( '', ( 0.000000000000000, -1.00000000000000, -0.000000000000000 ) );
#354 = DIRECTION( '', ( 0.000000000000000, 0.000000000000000, -1.00000000000000 ) );
#355 = CARTESIAN_POINT( '', ( 0.000000000000000, 20.0000000000000, 0.000000000000000 ) );
#356 = DIRECTION( '', ( 0.000000000000000, -1.00000000000000, -0.000000000000000 ) );
#357 = DIRECTION( '', ( 0.000000000000000, 0.000000000000000, -1.00000000000000 ) );
#358 = CARTESIAN_POINT( '', ( 0.000000000000000, 20.0000000000000, 0.000000000000000 ) );
#359 = DIRECTION( '', ( 0.000000000000000, -1.00000000000000, -0.000000000000000 ) );
#360 = DIRECTION( '', ( 0.000000000000000, 0.000000000000000, -1.00000000000000 ) );
#361 = CARTESIAN_POINT( '', ( 0.000000000000000, 67.5000000000000, 0.000000000000000 ) );
#362 = DIRECTION( '', ( 0.000000000000000, -1.00000000000000, -0.000000000000000 ) );
#363 = DIRECTION( '', ( 0.000000000000000, 0.000000000000000, -1.00000000000000 ) );
#364 = CARTESIAN_POINT( '', ( 0.000000000000000, 20.0500000000000, 0.000000000000000 ) );
#365 = DIRECTION( '', ( 0.000000000000000, -1.00000000000000, -0.000000000000000 ) );
#366 = DIRECTION( '', ( 0.000000000000000, 0.000000000000000, -1.00000000000000 ) );
#367 = CARTESIAN_POINT( '', ( 0.000000000000000, 2.49999999999998, 0.000000000000000 ) );
#368 = DIRECTION( '', ( 0.000000000000000, -1.00000000000000, -0.000000000000000 ) );
#369 = DIRECTION( '', ( 0.000000000000000, 0.000000000000000, -1.00000000000000 ) );
ENDSEC;
END-ISO-10303-21;
