ISO-10303-21;
HEADER;
FILE_DESCRIPTION( ( 'STEP AP214' ), '1' );
FILE_NAME( '//goodhand-server/Shared Folders/GoodHand Data/Kipp CAD/K0344/K0344.95.stp', '2020-12-03T13:53:26', ( '' ), ( '' ), ' ', 'PARTsolutions', ' ' );
FILE_SCHEMA( ( 'AUTOMOTIVE_DESIGN { 1 0 10303 214 1 1 1 1 }' ) );
ENDSEC;
DATA;
#1 = MECHANICAL_DESIGN_GEOMETRIC_PRESENTATION_REPRESENTATION( ' ', ( #10, #11, #12, #13, #14, #15, #16, #17, #18, #19, #20, #21, #22, #23 ), #6 );
#2 = PRODUCT_DEFINITION_CONTEXT( '', #24, 'design' );
#3 = APPLICATION_PROTOCOL_DEFINITION( 'international standard', 'automotive_design', 2001, #24 );
#4 = PRODUCT_CATEGORY_RELATIONSHIP( 'NONE', 'NONE', #25, #26 );
#5 = SHAPE_DEFINITION_REPRESENTATION( #27, #28 );
#6 =  ( GEOMETRIC_REPRESENTATION_CONTEXT( 3 )GLOBAL_UNCERTAINTY_ASSIGNED_CONTEXT( ( #31 ) )GLOBAL_UNIT_ASSIGNED_CONTEXT( ( #33, #34, #35 ) )REPRESENTATION_CONTEXT( 'NONE', 'WORKSPACE' ) );
#10 = STYLED_ITEM( '', ( #37 ), #38 );
#11 = STYLED_ITEM( '', ( #39 ), #40 );
#12 = STYLED_ITEM( '', ( #41 ), #42 );
#13 = STYLED_ITEM( '', ( #43 ), #44 );
#14 = STYLED_ITEM( '', ( #45 ), #46 );
#15 = STYLED_ITEM( '', ( #47 ), #48 );
#16 = STYLED_ITEM( '', ( #49 ), #50 );
#17 = STYLED_ITEM( '', ( #51 ), #52 );
#18 = STYLED_ITEM( '', ( #53 ), #54 );
#19 = STYLED_ITEM( '', ( #55 ), #56 );
#20 = STYLED_ITEM( '', ( #57 ), #58 );
#21 = STYLED_ITEM( '', ( #59 ), #60 );
#22 = STYLED_ITEM( '', ( #61 ), #62 );
#23 = STYLED_ITEM( '', ( #63 ), #64 );
#24 = APPLICATION_CONTEXT( 'core data for automotive mechanical design processes' );
#25 = PRODUCT_CATEGORY( 'part', 'NONE' );
#26 = PRODUCT_RELATED_PRODUCT_CATEGORY( 'detail', ' ', ( #65 ) );
#27 = PRODUCT_DEFINITION_SHAPE( 'NONE', 'NONE', #66 );
#28 = ADVANCED_BREP_SHAPE_REPRESENTATION( '_K0344.95', ( #67, #68 ), #6 );
#31 = UNCERTAINTY_MEASURE_WITH_UNIT( LENGTH_MEASURE( 0.00100000000000000 ), #33, '', '' );
#33 =  ( CONVERSION_BASED_UNIT( 'MILLIMETRE', #71 )LENGTH_UNIT(  )NAMED_UNIT( #74 ) );
#34 =  ( NAMED_UNIT( #76 )PLANE_ANGLE_UNIT(  )SI_UNIT( $, .RADIAN. ) );
#35 =  ( NAMED_UNIT( #76 )SI_UNIT( $, .STERADIAN. )SOLID_ANGLE_UNIT(  ) );
#37 = PRESENTATION_STYLE_ASSIGNMENT( ( #82 ) );
#38 = ADVANCED_FACE( '', ( #83 ), #84, .T. );
#39 = PRESENTATION_STYLE_ASSIGNMENT( ( #85 ) );
#40 = ADVANCED_FACE( '', ( #86 ), #87, .F. );
#41 = PRESENTATION_STYLE_ASSIGNMENT( ( #88 ) );
#42 = ADVANCED_FACE( '', ( #89, #90 ), #91, .T. );
#43 = PRESENTATION_STYLE_ASSIGNMENT( ( #92 ) );
#44 = ADVANCED_FACE( '', ( #93 ), #94, .F. );
#45 = PRESENTATION_STYLE_ASSIGNMENT( ( #95 ) );
#46 = ADVANCED_FACE( '', ( #96, #97 ), #98, .T. );
#47 = PRESENTATION_STYLE_ASSIGNMENT( ( #99 ) );
#48 = ADVANCED_FACE( '', ( #100, #101 ), #102, .T. );
#49 = PRESENTATION_STYLE_ASSIGNMENT( ( #103 ) );
#50 = ADVANCED_FACE( '', ( #104, #105, #106 ), #107, .F. );
#51 = PRESENTATION_STYLE_ASSIGNMENT( ( #108 ) );
#52 = ADVANCED_FACE( '', ( #109 ), #110, .F. );
#53 = PRESENTATION_STYLE_ASSIGNMENT( ( #111 ) );
#54 = ADVANCED_FACE( '', ( #112 ), #113, .T. );
#55 = PRESENTATION_STYLE_ASSIGNMENT( ( #114 ) );
#56 = ADVANCED_FACE( '', ( #115, #116 ), #117, .T. );
#57 = PRESENTATION_STYLE_ASSIGNMENT( ( #118 ) );
#58 = ADVANCED_FACE( '', ( #119 ), #120, .T. );
#59 = PRESENTATION_STYLE_ASSIGNMENT( ( #121 ) );
#60 = ADVANCED_FACE( '', ( #122 ), #123, .F. );
#61 = PRESENTATION_STYLE_ASSIGNMENT( ( #124 ) );
#62 = ADVANCED_FACE( '', ( #125 ), #126, .T. );
#63 = PRESENTATION_STYLE_ASSIGNMENT( ( #127 ) );
#64 = ADVANCED_FACE( '', ( #128 ), #129, .T. );
#65 = PRODUCT( '_K0344.95', '_K0344.95', 'PART-_K0344.95-DESC', ( #130 ) );
#66 = PRODUCT_DEFINITION( 'NONE', 'NONE', #131, #2 );
#67 = MANIFOLD_SOLID_BREP( '_K0344.95', #132 );
#68 = AXIS2_PLACEMENT_3D( '', #133, #134, #135 );
#71 = LENGTH_MEASURE_WITH_UNIT( LENGTH_MEASURE( 1.00000000000000 ), #136 );
#74 = DIMENSIONAL_EXPONENTS( 1.00000000000000, 0.000000000000000, 0.000000000000000, 0.000000000000000, 0.000000000000000, 0.000000000000000, 0.000000000000000 );
#76 = DIMENSIONAL_EXPONENTS( 0.000000000000000, 0.000000000000000, 0.000000000000000, 0.000000000000000, 0.000000000000000, 0.000000000000000, 0.000000000000000 );
#82 = SURFACE_STYLE_USAGE( .BOTH., #137 );
#83 = FACE_OUTER_BOUND( '', #138, .T. );
#84 = PLANE( '', #139 );
#85 = SURFACE_STYLE_USAGE( .BOTH., #140 );
#86 = FACE_OUTER_BOUND( '', #141, .T. );
#87 = PLANE( '', #142 );
#88 = SURFACE_STYLE_USAGE( .BOTH., #143 );
#89 = FACE_OUTER_BOUND( '', #144, .T. );
#90 = FACE_OUTER_BOUND( '', #145, .T. );
#91 = CYLINDRICAL_SURFACE( '', #146, 1.25000000000000 );
#92 = SURFACE_STYLE_USAGE( .BOTH., #147 );
#93 = FACE_OUTER_BOUND( '', #148, .T. );
#94 = CYLINDRICAL_SURFACE( '', #149, 7.00000000000000 );
#95 = SURFACE_STYLE_USAGE( .BOTH., #150 );
#96 = FACE_BOUND( '', #151, .T. );
#97 = FACE_OUTER_BOUND( '', #152, .T. );
#98 = CONICAL_SURFACE( '', #153, 1.25000000000000, 0.261799387800000 );
#99 = SURFACE_STYLE_USAGE( .BOTH., #154 );
#100 = FACE_BOUND( '', #155, .T. );
#101 = FACE_OUTER_BOUND( '', #156, .T. );
#102 = CONICAL_SURFACE( '', #157, 1.25000000000000, 0.261799387800000 );
#103 = SURFACE_STYLE_USAGE( .BOTH., #158 );
#104 = FACE_OUTER_BOUND( '', #159, .T. );
#105 = FACE_BOUND( '', #160, .T. );
#106 = FACE_BOUND( '', #161, .T. );
#107 = PLANE( '', #162 );
#108 = SURFACE_STYLE_USAGE( .BOTH., #163 );
#109 = FACE_OUTER_BOUND( '', #164, .T. );
#110 = PLANE( '', #165 );
#111 = SURFACE_STYLE_USAGE( .BOTH., #166 );
#112 = FACE_OUTER_BOUND( '', #167, .T. );
#113 = PLANE( '', #168 );
#114 = SURFACE_STYLE_USAGE( .BOTH., #169 );
#115 = FACE_OUTER_BOUND( '', #170, .T. );
#116 = FACE_OUTER_BOUND( '', #171, .T. );
#117 = CYLINDRICAL_SURFACE( '', #172, 1.25000000000000 );
#118 = SURFACE_STYLE_USAGE( .BOTH., #173 );
#119 = FACE_OUTER_BOUND( '', #174, .T. );
#120 = CYLINDRICAL_SURFACE( '', #175, 17.0000000000000 );
#121 = SURFACE_STYLE_USAGE( .BOTH., #176 );
#122 = FACE_OUTER_BOUND( '', #177, .T. );
#123 = PLANE( '', #178 );
#124 = SURFACE_STYLE_USAGE( .BOTH., #179 );
#125 = FACE_OUTER_BOUND( '', #180, .T. );
#126 = CONICAL_SURFACE( '', #181, 16.5000000000000, 0.785398163400000 );
#127 = SURFACE_STYLE_USAGE( .BOTH., #182 );
#128 = FACE_OUTER_BOUND( '', #183, .T. );
#129 = CONICAL_SURFACE( '', #184, 17.0000000000000, 0.785398163400000 );
#130 = PRODUCT_CONTEXT( '', #24, 'mechanical' );
#131 = PRODUCT_DEFINITION_FORMATION_WITH_SPECIFIED_SOURCE( ' ', 'NONE', #65, .NOT_KNOWN. );
#132 = CLOSED_SHELL( '', ( #38, #62, #50, #56, #52, #46, #40, #42, #48, #60, #44, #54, #58, #64 ) );
#133 = CARTESIAN_POINT( '', ( 0.000000000000000, 0.000000000000000, 0.000000000000000 ) );
#134 = DIRECTION( '', ( 0.000000000000000, 0.000000000000000, 1.00000000000000 ) );
#135 = DIRECTION( '', ( 1.00000000000000, 0.000000000000000, 0.000000000000000 ) );
#136 =  ( LENGTH_UNIT(  )NAMED_UNIT( #74 )SI_UNIT( .MILLI., .METRE. ) );
#137 = SURFACE_SIDE_STYLE( '', ( #186 ) );
#138 = EDGE_LOOP( '', ( #187, #188, #189, #190, #191, #192 ) );
#139 = AXIS2_PLACEMENT_3D( '', #193, #194, #195 );
#140 = SURFACE_SIDE_STYLE( '', ( #196 ) );
#141 = EDGE_LOOP( '', ( #197 ) );
#142 = AXIS2_PLACEMENT_3D( '', #198, #199, #200 );
#143 = SURFACE_SIDE_STYLE( '', ( #201 ) );
#144 = EDGE_LOOP( '', ( #202 ) );
#145 = EDGE_LOOP( '', ( #203 ) );
#146 = AXIS2_PLACEMENT_3D( '', #204, #205, #206 );
#147 = SURFACE_SIDE_STYLE( '', ( #207 ) );
#148 = EDGE_LOOP( '', ( #208, #209, #210, #211 ) );
#149 = AXIS2_PLACEMENT_3D( '', #212, #213, #214 );
#150 = SURFACE_SIDE_STYLE( '', ( #215 ) );
#151 = EDGE_LOOP( '', ( #216 ) );
#152 = EDGE_LOOP( '', ( #217 ) );
#153 = AXIS2_PLACEMENT_3D( '', #218, #219, #220 );
#154 = SURFACE_SIDE_STYLE( '', ( #221 ) );
#155 = EDGE_LOOP( '', ( #222 ) );
#156 = EDGE_LOOP( '', ( #223 ) );
#157 = AXIS2_PLACEMENT_3D( '', #224, #225, #226 );
#158 = SURFACE_SIDE_STYLE( '', ( #227 ) );
#159 = EDGE_LOOP( '', ( #228, #229, #230, #231 ) );
#160 = EDGE_LOOP( '', ( #232 ) );
#161 = EDGE_LOOP( '', ( #233 ) );
#162 = AXIS2_PLACEMENT_3D( '', #234, #235, #236 );
#163 = SURFACE_SIDE_STYLE( '', ( #237 ) );
#164 = EDGE_LOOP( '', ( #238, #239, #240, #241 ) );
#165 = AXIS2_PLACEMENT_3D( '', #242, #243, #244 );
#166 = SURFACE_SIDE_STYLE( '', ( #245 ) );
#167 = EDGE_LOOP( '', ( #246, #247, #248, #249, #250, #251 ) );
#168 = AXIS2_PLACEMENT_3D( '', #252, #253, #254 );
#169 = SURFACE_SIDE_STYLE( '', ( #255 ) );
#170 = EDGE_LOOP( '', ( #256 ) );
#171 = EDGE_LOOP( '', ( #257 ) );
#172 = AXIS2_PLACEMENT_3D( '', #258, #259, #260 );
#173 = SURFACE_SIDE_STYLE( '', ( #261 ) );
#174 = EDGE_LOOP( '', ( #262, #263, #264, #265 ) );
#175 = AXIS2_PLACEMENT_3D( '', #266, #267, #268 );
#176 = SURFACE_SIDE_STYLE( '', ( #269 ) );
#177 = EDGE_LOOP( '', ( #270 ) );
#178 = AXIS2_PLACEMENT_3D( '', #271, #272, #273 );
#179 = SURFACE_SIDE_STYLE( '', ( #274 ) );
#180 = EDGE_LOOP( '', ( #275, #276, #277, #278 ) );
#181 = AXIS2_PLACEMENT_3D( '', #279, #280, #281 );
#182 = SURFACE_SIDE_STYLE( '', ( #282 ) );
#183 = EDGE_LOOP( '', ( #283, #284, #285, #286 ) );
#184 = AXIS2_PLACEMENT_3D( '', #287, #288, #289 );
#186 = SURFACE_STYLE_FILL_AREA( #290 );
#187 = ORIENTED_EDGE( '', *, *, #291, .T. );
#188 = ORIENTED_EDGE( '', *, *, #292, .T. );
#189 = ORIENTED_EDGE( '', *, *, #293, .T. );
#190 = ORIENTED_EDGE( '', *, *, #294, .T. );
#191 = ORIENTED_EDGE( '', *, *, #295, .T. );
#192 = ORIENTED_EDGE( '', *, *, #296, .T. );
#193 = CARTESIAN_POINT( '', ( 7.00000000000000, 5.00000000000000, 18.0000000000000 ) );
#194 = DIRECTION( '', ( -1.00000000000000, 0.000000000000000, 0.000000000000000 ) );
#195 = DIRECTION( '', ( 0.000000000000000, 0.000000000000000, 1.00000000000000 ) );
#196 = SURFACE_STYLE_FILL_AREA( #297 );
#197 = ORIENTED_EDGE( '', *, *, #298, .T. );
#198 = CARTESIAN_POINT( '', ( 11.0267090063074, -5.00000000000000, 0.000000000000000 ) );
#199 = DIRECTION( '', ( 0.000000000000000, 1.00000000000000, 0.000000000000000 ) );
#200 = DIRECTION( '', ( 0.000000000000000, -0.000000000000000, 1.00000000000000 ) );
#201 = SURFACE_STYLE_FILL_AREA( #299 );
#202 = ORIENTED_EDGE( '', *, *, #300, .F. );
#203 = ORIENTED_EDGE( '', *, *, #301, .T. );
#204 = CARTESIAN_POINT( '', ( -10.0000000000000, -5.00000000000000, 0.000000000000000 ) );
#205 = DIRECTION( '', ( -0.000000000000000, 1.00000000000000, 0.000000000000000 ) );
#206 = DIRECTION( '', ( 0.000000000000000, 0.000000000000000, -1.00000000000000 ) );
#207 = SURFACE_STYLE_FILL_AREA( #302 );
#208 = ORIENTED_EDGE( '', *, *, #303, .F. );
#209 = ORIENTED_EDGE( '', *, *, #293, .F. );
#210 = ORIENTED_EDGE( '', *, *, #304, .T. );
#211 = ORIENTED_EDGE( '', *, *, #305, .T. );
#212 = CARTESIAN_POINT( '', ( 4.77048955893622E-15, 5.00000000000000, 5.20417042793042E-15 ) );
#213 = DIRECTION( '', ( -0.000000000000000, 1.00000000000000, 0.000000000000000 ) );
#214 = DIRECTION( '', ( 0.000000000000000, 0.000000000000000, -1.00000000000000 ) );
#215 = SURFACE_STYLE_FILL_AREA( #306 );
#216 = ORIENTED_EDGE( '', *, *, #298, .F. );
#217 = ORIENTED_EDGE( '', *, *, #307, .T. );
#218 = CARTESIAN_POINT( '', ( 10.0000000000000, -4.16666666666667, 0.000000000000000 ) );
#219 = DIRECTION( '', ( -0.000000000000000, 1.00000000000000, 0.000000000000000 ) );
#220 = DIRECTION( '', ( 0.000000000000000, -0.000000000000000, 1.00000000000000 ) );
#221 = SURFACE_STYLE_FILL_AREA( #308 );
#222 = ORIENTED_EDGE( '', *, *, #309, .F. );
#223 = ORIENTED_EDGE( '', *, *, #300, .T. );
#224 = CARTESIAN_POINT( '', ( -10.0000000000000, -4.16666666666667, 0.000000000000000 ) );
#225 = DIRECTION( '', ( -0.000000000000000, 1.00000000000000, 0.000000000000000 ) );
#226 = DIRECTION( '', ( 0.000000000000000, -0.000000000000000, 1.00000000000000 ) );
#227 = SURFACE_STYLE_FILL_AREA( #310 );
#228 = ORIENTED_EDGE( '', *, *, #294, .F. );
#229 = ORIENTED_EDGE( '', *, *, #303, .T. );
#230 = ORIENTED_EDGE( '', *, *, #311, .T. );
#231 = ORIENTED_EDGE( '', *, *, #312, .T. );
#232 = ORIENTED_EDGE( '', *, *, #313, .F. );
#233 = ORIENTED_EDGE( '', *, *, #301, .F. );
#234 = CARTESIAN_POINT( '', ( 16.5000000000000, 0.000000000000000, 0.000000000000000 ) );
#235 = DIRECTION( '', ( 0.000000000000000, 1.00000000000000, 0.000000000000000 ) );
#236 = DIRECTION( '', ( 0.000000000000000, -0.000000000000000, 1.00000000000000 ) );
#237 = SURFACE_STYLE_FILL_AREA( #314 );
#238 = ORIENTED_EDGE( '', *, *, #292, .F. );
#239 = ORIENTED_EDGE( '', *, *, #315, .F. );
#240 = ORIENTED_EDGE( '', *, *, #316, .F. );
#241 = ORIENTED_EDGE( '', *, *, #304, .F. );
#242 = CARTESIAN_POINT( '', ( 0.000000000000000, 5.00000000000000, 0.000000000000000 ) );
#243 = DIRECTION( '', ( 0.000000000000000, -1.00000000000000, -0.000000000000000 ) );
#244 = DIRECTION( '', ( 0.000000000000000, 0.000000000000000, -1.00000000000000 ) );
#245 = SURFACE_STYLE_FILL_AREA( #317 );
#246 = ORIENTED_EDGE( '', *, *, #318, .T. );
#247 = ORIENTED_EDGE( '', *, *, #319, .T. );
#248 = ORIENTED_EDGE( '', *, *, #320, .T. );
#249 = ORIENTED_EDGE( '', *, *, #311, .F. );
#250 = ORIENTED_EDGE( '', *, *, #305, .F. );
#251 = ORIENTED_EDGE( '', *, *, #316, .T. );
#252 = CARTESIAN_POINT( '', ( -7.00000000000000, 5.00000000000000, 0.000000000000000 ) );
#253 = DIRECTION( '', ( 1.00000000000000, 0.000000000000000, 0.000000000000000 ) );
#254 = DIRECTION( '', ( 0.000000000000000, 0.000000000000000, -1.00000000000000 ) );
#255 = SURFACE_STYLE_FILL_AREA( #321 );
#256 = ORIENTED_EDGE( '', *, *, #307, .F. );
#257 = ORIENTED_EDGE( '', *, *, #313, .T. );
#258 = CARTESIAN_POINT( '', ( 10.0000000000000, -5.00000000000000, 0.000000000000000 ) );
#259 = DIRECTION( '', ( -0.000000000000000, 1.00000000000000, 0.000000000000000 ) );
#260 = DIRECTION( '', ( 0.000000000000000, 0.000000000000000, -1.00000000000000 ) );
#261 = SURFACE_STYLE_FILL_AREA( #322 );
#262 = ORIENTED_EDGE( '', *, *, #296, .F. );
#263 = ORIENTED_EDGE( '', *, *, #323, .F. );
#264 = ORIENTED_EDGE( '', *, *, #319, .F. );
#265 = ORIENTED_EDGE( '', *, *, #324, .T. );
#266 = CARTESIAN_POINT( '', ( 0.000000000000000, 0.000000000000000, 0.000000000000000 ) );
#267 = DIRECTION( '', ( -0.000000000000000, 1.00000000000000, 0.000000000000000 ) );
#268 = DIRECTION( '', ( 0.000000000000000, 0.000000000000000, -1.00000000000000 ) );
#269 = SURFACE_STYLE_FILL_AREA( #325 );
#270 = ORIENTED_EDGE( '', *, *, #309, .T. );
#271 = CARTESIAN_POINT( '', ( -8.97329099369260, -5.00000000000000, 0.000000000000000 ) );
#272 = DIRECTION( '', ( 0.000000000000000, 1.00000000000000, 0.000000000000000 ) );
#273 = DIRECTION( '', ( 0.000000000000000, -0.000000000000000, 1.00000000000000 ) );
#274 = SURFACE_STYLE_FILL_AREA( #326 );
#275 = ORIENTED_EDGE( '', *, *, #291, .F. );
#276 = ORIENTED_EDGE( '', *, *, #324, .F. );
#277 = ORIENTED_EDGE( '', *, *, #318, .F. );
#278 = ORIENTED_EDGE( '', *, *, #315, .T. );
#279 = CARTESIAN_POINT( '', ( 0.000000000000000, 5.00000000000000, 0.000000000000000 ) );
#280 = DIRECTION( '', ( -0.000000000000000, -1.00000000000000, -0.000000000000000 ) );
#281 = DIRECTION( '', ( 0.000000000000000, 0.000000000000000, -1.00000000000000 ) );
#282 = SURFACE_STYLE_FILL_AREA( #327 );
#283 = ORIENTED_EDGE( '', *, *, #295, .F. );
#284 = ORIENTED_EDGE( '', *, *, #312, .F. );
#285 = ORIENTED_EDGE( '', *, *, #320, .F. );
#286 = ORIENTED_EDGE( '', *, *, #323, .T. );
#287 = CARTESIAN_POINT( '', ( 0.000000000000000, 0.500000000000000, 0.000000000000000 ) );
#288 = DIRECTION( '', ( -0.000000000000000, 1.00000000000000, 0.000000000000000 ) );
#289 = DIRECTION( '', ( 0.000000000000000, -0.000000000000000, 1.00000000000000 ) );
#290 = FILL_AREA_STYLE( '', ( #328 ) );
#291 = EDGE_CURVE( '', #329, #330, #331, .T. );
#292 = EDGE_CURVE( '', #330, #332, #333, .T. );
#293 = EDGE_CURVE( '', #332, #334, #335, .T. );
#294 = EDGE_CURVE( '', #334, #336, #337, .T. );
#295 = EDGE_CURVE( '', #336, #338, #339, .T. );
#296 = EDGE_CURVE( '', #338, #329, #340, .F. );
#297 = FILL_AREA_STYLE( '', ( #341 ) );
#298 = EDGE_CURVE( '', #342, #342, #343, .T. );
#299 = FILL_AREA_STYLE( '', ( #344 ) );
#300 = EDGE_CURVE( '', #345, #345, #346, .T. );
#301 = EDGE_CURVE( '', #347, #347, #348, .F. );
#302 = FILL_AREA_STYLE( '', ( #349 ) );
#303 = EDGE_CURVE( '', #334, #350, #351, .T. );
#304 = EDGE_CURVE( '', #332, #352, #353, .T. );
#305 = EDGE_CURVE( '', #352, #350, #354, .T. );
#306 = FILL_AREA_STYLE( '', ( #355 ) );
#307 = EDGE_CURVE( '', #356, #356, #357, .T. );
#308 = FILL_AREA_STYLE( '', ( #358 ) );
#309 = EDGE_CURVE( '', #359, #359, #360, .T. );
#310 = FILL_AREA_STYLE( '', ( #361 ) );
#311 = EDGE_CURVE( '', #350, #362, #363, .T. );
#312 = EDGE_CURVE( '', #362, #336, #364, .T. );
#313 = EDGE_CURVE( '', #365, #365, #366, .F. );
#314 = FILL_AREA_STYLE( '', ( #367 ) );
#315 = EDGE_CURVE( '', #368, #330, #369, .T. );
#316 = EDGE_CURVE( '', #352, #368, #370, .T. );
#317 = FILL_AREA_STYLE( '', ( #371 ) );
#318 = EDGE_CURVE( '', #368, #372, #373, .T. );
#319 = EDGE_CURVE( '', #372, #374, #375, .T. );
#320 = EDGE_CURVE( '', #374, #362, #376, .T. );
#321 = FILL_AREA_STYLE( '', ( #377 ) );
#322 = FILL_AREA_STYLE( '', ( #378 ) );
#323 = EDGE_CURVE( '', #374, #338, #379, .T. );
#324 = EDGE_CURVE( '', #372, #329, #380, .T. );
#325 = FILL_AREA_STYLE( '', ( #381 ) );
#326 = FILL_AREA_STYLE( '', ( #382 ) );
#327 = FILL_AREA_STYLE( '', ( #383 ) );
#328 = FILL_AREA_STYLE_COLOUR( '', #384 );
#329 = VERTEX_POINT( '', #385 );
#330 = VERTEX_POINT( '', #386 );
#331 = B_SPLINE_CURVE_WITH_KNOTS( '', 3, ( #387, #388, #389, #390 ), .UNSPECIFIED., .F., .F., ( 4, 4 ), ( 0.0148557176992270, 0.0155992394899842 ), .UNSPECIFIED. );
#332 = VERTEX_POINT( '', #391 );
#333 = LINE( '', #392, #393 );
#334 = VERTEX_POINT( '', #394 );
#335 = LINE( '', #395, #396 );
#336 = VERTEX_POINT( '', #397 );
#337 = LINE( '', #398, #399 );
#338 = VERTEX_POINT( '', #400 );
#339 = B_SPLINE_CURVE_WITH_KNOTS( '', 3, ( #401, #402, #403, #404 ), .UNSPECIFIED., .F., .F., ( 4, 4 ), ( 0.0298699013337623, 0.0306192358209665 ), .UNSPECIFIED. );
#340 = LINE( '', #405, #406 );
#341 = FILL_AREA_STYLE_COLOUR( '', #407 );
#342 = VERTEX_POINT( '', #408 );
#343 = CIRCLE( '', #409, 1.02670900630000 );
#344 = FILL_AREA_STYLE_COLOUR( '', #410 );
#345 = VERTEX_POINT( '', #411 );
#346 = CIRCLE( '', #412, 1.25000000000000 );
#347 = VERTEX_POINT( '', #413 );
#348 = CIRCLE( '', #414, 1.25000000000000 );
#349 = FILL_AREA_STYLE_COLOUR( '', #415 );
#350 = VERTEX_POINT( '', #416 );
#351 = CIRCLE( '', #417, 7.00000000000000 );
#352 = VERTEX_POINT( '', #418 );
#353 = CIRCLE( '', #419, 7.00000000000000 );
#354 = LINE( '', #420, #421 );
#355 = FILL_AREA_STYLE_COLOUR( '', #422 );
#356 = VERTEX_POINT( '', #423 );
#357 = CIRCLE( '', #424, 1.25000000000000 );
#358 = FILL_AREA_STYLE_COLOUR( '', #425 );
#359 = VERTEX_POINT( '', #426 );
#360 = CIRCLE( '', #427, 1.02670900630000 );
#361 = FILL_AREA_STYLE_COLOUR( '', #428 );
#362 = VERTEX_POINT( '', #429 );
#363 = LINE( '', #430, #431 );
#364 = CIRCLE( '', #432, 16.5000000000000 );
#365 = VERTEX_POINT( '', #433 );
#366 = CIRCLE( '', #434, 1.25000000000000 );
#367 = FILL_AREA_STYLE_COLOUR( '', #435 );
#368 = VERTEX_POINT( '', #436 );
#369 = CIRCLE( '', #437, 16.5000000000000 );
#370 = LINE( '', #438, #439 );
#371 = FILL_AREA_STYLE_COLOUR( '', #440 );
#372 = VERTEX_POINT( '', #441 );
#373 = B_SPLINE_CURVE_WITH_KNOTS( '', 3, ( #442, #443, #444, #445 ), .UNSPECIFIED., .F., .F., ( 4, 4 ), ( 0.0298699013337623, 0.0306192358209665 ), .UNSPECIFIED. );
#374 = VERTEX_POINT( '', #446 );
#375 = LINE( '', #447, #448 );
#376 = B_SPLINE_CURVE_WITH_KNOTS( '', 3, ( #449, #450, #451, #452 ), .UNSPECIFIED., .F., .F., ( 4, 4 ), ( 0.0148557176992270, 0.0155992394899842 ), .UNSPECIFIED. );
#377 = FILL_AREA_STYLE_COLOUR( '', #453 );
#378 = FILL_AREA_STYLE_COLOUR( '', #454 );
#379 = CIRCLE( '', #455, 17.0000000000000 );
#380 = CIRCLE( '', #456, 17.0000000000000 );
#381 = FILL_AREA_STYLE_COLOUR( '', #457 );
#382 = FILL_AREA_STYLE_COLOUR( '', #458 );
#383 = FILL_AREA_STYLE_COLOUR( '', #459 );
#384 = COLOUR_RGB( '', 0.689999997600000, 0.689999997600000, 0.689999997600000 );
#385 = CARTESIAN_POINT( '', ( 7.00000000000000, 4.50000000000000, 15.4919333848297 ) );
#386 = CARTESIAN_POINT( '', ( 7.00000000000000, 5.00000000000000, 14.9415527974839 ) );
#387 = CARTESIAN_POINT( '', ( 7.00000000000000, 4.50000000000003, 15.4919333848297 ) );
#388 = CARTESIAN_POINT( '', ( 7.00000000000000, 4.66694712979266, 15.3087347397042 ) );
#389 = CARTESIAN_POINT( '', ( 7.00000000000000, 4.83362313417290, 15.1252832519659 ) );
#390 = CARTESIAN_POINT( '', ( 7.00000000000000, 5.00000000000001, 14.9415527974839 ) );
#391 = CARTESIAN_POINT( '', ( 7.00000000000000, 5.00000000000000, 0.000000000000000 ) );
#392 = CARTESIAN_POINT( '', ( 7.00000000000000, 5.00000000000000, 18.0000000000000 ) );
#393 = VECTOR( '', #460, 1000.00000000000 );
#394 = CARTESIAN_POINT( '', ( 7.00000000000000, 0.000000000000000, 0.000000000000000 ) );
#395 = CARTESIAN_POINT( '', ( 7.00000000000000, 5.00000000000000, 0.000000000000000 ) );
#396 = VECTOR( '', #461, 1000.00000000000 );
#397 = CARTESIAN_POINT( '', ( 7.00000000000000, 0.000000000000000, 14.9415527974839 ) );
#398 = CARTESIAN_POINT( '', ( 7.00000000000000, 0.000000000000000, 0.000000000000000 ) );
#399 = VECTOR( '', #462, 1000.00000000000 );
#400 = CARTESIAN_POINT( '', ( 7.00000000000000, 0.500000000000001, 15.4919333848297 ) );
#401 = CARTESIAN_POINT( '', ( 7.00000000000000, -1.35098358910860E-15, 14.9415527974839 ) );
#402 = CARTESIAN_POINT( '', ( 7.00000000000000, 0.166372970732840, 15.1252789506020 ) );
#403 = CARTESIAN_POINT( '', ( 7.00000000000000, 0.333049087522781, 15.3087305887931 ) );
#404 = CARTESIAN_POINT( '', ( 7.00000000000000, 0.500000000000000, 15.4919333848297 ) );
#405 = CARTESIAN_POINT( '', ( 7.00000000000000, 0.000000000000000, 15.4919333848297 ) );
#406 = VECTOR( '', #463, 1000.00000000000 );
#407 = COLOUR_RGB( '', 0.689999997600000, 0.689999997600000, 0.689999997600000 );
#408 = CARTESIAN_POINT( '', ( 10.0000000000000, -5.00000000000000, -1.02670900630740 ) );
#409 = AXIS2_PLACEMENT_3D( '', #464, #465, #466 );
#410 = COLOUR_RGB( '', 0.689999997600000, 0.689999997600000, 0.689999997600000 );
#411 = CARTESIAN_POINT( '', ( -10.0000000000000, -4.16666666666667, -1.25000000000000 ) );
#412 = AXIS2_PLACEMENT_3D( '', #467, #468, #469 );
#413 = CARTESIAN_POINT( '', ( -10.0000000000000, 0.000000000000000, 1.25000000000000 ) );
#414 = AXIS2_PLACEMENT_3D( '', #470, #471, #472 );
#415 = COLOUR_RGB( '', 0.689999997600000, 0.689999997600000, 0.689999997600000 );
#416 = CARTESIAN_POINT( '', ( -7.00000000000000, 0.000000000000000, 0.000000000000000 ) );
#417 = AXIS2_PLACEMENT_3D( '', #473, #474, #475 );
#418 = CARTESIAN_POINT( '', ( -7.00000000000000, 5.00000000000000, 0.000000000000000 ) );
#419 = AXIS2_PLACEMENT_3D( '', #476, #477, #478 );
#420 = CARTESIAN_POINT( '', ( -7.00000000000000, 5.00000000000000, 0.000000000000000 ) );
#421 = VECTOR( '', #479, 1000.00000000000 );
#422 = COLOUR_RGB( '', 0.689999997600000, 0.689999997600000, 0.689999997600000 );
#423 = CARTESIAN_POINT( '', ( 10.0000000000000, -4.16666666666667, -1.25000000000000 ) );
#424 = AXIS2_PLACEMENT_3D( '', #480, #481, #482 );
#425 = COLOUR_RGB( '', 0.689999997600000, 0.689999997600000, 0.689999997600000 );
#426 = CARTESIAN_POINT( '', ( -10.0000000000000, -5.00000000000000, -1.02670900630740 ) );
#427 = AXIS2_PLACEMENT_3D( '', #483, #484, #485 );
#428 = COLOUR_RGB( '', 0.689999997600000, 0.689999997600000, 0.689999997600000 );
#429 = CARTESIAN_POINT( '', ( -7.00000000000000, 0.000000000000000, 14.9415527974839 ) );
#430 = CARTESIAN_POINT( '', ( -7.00000000000000, 0.000000000000000, 0.000000000000000 ) );
#431 = VECTOR( '', #486, 1000.00000000000 );
#432 = AXIS2_PLACEMENT_3D( '', #487, #488, #489 );
#433 = CARTESIAN_POINT( '', ( 10.0000000000000, 0.000000000000000, 1.25000000000000 ) );
#434 = AXIS2_PLACEMENT_3D( '', #490, #491, #492 );
#435 = COLOUR_RGB( '', 0.689999997600000, 0.689999997600000, 0.689999997600000 );
#436 = CARTESIAN_POINT( '', ( -7.00000000000000, 5.00000000000000, 14.9415527974839 ) );
#437 = AXIS2_PLACEMENT_3D( '', #493, #494, #495 );
#438 = CARTESIAN_POINT( '', ( -7.00000000000000, 5.00000000000000, 0.000000000000000 ) );
#439 = VECTOR( '', #496, 1000.00000000000 );
#440 = COLOUR_RGB( '', 0.689999997600000, 0.689999997600000, 0.689999997600000 );
#441 = CARTESIAN_POINT( '', ( -7.00000000000000, 4.50000000000000, 15.4919333848297 ) );
#442 = CARTESIAN_POINT( '', ( -7.00000000000000, 5.00000000000000, 14.9415527974839 ) );
#443 = CARTESIAN_POINT( '', ( -7.00000000000000, 4.83362702926716, 15.1252789506020 ) );
#444 = CARTESIAN_POINT( '', ( -7.00000000000000, 4.66695091247722, 15.3087305887931 ) );
#445 = CARTESIAN_POINT( '', ( -7.00000000000000, 4.50000000000000, 15.4919333848297 ) );
#446 = CARTESIAN_POINT( '', ( -7.00000000000000, 0.500000000000000, 15.4919333848297 ) );
#447 = CARTESIAN_POINT( '', ( -7.00000000000000, 0.000000000000000, 15.4919333848297 ) );
#448 = VECTOR( '', #497, 1000.00000000000 );
#449 = CARTESIAN_POINT( '', ( -7.00000000000000, 0.499999999999971, 15.4919333848297 ) );
#450 = CARTESIAN_POINT( '', ( -7.00000000000000, 0.333052870207340, 15.3087347397042 ) );
#451 = CARTESIAN_POINT( '', ( -7.00000000000000, 0.166376865827103, 15.1252832519659 ) );
#452 = CARTESIAN_POINT( '', ( -7.00000000000000, -1.04319423866885E-14, 14.9415527974839 ) );
#453 = COLOUR_RGB( '', 0.689999997600000, 0.689999997600000, 0.689999997600000 );
#454 = COLOUR_RGB( '', 0.689999997600000, 0.689999997600000, 0.689999997600000 );
#455 = AXIS2_PLACEMENT_3D( '', #498, #499, #500 );
#456 = AXIS2_PLACEMENT_3D( '', #501, #502, #503 );
#457 = COLOUR_RGB( '', 0.689999997600000, 0.689999997600000, 0.689999997600000 );
#458 = COLOUR_RGB( '', 0.689999997600000, 0.689999997600000, 0.689999997600000 );
#459 = COLOUR_RGB( '', 0.689999997600000, 0.689999997600000, 0.689999997600000 );
#460 = DIRECTION( '', ( 0.000000000000000, 0.000000000000000, -1.00000000000000 ) );
#461 = DIRECTION( '', ( -0.000000000000000, -1.00000000000000, -0.000000000000000 ) );
#462 = DIRECTION( '', ( 0.000000000000000, -0.000000000000000, 1.00000000000000 ) );
#463 = DIRECTION( '', ( -0.000000000000000, -1.00000000000000, -0.000000000000000 ) );
#464 = CARTESIAN_POINT( '', ( 10.0000000000000, -5.00000000000000, 0.000000000000000 ) );
#465 = DIRECTION( '', ( 0.000000000000000, -1.00000000000000, -0.000000000000000 ) );
#466 = DIRECTION( '', ( 0.000000000000000, 0.000000000000000, -1.00000000000000 ) );
#467 = CARTESIAN_POINT( '', ( -10.0000000000000, -4.16666666666667, 0.000000000000000 ) );
#468 = DIRECTION( '', ( 0.000000000000000, -1.00000000000000, -0.000000000000000 ) );
#469 = DIRECTION( '', ( 0.000000000000000, 0.000000000000000, -1.00000000000000 ) );
#470 = CARTESIAN_POINT( '', ( -10.0000000000000, 0.000000000000000, 0.000000000000000 ) );
#471 = DIRECTION( '', ( 0.000000000000000, 1.00000000000000, 0.000000000000000 ) );
#472 = DIRECTION( '', ( 0.000000000000000, -0.000000000000000, 1.00000000000000 ) );
#473 = CARTESIAN_POINT( '', ( 4.77048955893622E-15, 0.000000000000000, 5.20417042793042E-15 ) );
#474 = DIRECTION( '', ( -0.000000000000000, 1.00000000000000, 0.000000000000000 ) );
#475 = DIRECTION( '', ( 1.00000000000000, 0.000000000000000, 0.000000000000000 ) );
#476 = CARTESIAN_POINT( '', ( -3.46944695195361E-15, 5.00000000000000, 2.60208521396521E-15 ) );
#477 = DIRECTION( '', ( -0.000000000000000, 1.00000000000000, 0.000000000000000 ) );
#478 = DIRECTION( '', ( 1.00000000000000, 0.000000000000000, 0.000000000000000 ) );
#479 = DIRECTION( '', ( -0.000000000000000, -1.00000000000000, -0.000000000000000 ) );
#480 = CARTESIAN_POINT( '', ( 10.0000000000000, -4.16666666666667, 0.000000000000000 ) );
#481 = DIRECTION( '', ( 0.000000000000000, -1.00000000000000, -0.000000000000000 ) );
#482 = DIRECTION( '', ( 0.000000000000000, 0.000000000000000, -1.00000000000000 ) );
#483 = CARTESIAN_POINT( '', ( -10.0000000000000, -5.00000000000000, 0.000000000000000 ) );
#484 = DIRECTION( '', ( 0.000000000000000, -1.00000000000000, -0.000000000000000 ) );
#485 = DIRECTION( '', ( 0.000000000000000, 0.000000000000000, -1.00000000000000 ) );
#486 = DIRECTION( '', ( 0.000000000000000, 0.000000000000000, 1.00000000000000 ) );
#487 = CARTESIAN_POINT( '', ( 0.000000000000000, 0.000000000000000, 0.000000000000000 ) );
#488 = DIRECTION( '', ( 0.000000000000000, -1.00000000000000, -0.000000000000000 ) );
#489 = DIRECTION( '', ( 0.000000000000000, 0.000000000000000, -1.00000000000000 ) );
#490 = CARTESIAN_POINT( '', ( 10.0000000000000, 0.000000000000000, 0.000000000000000 ) );
#491 = DIRECTION( '', ( 0.000000000000000, 1.00000000000000, 0.000000000000000 ) );
#492 = DIRECTION( '', ( 0.000000000000000, -0.000000000000000, 1.00000000000000 ) );
#493 = CARTESIAN_POINT( '', ( 0.000000000000000, 5.00000000000000, 0.000000000000000 ) );
#494 = DIRECTION( '', ( 0.000000000000000, -1.00000000000000, -0.000000000000000 ) );
#495 = DIRECTION( '', ( 0.000000000000000, 0.000000000000000, -1.00000000000000 ) );
#496 = DIRECTION( '', ( 0.000000000000000, 0.000000000000000, 1.00000000000000 ) );
#497 = DIRECTION( '', ( -0.000000000000000, -1.00000000000000, -0.000000000000000 ) );
#498 = CARTESIAN_POINT( '', ( 0.000000000000000, 0.500000000000000, 0.000000000000000 ) );
#499 = DIRECTION( '', ( 0.000000000000000, -1.00000000000000, -0.000000000000000 ) );
#500 = DIRECTION( '', ( 0.000000000000000, 0.000000000000000, -1.00000000000000 ) );
#501 = CARTESIAN_POINT( '', ( 0.000000000000000, 4.50000000000000, 0.000000000000000 ) );
#502 = DIRECTION( '', ( 0.000000000000000, -1.00000000000000, -0.000000000000000 ) );
#503 = DIRECTION( '', ( 0.000000000000000, 0.000000000000000, -1.00000000000000 ) );
ENDSEC;
END-ISO-10303-21;
