ISO-10303-21;
HEADER;
FILE_DESCRIPTION( ( 'STEP AP214' ), '1' );
FILE_NAME( '//goodhand-server/Shared Folders/GoodHand Data/Kipp CAD/K0390/K0390.12X60.stp', '2020-12-07T10:14:37', ( '' ), ( '' ), ' ', 'PARTsolutions', ' ' );
FILE_SCHEMA( ( 'AUTOMOTIVE_DESIGN { 1 0 10303 214 1 1 1 1 }' ) );
ENDSEC;
DATA;
#1 = MECHANICAL_DESIGN_GEOMETRIC_PRESENTATION_REPRESENTATION( ' ', ( #10, #11, #12, #13, #14, #15, #16, #17, #18, #19, #20, #21, #22 ), #6 );
#2 = PRODUCT_DEFINITION_CONTEXT( '', #23, 'design' );
#3 = APPLICATION_PROTOCOL_DEFINITION( 'international standard', 'automotive_design', 2001, #23 );
#4 = PRODUCT_CATEGORY_RELATIONSHIP( 'NONE', 'NONE', #24, #25 );
#5 = SHAPE_DEFINITION_REPRESENTATION( #26, #27 );
#6 =  ( GEOMETRIC_REPRESENTATION_CONTEXT( 3 )GLOBAL_UNCERTAINTY_ASSIGNED_CONTEXT( ( #30 ) )GLOBAL_UNIT_ASSIGNED_CONTEXT( ( #32, #33, #34 ) )REPRESENTATION_CONTEXT( 'NONE', 'WORKSPACE' ) );
#10 = STYLED_ITEM( '', ( #36 ), #37 );
#11 = STYLED_ITEM( '', ( #38 ), #39 );
#12 = STYLED_ITEM( '', ( #40 ), #41 );
#13 = STYLED_ITEM( '', ( #42 ), #43 );
#14 = STYLED_ITEM( '', ( #44 ), #45 );
#15 = STYLED_ITEM( '', ( #46 ), #47 );
#16 = STYLED_ITEM( '', ( #48 ), #49 );
#17 = STYLED_ITEM( '', ( #50 ), #51 );
#18 = STYLED_ITEM( '', ( #52 ), #53 );
#19 = STYLED_ITEM( '', ( #54 ), #55 );
#20 = STYLED_ITEM( '', ( #56 ), #57 );
#21 = STYLED_ITEM( '', ( #58 ), #59 );
#22 = STYLED_ITEM( '', ( #60 ), #61 );
#23 = APPLICATION_CONTEXT( 'core data for automotive mechanical design processes' );
#24 = PRODUCT_CATEGORY( 'part', 'NONE' );
#25 = PRODUCT_RELATED_PRODUCT_CATEGORY( 'detail', ' ', ( #62 ) );
#26 = PRODUCT_DEFINITION_SHAPE( 'NONE', 'NONE', #63 );
#27 = ADVANCED_BREP_SHAPE_REPRESENTATION( '_K0390.12X60', ( #64, #65 ), #6 );
#30 = UNCERTAINTY_MEASURE_WITH_UNIT( LENGTH_MEASURE( 0.00100000000000000 ), #32, '', '' );
#32 =  ( CONVERSION_BASED_UNIT( 'MILLIMETRE', #68 )LENGTH_UNIT(  )NAMED_UNIT( #71 ) );
#33 =  ( NAMED_UNIT( #73 )PLANE_ANGLE_UNIT(  )SI_UNIT( $, .RADIAN. ) );
#34 =  ( NAMED_UNIT( #73 )SI_UNIT( $, .STERADIAN. )SOLID_ANGLE_UNIT(  ) );
#36 = PRESENTATION_STYLE_ASSIGNMENT( ( #79 ) );
#37 = ADVANCED_FACE( '', ( #80, #81 ), #82, .T. );
#38 = PRESENTATION_STYLE_ASSIGNMENT( ( #83 ) );
#39 = ADVANCED_FACE( '', ( #84 ), #85, .F. );
#40 = PRESENTATION_STYLE_ASSIGNMENT( ( #86 ) );
#41 = ADVANCED_FACE( '', ( #87, #88 ), #89, .T. );
#42 = PRESENTATION_STYLE_ASSIGNMENT( ( #90 ) );
#43 = ADVANCED_FACE( '', ( #91, #92 ), #93, .F. );
#44 = PRESENTATION_STYLE_ASSIGNMENT( ( #94 ) );
#45 = ADVANCED_FACE( '', ( #95 ), #96, .T. );
#46 = PRESENTATION_STYLE_ASSIGNMENT( ( #97 ) );
#47 = ADVANCED_FACE( '', ( #98, #99 ), #100, .T. );
#48 = PRESENTATION_STYLE_ASSIGNMENT( ( #101 ) );
#49 = ADVANCED_FACE( '', ( #102 ), #103, .F. );
#50 = PRESENTATION_STYLE_ASSIGNMENT( ( #104 ) );
#51 = ADVANCED_FACE( '', ( #105 ), #106, .T. );
#52 = PRESENTATION_STYLE_ASSIGNMENT( ( #107 ) );
#53 = ADVANCED_FACE( '', ( #108 ), #109, .T. );
#54 = PRESENTATION_STYLE_ASSIGNMENT( ( #110 ) );
#55 = ADVANCED_FACE( '', ( #111, #112 ), #113, .T. );
#56 = PRESENTATION_STYLE_ASSIGNMENT( ( #114 ) );
#57 = ADVANCED_FACE( '', ( #115 ), #116, .F. );
#58 = PRESENTATION_STYLE_ASSIGNMENT( ( #117 ) );
#59 = ADVANCED_FACE( '', ( #118 ), #119, .F. );
#60 = PRESENTATION_STYLE_ASSIGNMENT( ( #120 ) );
#61 = ADVANCED_FACE( '', ( #121, #122 ), #123, .T. );
#62 = PRODUCT( '_K0390.12X60', '_K0390.12X60', 'PART-_K0390.12X60-DESC', ( #124 ) );
#63 = PRODUCT_DEFINITION( 'NONE', 'NONE', #125, #2 );
#64 = MANIFOLD_SOLID_BREP( '_K0390.12X60', #126 );
#65 = AXIS2_PLACEMENT_3D( '', #127, #128, #129 );
#68 = LENGTH_MEASURE_WITH_UNIT( LENGTH_MEASURE( 1.00000000000000 ), #130 );
#71 = DIMENSIONAL_EXPONENTS( 1.00000000000000, 0.000000000000000, 0.000000000000000, 0.000000000000000, 0.000000000000000, 0.000000000000000, 0.000000000000000 );
#73 = DIMENSIONAL_EXPONENTS( 0.000000000000000, 0.000000000000000, 0.000000000000000, 0.000000000000000, 0.000000000000000, 0.000000000000000, 0.000000000000000 );
#79 = SURFACE_STYLE_USAGE( .BOTH., #131 );
#80 = FACE_OUTER_BOUND( '', #132, .T. );
#81 = FACE_OUTER_BOUND( '', #133, .T. );
#82 = CYLINDRICAL_SURFACE( '', #134, 4.00000000000000 );
#83 = SURFACE_STYLE_USAGE( .BOTH., #135 );
#84 = FACE_OUTER_BOUND( '', #136, .T. );
#85 = PLANE( '', #137 );
#86 = SURFACE_STYLE_USAGE( .BOTH., #138 );
#87 = FACE_OUTER_BOUND( '', #139, .T. );
#88 = FACE_OUTER_BOUND( '', #140, .T. );
#89 = CYLINDRICAL_SURFACE( '', #141, 3.60000000000000 );
#90 = SURFACE_STYLE_USAGE( .BOTH., #142 );
#91 = FACE_OUTER_BOUND( '', #143, .T. );
#92 = FACE_BOUND( '', #144, .T. );
#93 = PLANE( '', #145 );
#94 = SURFACE_STYLE_USAGE( .BOTH., #146 );
#95 = FACE_OUTER_BOUND( '', #147, .T. );
#96 = CONICAL_SURFACE( '', #148, 4.92650000000000, 0.785398163400000 );
#97 = SURFACE_STYLE_USAGE( .BOTH., #149 );
#98 = FACE_BOUND( '', #150, .T. );
#99 = FACE_OUTER_BOUND( '', #151, .T. );
#100 = CONICAL_SURFACE( '', #152, 6.00000000000000, 1.18946407340000 );
#101 = SURFACE_STYLE_USAGE( .BOTH., #153 );
#102 = FACE_OUTER_BOUND( '', #154, .T. );
#103 = PLANE( '', #155 );
#104 = SURFACE_STYLE_USAGE( .BOTH., #156 );
#105 = FACE_OUTER_BOUND( '', #157, .T. );
#106 = CONICAL_SURFACE( '', #158, 4.92650000000000, 0.785398163400000 );
#107 = SURFACE_STYLE_USAGE( .BOTH., #159 );
#108 = FACE_OUTER_BOUND( '', #160, .T. );
#109 = PLANE( '', #161 );
#110 = SURFACE_STYLE_USAGE( .BOTH., #162 );
#111 = FACE_OUTER_BOUND( '', #163, .T. );
#112 = FACE_OUTER_BOUND( '', #164, .T. );
#113 = CYLINDRICAL_SURFACE( '', #165, 6.00000000000000 );
#114 = SURFACE_STYLE_USAGE( .BOTH., #166 );
#115 = FACE_OUTER_BOUND( '', #167, .T. );
#116 = PLANE( '', #168 );
#117 = SURFACE_STYLE_USAGE( .BOTH., #169 );
#118 = FACE_OUTER_BOUND( '', #170, .T. );
#119 = PLANE( '', #171 );
#120 = SURFACE_STYLE_USAGE( .BOTH., #172 );
#121 = FACE_BOUND( '', #173, .T. );
#122 = FACE_OUTER_BOUND( '', #174, .T. );
#123 = SPHERICAL_SURFACE( '', #175, 6.70960000000000 );
#124 = PRODUCT_CONTEXT( '', #23, 'mechanical' );
#125 = PRODUCT_DEFINITION_FORMATION_WITH_SPECIFIED_SOURCE( ' ', 'NONE', #62, .NOT_KNOWN. );
#126 = CLOSED_SHELL( '', ( #49, #39, #61, #37, #43, #41, #47, #55, #45, #59, #51, #57, #53 ) );
#127 = CARTESIAN_POINT( '', ( 0.000000000000000, 0.000000000000000, 0.000000000000000 ) );
#128 = DIRECTION( '', ( 0.000000000000000, 0.000000000000000, 1.00000000000000 ) );
#129 = DIRECTION( '', ( 1.00000000000000, 0.000000000000000, 0.000000000000000 ) );
#130 =  ( LENGTH_UNIT(  )NAMED_UNIT( #71 )SI_UNIT( .MILLI., .METRE. ) );
#131 = SURFACE_SIDE_STYLE( '', ( #177 ) );
#132 = EDGE_LOOP( '', ( #178 ) );
#133 = EDGE_LOOP( '', ( #179 ) );
#134 = AXIS2_PLACEMENT_3D( '', #180, #181, #182 );
#135 = SURFACE_SIDE_STYLE( '', ( #183 ) );
#136 = EDGE_LOOP( '', ( #184, #185, #186, #187, #188, #189 ) );
#137 = AXIS2_PLACEMENT_3D( '', #190, #191, #192 );
#138 = SURFACE_SIDE_STYLE( '', ( #193 ) );
#139 = EDGE_LOOP( '', ( #194 ) );
#140 = EDGE_LOOP( '', ( #195 ) );
#141 = AXIS2_PLACEMENT_3D( '', #196, #197, #198 );
#142 = SURFACE_SIDE_STYLE( '', ( #199 ) );
#143 = EDGE_LOOP( '', ( #200 ) );
#144 = EDGE_LOOP( '', ( #201 ) );
#145 = AXIS2_PLACEMENT_3D( '', #202, #203, #204 );
#146 = SURFACE_SIDE_STYLE( '', ( #205 ) );
#147 = EDGE_LOOP( '', ( #206, #207, #208, #209 ) );
#148 = AXIS2_PLACEMENT_3D( '', #210, #211, #212 );
#149 = SURFACE_SIDE_STYLE( '', ( #213 ) );
#150 = EDGE_LOOP( '', ( #214 ) );
#151 = EDGE_LOOP( '', ( #215 ) );
#152 = AXIS2_PLACEMENT_3D( '', #216, #217, #218 );
#153 = SURFACE_SIDE_STYLE( '', ( #219 ) );
#154 = EDGE_LOOP( '', ( #220, #221, #222, #223, #224, #225 ) );
#155 = AXIS2_PLACEMENT_3D( '', #226, #227, #228 );
#156 = SURFACE_SIDE_STYLE( '', ( #229 ) );
#157 = EDGE_LOOP( '', ( #230, #231, #232, #233 ) );
#158 = AXIS2_PLACEMENT_3D( '', #234, #235, #236 );
#159 = SURFACE_SIDE_STYLE( '', ( #237 ) );
#160 = EDGE_LOOP( '', ( #238, #239, #240, #241 ) );
#161 = AXIS2_PLACEMENT_3D( '', #242, #243, #244 );
#162 = SURFACE_SIDE_STYLE( '', ( #245 ) );
#163 = EDGE_LOOP( '', ( #246 ) );
#164 = EDGE_LOOP( '', ( #247, #248, #249, #250, #251, #252, #253, #254 ) );
#165 = AXIS2_PLACEMENT_3D( '', #255, #256, #257 );
#166 = SURFACE_SIDE_STYLE( '', ( #258 ) );
#167 = EDGE_LOOP( '', ( #259, #260 ) );
#168 = AXIS2_PLACEMENT_3D( '', #261, #262, #263 );
#169 = SURFACE_SIDE_STYLE( '', ( #264 ) );
#170 = EDGE_LOOP( '', ( #265, #266 ) );
#171 = AXIS2_PLACEMENT_3D( '', #267, #268, #269 );
#172 = SURFACE_SIDE_STYLE( '', ( #270 ) );
#173 = VERTEX_LOOP( '', #271 );
#174 = EDGE_LOOP( '', ( #272 ) );
#175 = AXIS2_PLACEMENT_3D( '', #273, #274, #275 );
#177 = SURFACE_STYLE_FILL_AREA( #276 );
#178 = ORIENTED_EDGE( '', *, *, #277, .F. );
#179 = ORIENTED_EDGE( '', *, *, #278, .T. );
#180 = CARTESIAN_POINT( '', ( 60.0000000000000, 1.77635683940025E-15, 0.000000000000000 ) );
#181 = DIRECTION( '', ( -1.00000000000000, 6.12323399573677E-17, 0.000000000000000 ) );
#182 = DIRECTION( '', ( 6.12323399573677E-17, 1.00000000000000, 0.000000000000000 ) );
#183 = SURFACE_STYLE_FILL_AREA( #279 );
#184 = ORIENTED_EDGE( '', *, *, #280, .T. );
#185 = ORIENTED_EDGE( '', *, *, #281, .F. );
#186 = ORIENTED_EDGE( '', *, *, #282, .F. );
#187 = ORIENTED_EDGE( '', *, *, #283, .F. );
#188 = ORIENTED_EDGE( '', *, *, #284, .F. );
#189 = ORIENTED_EDGE( '', *, *, #285, .F. );
#190 = CARTESIAN_POINT( '', ( 3.00000000000000, -0.899999999999995, -10.5000000000000 ) );
#191 = DIRECTION( '', ( 0.000000000000000, -1.00000000000000, 0.000000000000000 ) );
#192 = DIRECTION( '', ( 0.000000000000000, 0.000000000000000, -1.00000000000000 ) );
#193 = SURFACE_STYLE_FILL_AREA( #286 );
#194 = ORIENTED_EDGE( '', *, *, #287, .F. );
#195 = ORIENTED_EDGE( '', *, *, #288, .T. );
#196 = CARTESIAN_POINT( '', ( 60.0000000000000, 1.77635683940025E-15, 0.000000000000000 ) );
#197 = DIRECTION( '', ( -1.00000000000000, 6.12323399573677E-17, 0.000000000000000 ) );
#198 = DIRECTION( '', ( 6.12323399573677E-17, 1.00000000000000, 0.000000000000000 ) );
#199 = SURFACE_STYLE_FILL_AREA( #289 );
#200 = ORIENTED_EDGE( '', *, *, #278, .F. );
#201 = ORIENTED_EDGE( '', *, *, #287, .T. );
#202 = CARTESIAN_POINT( '', ( 55.5000000000000, 3.60000000000000, 0.000000000000000 ) );
#203 = DIRECTION( '', ( 1.00000000000000, -6.12323399573677E-17, -0.000000000000000 ) );
#204 = DIRECTION( '', ( 6.12323399573677E-17, 1.00000000000000, 0.000000000000000 ) );
#205 = SURFACE_STYLE_FILL_AREA( #290 );
#206 = ORIENTED_EDGE( '', *, *, #291, .T. );
#207 = ORIENTED_EDGE( '', *, *, #292, .T. );
#208 = ORIENTED_EDGE( '', *, *, #293, .F. );
#209 = ORIENTED_EDGE( '', *, *, #294, .T. );
#210 = CARTESIAN_POINT( '', ( 0.000000000000000, 5.45029723684231E-15, 0.000000000000000 ) );
#211 = DIRECTION( '', ( 1.00000000000000, -6.12323399573677E-17, -0.000000000000000 ) );
#212 = DIRECTION( '', ( 6.12323399573677E-17, 1.00000000000000, 0.000000000000000 ) );
#213 = SURFACE_STYLE_FILL_AREA( #295 );
#214 = ORIENTED_EDGE( '', *, *, #288, .F. );
#215 = ORIENTED_EDGE( '', *, *, #296, .T. );
#216 = CARTESIAN_POINT( '', ( 50.0000000000000, 2.38868023897393E-15, 0.000000000000000 ) );
#217 = DIRECTION( '', ( -1.00000000000000, 6.12323399573677E-17, -0.000000000000000 ) );
#218 = DIRECTION( '', ( -6.12323399573677E-17, -1.00000000000000, 0.000000000000000 ) );
#219 = SURFACE_STYLE_FILL_AREA( #297 );
#220 = ORIENTED_EDGE( '', *, *, #292, .F. );
#221 = ORIENTED_EDGE( '', *, *, #298, .T. );
#222 = ORIENTED_EDGE( '', *, *, #294, .F. );
#223 = ORIENTED_EDGE( '', *, *, #299, .F. );
#224 = ORIENTED_EDGE( '', *, *, #300, .F. );
#225 = ORIENTED_EDGE( '', *, *, #301, .F. );
#226 = CARTESIAN_POINT( '', ( 3.00000000000000, 0.900000000000005, 10.5000000000000 ) );
#227 = DIRECTION( '', ( 0.000000000000000, 1.00000000000000, 0.000000000000000 ) );
#228 = DIRECTION( '', ( 0.000000000000000, -0.000000000000000, 1.00000000000000 ) );
#229 = SURFACE_STYLE_FILL_AREA( #302 );
#230 = ORIENTED_EDGE( '', *, *, #303, .F. );
#231 = ORIENTED_EDGE( '', *, *, #281, .T. );
#232 = ORIENTED_EDGE( '', *, *, #304, .T. );
#233 = ORIENTED_EDGE( '', *, *, #285, .T. );
#234 = CARTESIAN_POINT( '', ( 0.000000000000000, 5.45029723684231E-15, 0.000000000000000 ) );
#235 = DIRECTION( '', ( 1.00000000000000, -6.12323399573677E-17, -0.000000000000000 ) );
#236 = DIRECTION( '', ( 6.12323399573677E-17, 1.00000000000000, 0.000000000000000 ) );
#237 = SURFACE_STYLE_FILL_AREA( #305 );
#238 = ORIENTED_EDGE( '', *, *, #306, .T. );
#239 = ORIENTED_EDGE( '', *, *, #283, .T. );
#240 = ORIENTED_EDGE( '', *, *, #307, .T. );
#241 = ORIENTED_EDGE( '', *, *, #300, .T. );
#242 = CARTESIAN_POINT( '', ( 3.00000000000000, 0.000000000000000, 0.000000000000000 ) );
#243 = DIRECTION( '', ( -1.00000000000000, 0.000000000000000, 0.000000000000000 ) );
#244 = DIRECTION( '', ( 0.000000000000000, 0.000000000000000, 1.00000000000000 ) );
#245 = SURFACE_STYLE_FILL_AREA( #308 );
#246 = ORIENTED_EDGE( '', *, *, #296, .F. );
#247 = ORIENTED_EDGE( '', *, *, #303, .T. );
#248 = ORIENTED_EDGE( '', *, *, #284, .T. );
#249 = ORIENTED_EDGE( '', *, *, #306, .F. );
#250 = ORIENTED_EDGE( '', *, *, #299, .T. );
#251 = ORIENTED_EDGE( '', *, *, #293, .T. );
#252 = ORIENTED_EDGE( '', *, *, #301, .T. );
#253 = ORIENTED_EDGE( '', *, *, #307, .F. );
#254 = ORIENTED_EDGE( '', *, *, #282, .T. );
#255 = CARTESIAN_POINT( '', ( 60.0000000000000, 1.77635683940025E-15, 0.000000000000000 ) );
#256 = DIRECTION( '', ( -1.00000000000000, 6.12323399573677E-17, 0.000000000000000 ) );
#257 = DIRECTION( '', ( 6.12323399573677E-17, 1.00000000000000, 0.000000000000000 ) );
#258 = SURFACE_STYLE_FILL_AREA( #309 );
#259 = ORIENTED_EDGE( '', *, *, #291, .F. );
#260 = ORIENTED_EDGE( '', *, *, #298, .F. );
#261 = CARTESIAN_POINT( '', ( -1.50830561399986E-16, 5.45029723684231E-15, 0.000000000000000 ) );
#262 = DIRECTION( '', ( 1.00000000000000, -6.12323399573677E-17, -0.000000000000000 ) );
#263 = DIRECTION( '', ( 6.12323399573677E-17, 1.00000000000000, 0.000000000000000 ) );
#264 = SURFACE_STYLE_FILL_AREA( #310 );
#265 = ORIENTED_EDGE( '', *, *, #304, .F. );
#266 = ORIENTED_EDGE( '', *, *, #280, .F. );
#267 = CARTESIAN_POINT( '', ( -1.50830561399986E-16, 5.45029723684231E-15, 0.000000000000000 ) );
#268 = DIRECTION( '', ( 1.00000000000000, -6.12323399573677E-17, -0.000000000000000 ) );
#269 = DIRECTION( '', ( 6.12323399573677E-17, 1.00000000000000, 0.000000000000000 ) );
#270 = SURFACE_STYLE_FILL_AREA( #311 );
#271 = VERTEX_POINT( '', #312 );
#272 = ORIENTED_EDGE( '', *, *, #277, .T. );
#273 = CARTESIAN_POINT( '', ( 53.2904000000000, 1.38777878078145E-14, 0.000000000000000 ) );
#274 = DIRECTION( '', ( 1.00000000000000, 0.000000000000000, 0.000000000000000 ) );
#275 = DIRECTION( '', ( 0.000000000000000, -1.00000000000000, 0.000000000000000 ) );
#276 = FILL_AREA_STYLE( '', ( #313 ) );
#277 = EDGE_CURVE( '', #314, #314, #315, .T. );
#278 = EDGE_CURVE( '', #316, #316, #317, .T. );
#279 = FILL_AREA_STYLE( '', ( #318 ) );
#280 = EDGE_CURVE( '', #319, #320, #321, .T. );
#281 = EDGE_CURVE( '', #322, #320, #323, .T. );
#282 = EDGE_CURVE( '', #324, #322, #325, .F. );
#283 = EDGE_CURVE( '', #326, #324, #327, .T. );
#284 = EDGE_CURVE( '', #328, #326, #329, .T. );
#285 = EDGE_CURVE( '', #319, #328, #330, .T. );
#286 = FILL_AREA_STYLE( '', ( #331 ) );
#287 = EDGE_CURVE( '', #332, #332, #333, .T. );
#288 = EDGE_CURVE( '', #334, #334, #335, .T. );
#289 = FILL_AREA_STYLE( '', ( #336 ) );
#290 = FILL_AREA_STYLE( '', ( #337 ) );
#291 = EDGE_CURVE( '', #338, #339, #340, .T. );
#292 = EDGE_CURVE( '', #339, #341, #342, .T. );
#293 = EDGE_CURVE( '', #343, #341, #344, .T. );
#294 = EDGE_CURVE( '', #343, #338, #345, .T. );
#295 = FILL_AREA_STYLE( '', ( #346 ) );
#296 = EDGE_CURVE( '', #347, #347, #348, .T. );
#297 = FILL_AREA_STYLE( '', ( #349 ) );
#298 = EDGE_CURVE( '', #339, #338, #350, .T. );
#299 = EDGE_CURVE( '', #351, #343, #352, .F. );
#300 = EDGE_CURVE( '', #353, #351, #354, .T. );
#301 = EDGE_CURVE( '', #341, #353, #355, .T. );
#302 = FILL_AREA_STYLE( '', ( #356 ) );
#303 = EDGE_CURVE( '', #322, #328, #357, .T. );
#304 = EDGE_CURVE( '', #320, #319, #358, .T. );
#305 = FILL_AREA_STYLE( '', ( #359 ) );
#306 = EDGE_CURVE( '', #351, #326, #360, .T. );
#307 = EDGE_CURVE( '', #324, #353, #361, .T. );
#308 = FILL_AREA_STYLE( '', ( #362 ) );
#309 = FILL_AREA_STYLE( '', ( #363 ) );
#310 = FILL_AREA_STYLE( '', ( #364 ) );
#311 = FILL_AREA_STYLE( '', ( #365 ) );
#312 = CARTESIAN_POINT( '', ( 60.0000000000000, 1.30560987914585E-14, 0.000000000000000 ) );
#313 = FILL_AREA_STYLE_COLOUR( '', #366 );
#314 = VERTEX_POINT( '', #367 );
#315 = CIRCLE( '', #368, 4.00000000000000 );
#316 = VERTEX_POINT( '', #369 );
#317 = CIRCLE( '', #370, 4.00000000000000 );
#318 = FILL_AREA_STYLE_COLOUR( '', #371 );
#319 = VERTEX_POINT( '', #372 );
#320 = VERTEX_POINT( '', #373 );
#321 = LINE( '', #374, #375 );
#322 = VERTEX_POINT( '', #376 );
#323 = B_SPLINE_CURVE_WITH_KNOTS( '', 3, ( #377, #378, #379, #380 ), .UNSPECIFIED., .F., .F., ( 4, 4 ), ( 0.0102495533465439, 0.0117783706769767 ), .UNSPECIFIED. );
#324 = VERTEX_POINT( '', #381 );
#325 = LINE( '', #382, #383 );
#326 = VERTEX_POINT( '', #384 );
#327 = LINE( '', #385, #386 );
#328 = VERTEX_POINT( '', #387 );
#329 = LINE( '', #388, #389 );
#330 = B_SPLINE_CURVE_WITH_KNOTS( '', 3, ( #390, #391, #392, #393 ), .UNSPECIFIED., .F., .F., ( 4, 4 ), ( 0.0245656796122453, 0.0261075036220750 ), .UNSPECIFIED. );
#331 = FILL_AREA_STYLE_COLOUR( '', #394 );
#332 = VERTEX_POINT( '', #395 );
#333 = CIRCLE( '', #396, 3.60000000000000 );
#334 = VERTEX_POINT( '', #397 );
#335 = CIRCLE( '', #398, 3.60000000000000 );
#336 = FILL_AREA_STYLE_COLOUR( '', #399 );
#337 = FILL_AREA_STYLE_COLOUR( '', #400 );
#338 = VERTEX_POINT( '', #401 );
#339 = VERTEX_POINT( '', #402 );
#340 = CIRCLE( '', #403, 4.92650000000000 );
#341 = VERTEX_POINT( '', #404 );
#342 = B_SPLINE_CURVE_WITH_KNOTS( '', 3, ( #405, #406, #407, #408 ), .UNSPECIFIED., .F., .F., ( 4, 4 ), ( 0.0245656796122453, 0.0261075036220750 ), .UNSPECIFIED. );
#343 = VERTEX_POINT( '', #409 );
#344 = CIRCLE( '', #410, 6.00000000000000 );
#345 = B_SPLINE_CURVE_WITH_KNOTS( '', 3, ( #411, #412, #413, #414 ), .UNSPECIFIED., .F., .F., ( 4, 4 ), ( 0.0102495533465439, 0.0117783706769767 ), .UNSPECIFIED. );
#346 = FILL_AREA_STYLE_COLOUR( '', #415 );
#347 = VERTEX_POINT( '', #416 );
#348 = CIRCLE( '', #417, 6.00000000000000 );
#349 = FILL_AREA_STYLE_COLOUR( '', #418 );
#350 = LINE( '', #419, #420 );
#351 = VERTEX_POINT( '', #421 );
#352 = LINE( '', #422, #423 );
#353 = VERTEX_POINT( '', #424 );
#354 = LINE( '', #425, #426 );
#355 = LINE( '', #427, #428 );
#356 = FILL_AREA_STYLE_COLOUR( '', #429 );
#357 = CIRCLE( '', #430, 6.00000000000000 );
#358 = CIRCLE( '', #431, 4.92650000000000 );
#359 = FILL_AREA_STYLE_COLOUR( '', #432 );
#360 = CIRCLE( '', #433, 6.00000000000000 );
#361 = CIRCLE( '', #434, 6.00000000000000 );
#362 = FILL_AREA_STYLE_COLOUR( '', #435 );
#363 = FILL_AREA_STYLE_COLOUR( '', #436 );
#364 = FILL_AREA_STYLE_COLOUR( '', #437 );
#365 = FILL_AREA_STYLE_COLOUR( '', #438 );
#366 = COLOUR_RGB( '', 0.689999997600000, 0.689999997600000, 0.689999997600000 );
#367 = CARTESIAN_POINT( '', ( 58.6773037637589, 4.00000000000000, 0.000000000000000 ) );
#368 = AXIS2_PLACEMENT_3D( '', #439, #440, #441 );
#369 = CARTESIAN_POINT( '', ( 55.5000000000000, 4.00000000000000, 0.000000000000000 ) );
#370 = AXIS2_PLACEMENT_3D( '', #442, #443, #444 );
#371 = COLOUR_RGB( '', 0.689999997600000, 0.689999997600000, 0.689999997600000 );
#372 = CARTESIAN_POINT( '', ( 0.000000000000000, -0.899999999999994, -4.84359393942143 ) );
#373 = CARTESIAN_POINT( '', ( 0.000000000000000, -0.899999999999994, 4.84359393942143 ) );
#374 = CARTESIAN_POINT( '', ( 0.000000000000000, -0.899999999999995, -10.5000000000000 ) );
#375 = VECTOR( '', #445, 1000.00000000000 );
#376 = CARTESIAN_POINT( '', ( 1.07350000000001, -0.899999999999991, 5.93211597998556 ) );
#377 = CARTESIAN_POINT( '', ( 1.07350000000000, -0.899999999999995, 5.93211597998556 ) );
#378 = CARTESIAN_POINT( '', ( 0.715209951210058, -0.899999999999995, 5.56972584803388 ) );
#379 = CARTESIAN_POINT( '', ( 0.357275562011625, -0.899999999999995, 5.20698485911123 ) );
#380 = CARTESIAN_POINT( '', ( 6.98226359409550E-16, -0.899999999999995, 4.84359393942143 ) );
#381 = CARTESIAN_POINT( '', ( 3.00000000000000, -0.899999999999994, 5.93211597998556 ) );
#382 = CARTESIAN_POINT( '', ( 60.0000000000000, -0.899999999999995, 5.93211597998556 ) );
#383 = VECTOR( '', #446, 1000.00000000000 );
#384 = CARTESIAN_POINT( '', ( 3.00000000000000, -0.899999999999994, -5.93211597998556 ) );
#385 = CARTESIAN_POINT( '', ( 3.00000000000000, -0.899999999999995, -10.5000000000000 ) );
#386 = VECTOR( '', #447, 1000.00000000000 );
#387 = CARTESIAN_POINT( '', ( 1.07350000000001, -0.899999999999991, -5.93211597998556 ) );
#388 = CARTESIAN_POINT( '', ( 60.0000000000000, -0.899999999999995, -5.93211597998556 ) );
#389 = VECTOR( '', #448, 1000.00000000000 );
#390 = CARTESIAN_POINT( '', ( -1.21594927074896E-15, -0.899999999999995, -4.84359393942143 ) );
#391 = CARTESIAN_POINT( '', ( 0.357276898579809, -0.899999999999995, -5.20698621855697 ) );
#392 = CARTESIAN_POINT( '', ( 0.715211048721680, -0.899999999999995, -5.56972695810484 ) );
#393 = CARTESIAN_POINT( '', ( 1.07350000000000, -0.899999999999995, -5.93211597998556 ) );
#394 = COLOUR_RGB( '', 0.689999997600000, 0.689999997600000, 0.689999997600000 );
#395 = CARTESIAN_POINT( '', ( 55.5000000000000, 3.60000000000000, 0.000000000000000 ) );
#396 = AXIS2_PLACEMENT_3D( '', #449, #450, #451 );
#397 = CARTESIAN_POINT( '', ( 50.9623000000000, 3.60000000000000, 0.000000000000000 ) );
#398 = AXIS2_PLACEMENT_3D( '', #452, #453, #454 );
#399 = COLOUR_RGB( '', 0.689999997600000, 0.689999997600000, 0.689999997600000 );
#400 = COLOUR_RGB( '', 0.689999997600000, 0.689999997600000, 0.689999997600000 );
#401 = CARTESIAN_POINT( '', ( 0.000000000000000, 0.900000000000005, -4.84359393942143 ) );
#402 = CARTESIAN_POINT( '', ( 0.000000000000000, 0.900000000000005, 4.84359393942143 ) );
#403 = AXIS2_PLACEMENT_3D( '', #455, #456, #457 );
#404 = CARTESIAN_POINT( '', ( 1.07350000000001, 0.900000000000009, 5.93211597998556 ) );
#405 = CARTESIAN_POINT( '', ( -5.06370476846247E-16, 0.900000000000005, 4.84359393942143 ) );
#406 = CARTESIAN_POINT( '', ( 0.357276898579809, 0.900000000000005, 5.20698621855697 ) );
#407 = CARTESIAN_POINT( '', ( 0.715211048721679, 0.900000000000005, 5.56972695810484 ) );
#408 = CARTESIAN_POINT( '', ( 1.07350000000000, 0.900000000000005, 5.93211597998556 ) );
#409 = CARTESIAN_POINT( '', ( 1.07350000000001, 0.900000000000009, -5.93211597998556 ) );
#410 = AXIS2_PLACEMENT_3D( '', #458, #459, #460 );
#411 = CARTESIAN_POINT( '', ( 1.07350000000000, 0.900000000000005, -5.93211597998556 ) );
#412 = CARTESIAN_POINT( '', ( 0.715209951210056, 0.900000000000005, -5.56972584803387 ) );
#413 = CARTESIAN_POINT( '', ( 0.357275562011624, 0.900000000000005, -5.20698485911122 ) );
#414 = CARTESIAN_POINT( '', ( -1.14293206055662E-16, 0.900000000000005, -4.84359393942143 ) );
#415 = COLOUR_RGB( '', 0.689999997600000, 0.689999997600000, 0.689999997600000 );
#416 = CARTESIAN_POINT( '', ( 50.0000000000000, 6.00000000000000, 0.000000000000000 ) );
#417 = AXIS2_PLACEMENT_3D( '', #461, #462, #463 );
#418 = COLOUR_RGB( '', 0.689999997600000, 0.689999997600000, 0.689999997600000 );
#419 = CARTESIAN_POINT( '', ( 0.000000000000000, 0.900000000000005, 10.5000000000000 ) );
#420 = VECTOR( '', #464, 1000.00000000000 );
#421 = CARTESIAN_POINT( '', ( 3.00000000000000, 0.900000000000005, -5.93211597998556 ) );
#422 = CARTESIAN_POINT( '', ( 60.0000000000000, 0.900000000000005, -5.93211597998556 ) );
#423 = VECTOR( '', #465, 1000.00000000000 );
#424 = CARTESIAN_POINT( '', ( 3.00000000000000, 0.900000000000005, 5.93211597998556 ) );
#425 = CARTESIAN_POINT( '', ( 3.00000000000000, 0.900000000000005, 10.5000000000000 ) );
#426 = VECTOR( '', #466, 1000.00000000000 );
#427 = CARTESIAN_POINT( '', ( 60.0000000000000, 0.900000000000005, 5.93211597998556 ) );
#428 = VECTOR( '', #467, 1000.00000000000 );
#429 = COLOUR_RGB( '', 0.689999997600000, 0.689999997600000, 0.689999997600000 );
#430 = AXIS2_PLACEMENT_3D( '', #468, #469, #470 );
#431 = AXIS2_PLACEMENT_3D( '', #471, #472, #473 );
#432 = COLOUR_RGB( '', 0.689999997600000, 0.689999997600000, 0.689999997600000 );
#433 = AXIS2_PLACEMENT_3D( '', #474, #475, #476 );
#434 = AXIS2_PLACEMENT_3D( '', #477, #478, #479 );
#435 = COLOUR_RGB( '', 0.689999997600000, 0.689999997600000, 0.689999997600000 );
#436 = COLOUR_RGB( '', 0.689999997600000, 0.689999997600000, 0.689999997600000 );
#437 = COLOUR_RGB( '', 0.689999997600000, 0.689999997600000, 0.689999997600000 );
#438 = COLOUR_RGB( '', 0.689999997600000, 0.689999997600000, 0.689999997600000 );
#439 = CARTESIAN_POINT( '', ( 58.6773037637589, 1.85734862499809E-15, 0.000000000000000 ) );
#440 = DIRECTION( '', ( 1.00000000000000, -6.12323399573677E-17, -0.000000000000000 ) );
#441 = DIRECTION( '', ( 6.12323399573677E-17, 1.00000000000000, 0.000000000000000 ) );
#442 = CARTESIAN_POINT( '', ( 55.5000000000000, 2.05190236920840E-15, 0.000000000000000 ) );
#443 = DIRECTION( '', ( 1.00000000000000, -6.12323399573677E-17, -0.000000000000000 ) );
#444 = DIRECTION( '', ( 6.12323399573677E-17, 1.00000000000000, 0.000000000000000 ) );
#445 = DIRECTION( '', ( 0.000000000000000, 0.000000000000000, 1.00000000000000 ) );
#446 = DIRECTION( '', ( 1.00000000000000, -6.12323399573677E-17, -0.000000000000000 ) );
#447 = DIRECTION( '', ( 0.000000000000000, 0.000000000000000, 1.00000000000000 ) );
#448 = DIRECTION( '', ( 1.00000000000000, -6.12323399573677E-17, -0.000000000000000 ) );
#449 = CARTESIAN_POINT( '', ( 55.5000000000000, 2.05190236920840E-15, 0.000000000000000 ) );
#450 = DIRECTION( '', ( 1.00000000000000, -6.12323399573677E-17, -0.000000000000000 ) );
#451 = DIRECTION( '', ( 6.12323399573677E-17, 1.00000000000000, 0.000000000000000 ) );
#452 = CARTESIAN_POINT( '', ( 50.9623000000000, 2.32975635823295E-15, 0.000000000000000 ) );
#453 = DIRECTION( '', ( 1.00000000000000, -6.12323399573677E-17, -0.000000000000000 ) );
#454 = DIRECTION( '', ( 6.12323399573677E-17, 1.00000000000000, 0.000000000000000 ) );
#455 = CARTESIAN_POINT( '', ( 0.000000000000000, 5.45029723684231E-15, 0.000000000000000 ) );
#456 = DIRECTION( '', ( 1.00000000000000, -6.12323399573677E-17, -0.000000000000000 ) );
#457 = DIRECTION( '', ( 6.12323399573677E-17, 1.00000000000000, 0.000000000000000 ) );
#458 = CARTESIAN_POINT( '', ( 1.07350000000000, 5.38456431989808E-15, 0.000000000000000 ) );
#459 = DIRECTION( '', ( 1.00000000000000, -6.12323399573677E-17, -0.000000000000000 ) );
#460 = DIRECTION( '', ( 6.12323399573677E-17, 1.00000000000000, 0.000000000000000 ) );
#461 = CARTESIAN_POINT( '', ( 50.0000000000000, 2.38868023897393E-15, 0.000000000000000 ) );
#462 = DIRECTION( '', ( 1.00000000000000, -6.12323399573677E-17, -0.000000000000000 ) );
#463 = DIRECTION( '', ( 6.12323399573677E-17, 1.00000000000000, 0.000000000000000 ) );
#464 = DIRECTION( '', ( 0.000000000000000, 0.000000000000000, -1.00000000000000 ) );
#465 = DIRECTION( '', ( 1.00000000000000, -6.12323399573677E-17, -0.000000000000000 ) );
#466 = DIRECTION( '', ( 0.000000000000000, 0.000000000000000, -1.00000000000000 ) );
#467 = DIRECTION( '', ( 1.00000000000000, -6.12323399573677E-17, -0.000000000000000 ) );
#468 = CARTESIAN_POINT( '', ( 1.07350000000000, 5.38456431989808E-15, 0.000000000000000 ) );
#469 = DIRECTION( '', ( 1.00000000000000, -6.12323399573677E-17, -0.000000000000000 ) );
#470 = DIRECTION( '', ( 6.12323399573677E-17, 1.00000000000000, 0.000000000000000 ) );
#471 = CARTESIAN_POINT( '', ( 0.000000000000000, 5.45029723684231E-15, 0.000000000000000 ) );
#472 = DIRECTION( '', ( 1.00000000000000, -6.12323399573677E-17, -0.000000000000000 ) );
#473 = DIRECTION( '', ( 6.12323399573677E-17, 1.00000000000000, 0.000000000000000 ) );
#474 = CARTESIAN_POINT( '', ( 3.00000000000000, 5.26660021697021E-15, 0.000000000000000 ) );
#475 = DIRECTION( '', ( -1.00000000000000, 0.000000000000000, 0.000000000000000 ) );
#476 = DIRECTION( '', ( 0.000000000000000, 0.000000000000000, 1.00000000000000 ) );
#477 = CARTESIAN_POINT( '', ( 3.00000000000000, 5.26660021697021E-15, 0.000000000000000 ) );
#478 = DIRECTION( '', ( -1.00000000000000, 0.000000000000000, 0.000000000000000 ) );
#479 = DIRECTION( '', ( 0.000000000000000, 0.000000000000000, 1.00000000000000 ) );
ENDSEC;
END-ISO-10303-21;
