ISO-10303-21;
HEADER;
/****************************************************************
 * Generated by software with PDE/Lib inside                    *
 * PDElib Version v51a, created Tue 01/15/2008                  *
 * International Technegroup Inc. (www.iti-oh.com)              *
 ****************************************************************/
FILE_DESCRIPTION((''),'2;1');
FILE_NAME('S:\\Drawings\\Web Drawings Completed with mm\\E-Vac\\800001-800003.stp','2008-07-28T14:54:50',('Dan Preston'),(''),'Autodesk Inventor 2009','Autodesk Inventor 2009','');
FILE_SCHEMA(('AUTOMOTIVE_DESIGN { 1 0 10303 214 1 1 1 1 }'));
ENDSEC;
DATA;
#5=APPLICATION_CONTEXT('automotive design');
#6=APPLICATION_PROTOCOL_DEFINITION('International Standard','automotive_design',2001,#5);
#7=PRODUCT_CONTEXT('',#5,'mechanical');
#8=PRODUCT('900669 for web','900669 for web',$,(#7));
#9=PRODUCT_RELATED_PRODUCT_CATEGORY('part',$,(#8));
#10=PRODUCT_DEFINITION_FORMATION('',$,#8);
#11=PRODUCT_DEFINITION_CONTEXT('part definition',#5,'design');
#12=PRODUCT_DEFINITION('',$,#10,#11);
#18=(NAMED_UNIT(*)PLANE_ANGLE_UNIT()SI_UNIT($,.RADIAN.));
#19=DIMENSIONAL_EXPONENTS(0.0,0.0,0.0,0.0,0.0,0.0,0.0);
#20=PLANE_ANGLE_MEASURE_WITH_UNIT(PLANE_ANGLE_MEASURE(0.017453292500000),#18);
#24=(CONVERSION_BASED_UNIT('DEGREE',#20)NAMED_UNIT(#19)PLANE_ANGLE_UNIT());
#28=(NAMED_UNIT(*)SI_UNIT($,.STERADIAN.)SOLID_ANGLE_UNIT());
#32=(LENGTH_UNIT()NAMED_UNIT(*)SI_UNIT(.CENTI.,.METRE.));
#33=DIMENSIONAL_EXPONENTS(1.0,0.0,0.0,0.0,0.0,0.0,0.0);
#34=LENGTH_MEASURE_WITH_UNIT(LENGTH_MEASURE(2.540000000000000),#32);
#38=(CONVERSION_BASED_UNIT('INCH',#34)LENGTH_UNIT()NAMED_UNIT(#33));
#40=UNCERTAINTY_MEASURE_WITH_UNIT(LENGTH_MEASURE(0.000393700787402),#38,'DISTANCE_ACCURACY_VALUE','');
#42=(GEOMETRIC_REPRESENTATION_CONTEXT(3)GLOBAL_UNCERTAINTY_ASSIGNED_CONTEXT((#40))GLOBAL_UNIT_ASSIGNED_CONTEXT((#24,#28,#38))REPRESENTATION_CONTEXT('None','None'));
#43=AXIS2_PLACEMENT_3D('',#44,#45,#46);
#44=CARTESIAN_POINT('',(0.0,0.0,0.0));
#45=DIRECTION('',(0.0,0.0,1.0));
#46=DIRECTION('',(1.0,0.0,0.0));
#47=SHAPE_REPRESENTATION('',(#43),#42);
#48=PRODUCT_DEFINITION_SHAPE('','',#12);
#49=SHAPE_DEFINITION_REPRESENTATION(#48,#47);
#55=(NAMED_UNIT(*)PLANE_ANGLE_UNIT()SI_UNIT($,.RADIAN.));
#56=DIMENSIONAL_EXPONENTS(0.0,0.0,0.0,0.0,0.0,0.0,0.0);
#57=PLANE_ANGLE_MEASURE_WITH_UNIT(PLANE_ANGLE_MEASURE(0.017453292500000),#55);
#61=(CONVERSION_BASED_UNIT('DEGREE',#57)NAMED_UNIT(#56)PLANE_ANGLE_UNIT());
#65=(NAMED_UNIT(*)SI_UNIT($,.STERADIAN.)SOLID_ANGLE_UNIT());
#69=(LENGTH_UNIT()NAMED_UNIT(*)SI_UNIT(.MILLI.,.METRE.));
#71=UNCERTAINTY_MEASURE_WITH_UNIT(LENGTH_MEASURE(0.000001000000000),#69,'DISTANCE_ACCURACY_VALUE','');
#73=(GEOMETRIC_REPRESENTATION_CONTEXT(3)GLOBAL_UNCERTAINTY_ASSIGNED_CONTEXT((#71))GLOBAL_UNIT_ASSIGNED_CONTEXT((#61,#65,#69))REPRESENTATION_CONTEXT('','3D'));
#74=CARTESIAN_POINT('',(-0.259864538430551,0.670637070032330,0.0));
#75=DIRECTION('',(0.0,-1.0,0.0));
#76=DIRECTION('',(0.0,0.0,-1.0));
#77=AXIS2_PLACEMENT_3D('',#74,#75,#76);
#78=PLANE('',#77);
#79=CARTESIAN_POINT('',(-0.013153434272002,0.670637070032330,-0.125010644727843));
#80=VERTEX_POINT('',#79);
#81=CARTESIAN_POINT('',(-0.311823098595370,0.670637070032330,-0.125010644727843));
#82=VERTEX_POINT('',#81);
#83=CARTESIAN_POINT('',(-0.013153434272002,0.670637070032330,-0.125010644727843));
#84=DIRECTION('',(-1.0,0.0,0.0));
#85=VECTOR('',#84,0.298669664323369);
#86=LINE('',#83,#85);
#87=EDGE_CURVE('',#80,#82,#86,.T.);
#88=ORIENTED_EDGE('',*,*,#87,.F.);
#89=CARTESIAN_POINT('',(-0.162488266433686,0.670637070032330,0.0));
#90=DIRECTION('',(0.0,-1.0,0.0));
#91=DIRECTION('',(-1.0,0.0,0.0));
#92=AXIS2_PLACEMENT_3D('',#89,#90,#91);
#93=CIRCLE('',#92,0.194752543993729);
#94=EDGE_CURVE('',#82,#80,#93,.T.);
#95=ORIENTED_EDGE('',*,*,#94,.F.);
#96=EDGE_LOOP('',(#88,#95));
#97=FACE_OUTER_BOUND('',#96,.T.);
#98=ADVANCED_FACE('',(#97),#78,.F.);
#99=CARTESIAN_POINT('',(-0.259864538430551,0.670637070032330,0.0));
#100=DIRECTION('',(0.0,-1.0,0.0));
#101=DIRECTION('',(0.0,0.0,-1.0));
#102=AXIS2_PLACEMENT_3D('',#99,#100,#101);
#103=PLANE('',#102);
#104=CARTESIAN_POINT('',(-0.311823098595370,0.670637070032330,0.125010644727843));
#105=VERTEX_POINT('',#104);
#106=CARTESIAN_POINT('',(-0.013153434272002,0.670637070032330,0.125010644727843));
#107=VERTEX_POINT('',#106);
#108=CARTESIAN_POINT('',(-0.311823098595370,0.670637070032330,0.125010644727843));
#109=DIRECTION('',(1.0,0.0,0.0));
#110=VECTOR('',#109,0.298669664323369);
#111=LINE('',#108,#110);
#112=EDGE_CURVE('',#105,#107,#111,.T.);
#113=ORIENTED_EDGE('',*,*,#112,.F.);
#114=CARTESIAN_POINT('',(-0.162488266433686,0.670637070032330,0.0));
#115=DIRECTION('',(0.0,-1.0,0.0));
#116=DIRECTION('',(-1.0,0.0,0.0));
#117=AXIS2_PLACEMENT_3D('',#114,#115,#116);
#118=CIRCLE('',#117,0.194752543993729);
#119=EDGE_CURVE('',#107,#105,#118,.T.);
#120=ORIENTED_EDGE('',*,*,#119,.F.);
#121=EDGE_LOOP('',(#113,#120));
#122=FACE_OUTER_BOUND('',#121,.T.);
#123=ADVANCED_FACE('',(#122),#103,.F.);
#124=CARTESIAN_POINT('',(-0.162488266433686,0.797425209137064,0.0));
#125=DIRECTION('',(-4.288749E-016,1.0,0.0));
#126=DIRECTION('',(-1.0,0.0,0.0));
#127=AXIS2_PLACEMENT_3D('',#124,#125,#126);
#128=CONICAL_SURFACE('',#127,0.198626271996865,1.750000000000001);
#129=CARTESIAN_POINT('',(0.040011733566314,0.924213348241798,0.0));
#130=VERTEX_POINT('',#129);
#131=CARTESIAN_POINT('',(-0.364988266433686,0.924213348241798,0.0));
#132=VERTEX_POINT('',#131);
#133=CARTESIAN_POINT('',(0.040011733566314,0.924213348241798,-2.185478E-017));
#134=CARTESIAN_POINT('',(0.040011733566314,0.924213348241798,0.025903120239798));
#135=CARTESIAN_POINT('',(0.034657315715909,0.921287006912035,0.053154843919531));
#136=CARTESIAN_POINT('',(0.013669103273439,0.910784426441977,0.102618709876793));
#137=CARTESIAN_POINT('',(-0.001938375993613,0.903318458694677,0.124865360880949));
#138=CARTESIAN_POINT('',(-0.037409521342044,0.888970654644965,0.159836144137719));
#139=CARTESIAN_POINT('',(-0.059800645624103,0.881050693408508,0.175063591474905));
#140=CARTESIAN_POINT('',(-0.109342544630232,0.869429700927914,0.195511603481338));
#141=CARTESIAN_POINT('',(-0.136554938927035,0.865972326691836,0.200720575854316));
#142=CARTESIAN_POINT('',(-0.188421593940337,0.865972326691836,0.200720575854316));
#143=CARTESIAN_POINT('',(-0.215633988237140,0.869429700927914,0.195511603481338));
#144=CARTESIAN_POINT('',(-0.265175887243269,0.881050693408508,0.175063591474905));
#145=CARTESIAN_POINT('',(-0.287567011525329,0.888970654644965,0.159836144137719));
#146=CARTESIAN_POINT('',(-0.323038156873760,0.903318458694677,0.124865360880949));
#147=CARTESIAN_POINT('',(-0.338645636140812,0.910784426441977,0.102618709876793));
#148=CARTESIAN_POINT('',(-0.359633848583281,0.921287006912035,0.053154843919531));
#149=CARTESIAN_POINT('',(-0.364988266433686,0.924213348241798,0.025903120239798));
#150=CARTESIAN_POINT('',(-0.364988266433686,0.924213348241798,3.824587E-017));
#151=B_SPLINE_CURVE_WITH_KNOTS('',3,(#133,#134,#135,#136,#137,#138,#139,#140,#141,#142,#143,#144,#145,#146,#147,#148,#149,#150),.UNSPECIFIED.,.F.,.U.,(4,2,2,2,2,2,2,2,4),(0.789987463655892,0.987369239883156,1.184751016110420,1.382362971711102,1.579974927311784,1.777586882912466,1.975198838513148,2.172580614740412,2.369962390967677),.UNSPECIFIED.);
#152=EDGE_CURVE('',#130,#132,#151,.T.);
#153=ORIENTED_EDGE('',*,*,#152,.F.);
#154=CARTESIAN_POINT('',(-0.364988266433686,0.924213348241798,5.463696E-017));
#155=CARTESIAN_POINT('',(-0.364988266433686,0.924213348241798,-0.025903120239798));
#156=CARTESIAN_POINT('',(-0.359633848583281,0.921287006912035,-0.053154843919531));
#157=CARTESIAN_POINT('',(-0.338645636140812,0.910784426441977,-0.102618709876793));
#158=CARTESIAN_POINT('',(-0.323038156873760,0.903318458694677,-0.124865360880949));
#159=CARTESIAN_POINT('',(-0.287567011525329,0.888970654644965,-0.159836144137719));
#160=CARTESIAN_POINT('',(-0.265175887243269,0.881050693408507,-0.175063591474904));
#161=CARTESIAN_POINT('',(-0.215633988237140,0.869429700927914,-0.195511603481338));
#162=CARTESIAN_POINT('',(-0.188421593940337,0.865972326691836,-0.200720575854316));
#163=CARTESIAN_POINT('',(-0.162488266433686,0.865972326691836,-0.200720575854316));
#164=CARTESIAN_POINT('',(-0.136554938927035,0.865972326691836,-0.200720575854316));
#165=CARTESIAN_POINT('',(-0.109342544630232,0.869429700927914,-0.195511603481338));
#166=CARTESIAN_POINT('',(-0.059800645624103,0.881050693408508,-0.175063591474904));
#167=CARTESIAN_POINT('',(-0.037409521342043,0.888970654644965,-0.159836144137719));
#168=CARTESIAN_POINT('',(-0.001938375993613,0.903318458694677,-0.124865360880949));
#169=CARTESIAN_POINT('',(0.013669103273439,0.910784426441977,-0.102618709876793));
#170=CARTESIAN_POINT('',(0.034657315715909,0.921287006912035,-0.053154843919531));
#171=CARTESIAN_POINT('',(0.040011733566314,0.924213348241798,-0.025903120239798));
#172=CARTESIAN_POINT('',(0.040011733566314,0.924213348241798,6.010066E-017));
#173=B_SPLINE_CURVE_WITH_KNOTS('',3,(#154,#155,#156,#157,#158,#159,#160,#161,#162,#163,#164,#165,#166,#167,#168,#169,#170,#171,#172),.UNSPECIFIED.,.F.,.U.,(4,2,2,2,3,2,2,2,4),(2.369962390967677,2.567344167194941,2.764725943422205,2.962337899022887,3.159949854623569,3.357561810224251,3.555173765824932,3.752555542052197,3.949937318279461),.UNSPECIFIED.);
#174=EDGE_CURVE('',#132,#130,#173,.T.);
#175=ORIENTED_EDGE('',*,*,#174,.F.);
#176=EDGE_LOOP('',(#153,#175));
#177=FACE_OUTER_BOUND('',#176,.T.);
#178=CARTESIAN_POINT('',(-0.311823098595370,0.670637070032330,-0.125010644727843));
#179=CARTESIAN_POINT('',(-0.311845027723173,0.670662780019462,-0.124985672435831));
#180=CARTESIAN_POINT('',(-0.311866951233185,0.670688481291843,-0.124960693194403));
#181=CARTESIAN_POINT('',(-0.324450324019341,0.685438947118909,-0.110615764760322));
#182=CARTESIAN_POINT('',(-0.336754180481495,0.699172134575067,-0.091880331398656));
#183=CARTESIAN_POINT('',(-0.349681660998695,0.713460127958855,-0.059446961607953));
#184=CARTESIAN_POINT('',(-0.353103100817554,0.717206362993730,-0.047921650857707));
#185=CARTESIAN_POINT('',(-0.357691082070840,0.722220982279722,-0.024217683487983));
#186=CARTESIAN_POINT('',(-0.358855528473510,0.723487217507203,-0.012038166840954));
#187=CARTESIAN_POINT('',(-0.358855528473510,0.723487217507203,0.012038166840954));
#188=CARTESIAN_POINT('',(-0.357691082070840,0.722220982279722,0.024217683487983));
#189=CARTESIAN_POINT('',(-0.353103100817554,0.717206362993730,0.047921650857707));
#190=CARTESIAN_POINT('',(-0.349681660998695,0.713460127958855,0.059446961607953));
#191=CARTESIAN_POINT('',(-0.336754180481495,0.699172134575067,0.091880331398656));
#192=CARTESIAN_POINT('',(-0.324450324019341,0.685438947118909,0.110615764760322));
#193=CARTESIAN_POINT('',(-0.311866951233185,0.670688481291843,0.124960693194403));
#194=CARTESIAN_POINT('',(-0.311845027723173,0.670662780019462,0.124985672435831));
#195=CARTESIAN_POINT('',(-0.311823098595370,0.670637070032330,0.125010644727843));
#196=B_SPLINE_CURVE_WITH_KNOTS('',3,(#178,#179,#180,#181,#182,#183,#184,#185,#186,#187,#188,#189,#190,#191,#192,#193,#194,#195),.UNSPECIFIED.,.F.,.U.,(4,2,2,2,2,2,2,2,4),(1.864931281466035,1.865251394919095,2.048713057575228,2.140443888903295,2.232174720231362,2.323905551559429,2.415636382887496,2.599098045543629,2.599418158996690),.UNSPECIFIED.);
#197=EDGE_CURVE('',#82,#105,#196,.T.);
#198=ORIENTED_EDGE('',*,*,#197,.F.);
#199=ORIENTED_EDGE('',*,*,#94,.T.);
#200=CARTESIAN_POINT('',(-0.013153434272002,0.670637070032330,0.125010644727843));
#201=CARTESIAN_POINT('',(-0.013131505144200,0.670662780019462,0.124985672435831));
#202=CARTESIAN_POINT('',(-0.013109581634187,0.670688481291843,0.124960693194403));
#203=CARTESIAN_POINT('',(-0.000526208848032,0.685438947118909,0.110615764760322));
#204=CARTESIAN_POINT('',(0.011777647614123,0.699172134575067,0.091880331398656));
#205=CARTESIAN_POINT('',(0.024705128131323,0.713460127958855,0.059446961607953));
#206=CARTESIAN_POINT('',(0.028126567950182,0.717206362993730,0.047921650857707));
#207=CARTESIAN_POINT('',(0.032714549203468,0.722220982279722,0.024217683487982));
#208=CARTESIAN_POINT('',(0.033878995606138,0.723487217507203,0.012038166840954));
#209=CARTESIAN_POINT('',(0.033878995606138,0.723487217507203,-0.012038166840954));
#210=CARTESIAN_POINT('',(0.032714549203468,0.722220982279722,-0.024217683487983));
#211=CARTESIAN_POINT('',(0.028126567950182,0.717206362993730,-0.047921650857707));
#212=CARTESIAN_POINT('',(0.024705128131323,0.713460127958855,-0.059446961607953));
#213=CARTESIAN_POINT('',(0.011777647614123,0.699172134575067,-0.091880331398656));
#214=CARTESIAN_POINT('',(-0.000526208848032,0.685438947118909,-0.110615764760322));
#215=CARTESIAN_POINT('',(-0.013109581634187,0.670688481291843,-0.124960693194403));
#216=CARTESIAN_POINT('',(-0.013131505144200,0.670662780019462,-0.124985672435831));
#217=CARTESIAN_POINT('',(-0.013153434272002,0.670637070032330,-0.125010644727843));
#218=B_SPLINE_CURVE_WITH_KNOTS('',3,(#200,#201,#202,#203,#204,#205,#206,#207,#208,#209,#210,#211,#212,#213,#214,#215,#216,#217),.UNSPECIFIED.,.F.,.U.,(4,2,2,2,2,2,2,2,4),(0.400403505720146,0.400723619173206,0.584185281829339,0.675916113157406,0.767646944485473,0.859377775813540,0.951108607141607,1.134570269797740,1.134890383250800),.UNSPECIFIED.);
#219=EDGE_CURVE('',#107,#80,#218,.T.);
#220=ORIENTED_EDGE('',*,*,#219,.F.);
#221=ORIENTED_EDGE('',*,*,#119,.T.);
#222=EDGE_LOOP('',(#198,#199,#220,#221));
#223=FACE_BOUND('',#222,.T.);
#224=ADVANCED_FACE('',(#177,#223),#128,.F.);
#225=CARTESIAN_POINT('',(-1.037488266433686,0.826237217507202,0.0));
#226=DIRECTION('',(-1.0,0.0,0.0));
#227=DIRECTION('',(0.0,0.0,1.0));
#228=AXIS2_PLACEMENT_3D('',#225,#226,#227);
#229=PLANE('',#228);
#230=CARTESIAN_POINT('',(-1.037488266433686,0.924213348241797,0.0));
#231=VERTEX_POINT('',#230);
#232=CARTESIAN_POINT('',(-1.037488266433686,0.549213348241798,0.0));
#233=DIRECTION('',(1.0,0.0,0.0));
#234=DIRECTION('',(0.0,1.0,0.0));
#235=AXIS2_PLACEMENT_3D('',#232,#233,#234);
#236=CIRCLE('',#235,0.374999999999999);
#237=EDGE_CURVE('',#231,#231,#236,.T.);
#238=ORIENTED_EDGE('',*,*,#237,.F.);
#239=EDGE_LOOP('',(#238));
#240=FACE_OUTER_BOUND('',#239,.T.);
#241=CARTESIAN_POINT('',(-1.037488266433686,0.728261086772607,0.0));
#242=VERTEX_POINT('',#241);
#243=CARTESIAN_POINT('',(-1.037488266433686,0.549213348241798,0.0));
#244=DIRECTION('',(1.0,0.0,0.0));
#245=DIRECTION('',(0.0,1.0,0.0));
#246=AXIS2_PLACEMENT_3D('',#243,#244,#245);
#247=CIRCLE('',#246,0.179047738530809);
#248=EDGE_CURVE('',#242,#242,#247,.T.);
#249=ORIENTED_EDGE('',*,*,#248,.T.);
#250=EDGE_LOOP('',(#249));
#251=FACE_BOUND('',#250,.T.);
#252=ADVANCED_FACE('',(#240,#251),#229,.T.);
#253=CARTESIAN_POINT('',(0.462511733566314,0.549213348241798,0.0));
#254=DIRECTION('',(1.0,0.0,0.0));
#255=DIRECTION('',(0.0,1.0,0.0));
#256=AXIS2_PLACEMENT_3D('',#253,#254,#255);
#257=CYLINDRICAL_SURFACE('',#256,0.375000000000000);
#258=CARTESIAN_POINT('',(1.962511733566314,0.924213348241798,0.0));
#259=VERTEX_POINT('',#258);
#260=CARTESIAN_POINT('',(1.962511733566314,0.549213348241798,0.0));
#261=DIRECTION('',(1.0,0.0,0.0));
#262=DIRECTION('',(0.0,1.0,0.0));
#263=AXIS2_PLACEMENT_3D('',#260,#261,#262);
#264=CIRCLE('',#263,0.375000000000001);
#265=EDGE_CURVE('',#259,#259,#264,.T.);
#266=ORIENTED_EDGE('',*,*,#265,.F.);
#267=EDGE_LOOP('',(#266));
#268=FACE_OUTER_BOUND('',#267,.T.);
#269=ORIENTED_EDGE('',*,*,#152,.T.);
#270=ORIENTED_EDGE('',*,*,#174,.T.);
#271=EDGE_LOOP('',(#269,#270));
#272=FACE_BOUND('',#271,.T.);
#273=ORIENTED_EDGE('',*,*,#237,.T.);
#274=EDGE_LOOP('',(#273));
#275=FACE_BOUND('',#274,.T.);
#276=ADVANCED_FACE('',(#268,#272,#275),#257,.T.);
#277=CARTESIAN_POINT('',(1.962511733566314,0.851816991360284,0.0));
#278=DIRECTION('',(1.0,0.0,0.0));
#279=DIRECTION('',(0.0,0.0,-1.0));
#280=AXIS2_PLACEMENT_3D('',#277,#278,#279);
#281=PLANE('',#280);
#282=ORIENTED_EDGE('',*,*,#265,.T.);
#283=EDGE_LOOP('',(#282));
#284=FACE_OUTER_BOUND('',#283,.T.);
#285=CARTESIAN_POINT('',(1.962511733566314,0.779420634478770,0.0));
#286=VERTEX_POINT('',#285);
#287=CARTESIAN_POINT('',(1.962511733566314,0.549213348241798,0.0));
#288=DIRECTION('',(1.0,0.0,0.0));
#289=DIRECTION('',(0.0,1.0,0.0));
#290=AXIS2_PLACEMENT_3D('',#287,#288,#289);
#291=CIRCLE('',#290,0.230207286236972);
#292=EDGE_CURVE('',#286,#286,#291,.T.);
#293=ORIENTED_EDGE('',*,*,#292,.F.);
#294=EDGE_LOOP('',(#293));
#295=FACE_BOUND('',#294,.T.);
#296=ADVANCED_FACE('',(#284,#295),#281,.T.);
#297=CARTESIAN_POINT('',(1.775011733566296,0.549213348241798,0.0));
#298=DIRECTION('',(1.0,0.0,0.0));
#299=DIRECTION('',(0.0,1.0,0.0));
#300=AXIS2_PLACEMENT_3D('',#297,#298,#299);
#301=CONICAL_SURFACE('',#300,0.224478643118486,1.750000000000040);
#302=CARTESIAN_POINT('',(1.587511733566277,0.767963348241798,0.0));
#303=VERTEX_POINT('',#302);
#304=CARTESIAN_POINT('',(1.587511733566277,0.549213348241798,0.0));
#305=DIRECTION('',(1.0,0.0,0.0));
#306=DIRECTION('',(0.0,1.0,0.0));
#307=AXIS2_PLACEMENT_3D('',#304,#305,#306);
#308=CIRCLE('',#307,0.218750000000000);
#309=EDGE_CURVE('',#303,#303,#308,.T.);
#310=ORIENTED_EDGE('',*,*,#309,.F.);
#311=EDGE_LOOP('',(#310));
#312=FACE_OUTER_BOUND('',#311,.T.);
#313=ORIENTED_EDGE('',*,*,#292,.T.);
#314=EDGE_LOOP('',(#313));
#315=FACE_BOUND('',#314,.T.);
#316=ADVANCED_FACE('',(#312,#315),#301,.F.);
#317=CARTESIAN_POINT('',(1.556261733566295,0.549213348241798,0.0));
#318=DIRECTION('',(1.0,0.0,0.0));
#319=DIRECTION('',(0.0,1.0,0.0));
#320=AXIS2_PLACEMENT_3D('',#317,#318,#319);
#321=CYLINDRICAL_SURFACE('',#320,0.218750000000000);
#322=CARTESIAN_POINT('',(1.525011733566314,0.767963348241798,0.0));
#323=VERTEX_POINT('',#322);
#324=CARTESIAN_POINT('',(1.525011733566314,0.549213348241798,0.0));
#325=DIRECTION('',(1.0,0.0,0.0));
#326=DIRECTION('',(0.0,1.0,0.0));
#327=AXIS2_PLACEMENT_3D('',#324,#325,#326);
#328=CIRCLE('',#327,0.218750000000000);
#329=EDGE_CURVE('',#323,#323,#328,.T.);
#330=ORIENTED_EDGE('',*,*,#329,.F.);
#331=EDGE_LOOP('',(#330));
#332=FACE_OUTER_BOUND('',#331,.T.);
#333=ORIENTED_EDGE('',*,*,#309,.T.);
#334=EDGE_LOOP('',(#333));
#335=FACE_BOUND('',#334,.T.);
#336=ADVANCED_FACE('',(#332,#335),#321,.F.);
#337=CARTESIAN_POINT('',(1.511649755843744,0.549213348241798,0.0));
#338=DIRECTION('',(1.0,0.0,0.0));
#339=DIRECTION('',(0.0,1.0,0.0));
#340=AXIS2_PLACEMENT_3D('',#337,#338,#339);
#341=CONICAL_SURFACE('',#340,0.196511934632703,58.999999999999957);
#342=CARTESIAN_POINT('',(1.498287778121175,0.723487217507204,0.0));
#343=VERTEX_POINT('',#342);
#344=CARTESIAN_POINT('',(1.498287778121175,0.549213348241798,0.0));
#345=DIRECTION('',(1.0,0.0,0.0));
#346=DIRECTION('',(0.0,1.0,0.0));
#347=AXIS2_PLACEMENT_3D('',#344,#345,#346);
#348=CIRCLE('',#347,0.174273869265406);
#349=EDGE_CURVE('',#343,#343,#348,.T.);
#350=ORIENTED_EDGE('',*,*,#349,.F.);
#351=EDGE_LOOP('',(#350));
#352=FACE_OUTER_BOUND('',#351,.T.);
#353=ORIENTED_EDGE('',*,*,#329,.T.);
#354=EDGE_LOOP('',(#353));
#355=FACE_BOUND('',#354,.T.);
#356=ADVANCED_FACE('',(#352,#355),#341,.F.);
#357=CARTESIAN_POINT('',(0.308524755843744,0.549213348241798,0.0));
#358=DIRECTION('',(1.0,0.0,0.0));
#359=DIRECTION('',(0.0,1.0,0.0));
#360=AXIS2_PLACEMENT_3D('',#357,#358,#359);
#361=CYLINDRICAL_SURFACE('',#360,0.174273869265405);
#362=CARTESIAN_POINT('',(-0.881238266433686,0.723487217507202,0.0));
#363=VERTEX_POINT('',#362);
#364=CARTESIAN_POINT('',(-0.881238266433686,0.549213348241798,0.0));
#365=DIRECTION('',(1.0,0.0,0.0));
#366=DIRECTION('',(0.0,1.0,0.0));
#367=AXIS2_PLACEMENT_3D('',#364,#365,#366);
#368=CIRCLE('',#367,0.174273869265405);
#369=EDGE_CURVE('',#363,#363,#368,.T.);
#370=ORIENTED_EDGE('',*,*,#369,.F.);
#371=EDGE_LOOP('',(#370));
#372=FACE_OUTER_BOUND('',#371,.T.);
#373=ORIENTED_EDGE('',*,*,#87,.T.);
#374=ORIENTED_EDGE('',*,*,#197,.T.);
#375=ORIENTED_EDGE('',*,*,#112,.T.);
#376=ORIENTED_EDGE('',*,*,#219,.T.);
#377=EDGE_LOOP('',(#373,#374,#375,#376));
#378=FACE_BOUND('',#377,.T.);
#379=ORIENTED_EDGE('',*,*,#349,.T.);
#380=EDGE_LOOP('',(#379));
#381=FACE_BOUND('',#380,.T.);
#382=ADVANCED_FACE('',(#372,#378,#381),#361,.F.);
#383=CARTESIAN_POINT('',(-0.959363266433686,0.549213348241798,0.0));
#384=DIRECTION('',(-1.0,0.0,0.0));
#385=DIRECTION('',(0.0,1.0,0.0));
#386=AXIS2_PLACEMENT_3D('',#383,#384,#385);
#387=CONICAL_SURFACE('',#386,0.176660803898107,1.749999999999995);
#388=ORIENTED_EDGE('',*,*,#248,.F.);
#389=EDGE_LOOP('',(#388));
#390=FACE_OUTER_BOUND('',#389,.T.);
#391=ORIENTED_EDGE('',*,*,#369,.T.);
#392=EDGE_LOOP('',(#391));
#393=FACE_BOUND('',#392,.T.);
#394=ADVANCED_FACE('',(#390,#393),#387,.F.);
#395=CLOSED_SHELL('',(#98,#123,#224,#252,#276,#296,#316,#336,#356,#382,#394));
#396=MANIFOLD_SOLID_BREP('',#395);
#397=COLOUR_RGB('',0.721569001674652,0.694118022918701,0.705882012844086);
#398=DRAUGHTING_PRE_DEFINED_CURVE_FONT('continuous');
#399=CURVE_STYLE('',#398,POSITIVE_LENGTH_MEASURE(0.100000000000000),#397);
#400=FILL_AREA_STYLE_COLOUR('',#397);
#401=FILL_AREA_STYLE('',(#400));
#402=SURFACE_STYLE_FILL_AREA(#401);
#403=SURFACE_SIDE_STYLE('',(#402));
#404=SURFACE_STYLE_USAGE(.BOTH.,#403);
#405=PRESENTATION_STYLE_ASSIGNMENT((#399,#404));
#406=STYLED_ITEM('',(#405),#252);
#407=STYLED_ITEM('',(#405),#276);
#408=STYLED_ITEM('',(#405),#296);
#409=STYLED_ITEM('',(#405),#316);
#410=STYLED_ITEM('',(#405),#336);
#411=STYLED_ITEM('',(#405),#356);
#412=STYLED_ITEM('',(#405),#382);
#413=STYLED_ITEM('',(#405),#394);
#414=MECHANICAL_DESIGN_GEOMETRIC_PRESENTATION_REPRESENTATION('',(#406,#407,#408,#409,#410,#411,#412,#413,#422),#73);
#415=COLOUR_RGB('Metal-AL-6061 (Flat)',0.847059011459351,0.839215993881226,0.839215993881226);
#416=FILL_AREA_STYLE_COLOUR('Metal-AL-6061 (Flat)',#415);
#417=FILL_AREA_STYLE('Metal-AL-6061 (Flat)',(#416));
#418=SURFACE_STYLE_FILL_AREA(#417);
#419=SURFACE_SIDE_STYLE('Metal-AL-6061 (Flat)',(#418));
#420=SURFACE_STYLE_USAGE(.BOTH.,#419);
#421=PRESENTATION_STYLE_ASSIGNMENT((#420));
#422=STYLED_ITEM('',(#421),#396);
#423=ADVANCED_BREP_SHAPE_REPRESENTATION('ABSR',(#396),#42);
#424=SHAPE_REPRESENTATION_RELATIONSHIP('SRR','None',#423,#47);
ENDSEC;
END-ISO-10303-21;
