ISO-10303-21;
HEADER;
FILE_DESCRIPTION( ( 'STEP AP214' ), '1' );
FILE_NAME( '//goodhand-server/Shared Folders/GoodHand Data/Kipp CAD/K0391/K0391.08X45.stp', '2020-12-07T10:17:23', ( '' ), ( '' ), ' ', 'PARTsolutions', ' ' );
FILE_SCHEMA( ( 'AUTOMOTIVE_DESIGN { 1 0 10303 214 1 1 1 1 }' ) );
ENDSEC;
DATA;
#1 = MECHANICAL_DESIGN_GEOMETRIC_PRESENTATION_REPRESENTATION( ' ', ( #10, #11, #12, #13, #14, #15, #16, #17, #18, #19, #20, #21, #22 ), #6 );
#2 = PRODUCT_DEFINITION_CONTEXT( '', #23, 'design' );
#3 = APPLICATION_PROTOCOL_DEFINITION( 'international standard', 'automotive_design', 2001, #23 );
#4 = PRODUCT_CATEGORY_RELATIONSHIP( 'NONE', 'NONE', #24, #25 );
#5 = SHAPE_DEFINITION_REPRESENTATION( #26, #27 );
#6 =  ( GEOMETRIC_REPRESENTATION_CONTEXT( 3 )GLOBAL_UNCERTAINTY_ASSIGNED_CONTEXT( ( #30 ) )GLOBAL_UNIT_ASSIGNED_CONTEXT( ( #32, #33, #34 ) )REPRESENTATION_CONTEXT( 'NONE', 'WORKSPACE' ) );
#10 = STYLED_ITEM( '', ( #36 ), #37 );
#11 = STYLED_ITEM( '', ( #38 ), #39 );
#12 = STYLED_ITEM( '', ( #40 ), #41 );
#13 = STYLED_ITEM( '', ( #42 ), #43 );
#14 = STYLED_ITEM( '', ( #44 ), #45 );
#15 = STYLED_ITEM( '', ( #46 ), #47 );
#16 = STYLED_ITEM( '', ( #48 ), #49 );
#17 = STYLED_ITEM( '', ( #50 ), #51 );
#18 = STYLED_ITEM( '', ( #52 ), #53 );
#19 = STYLED_ITEM( '', ( #54 ), #55 );
#20 = STYLED_ITEM( '', ( #56 ), #57 );
#21 = STYLED_ITEM( '', ( #58 ), #59 );
#22 = STYLED_ITEM( '', ( #60 ), #61 );
#23 = APPLICATION_CONTEXT( 'core data for automotive mechanical design processes' );
#24 = PRODUCT_CATEGORY( 'part', 'NONE' );
#25 = PRODUCT_RELATED_PRODUCT_CATEGORY( 'detail', ' ', ( #62 ) );
#26 = PRODUCT_DEFINITION_SHAPE( 'NONE', 'NONE', #63 );
#27 = ADVANCED_BREP_SHAPE_REPRESENTATION( '_K0391.08X45', ( #64, #65 ), #6 );
#30 = UNCERTAINTY_MEASURE_WITH_UNIT( LENGTH_MEASURE( 0.00100000000000000 ), #32, '', '' );
#32 =  ( CONVERSION_BASED_UNIT( 'MILLIMETRE', #68 )LENGTH_UNIT(  )NAMED_UNIT( #71 ) );
#33 =  ( NAMED_UNIT( #73 )PLANE_ANGLE_UNIT(  )SI_UNIT( $, .RADIAN. ) );
#34 =  ( NAMED_UNIT( #73 )SI_UNIT( $, .STERADIAN. )SOLID_ANGLE_UNIT(  ) );
#36 = PRESENTATION_STYLE_ASSIGNMENT( ( #79 ) );
#37 = ADVANCED_FACE( '', ( #80, #81 ), #82, .F. );
#38 = PRESENTATION_STYLE_ASSIGNMENT( ( #83 ) );
#39 = ADVANCED_FACE( '', ( #84, #85 ), #86, .T. );
#40 = PRESENTATION_STYLE_ASSIGNMENT( ( #87 ) );
#41 = ADVANCED_FACE( '', ( #88, #89 ), #90, .T. );
#42 = PRESENTATION_STYLE_ASSIGNMENT( ( #91 ) );
#43 = ADVANCED_FACE( '', ( #92 ), #93, .T. );
#44 = PRESENTATION_STYLE_ASSIGNMENT( ( #94 ) );
#45 = ADVANCED_FACE( '', ( #95 ), #96, .T. );
#46 = PRESENTATION_STYLE_ASSIGNMENT( ( #97 ) );
#47 = ADVANCED_FACE( '', ( #98 ), #99, .T. );
#48 = PRESENTATION_STYLE_ASSIGNMENT( ( #100 ) );
#49 = ADVANCED_FACE( '', ( #101, #102 ), #103, .T. );
#50 = PRESENTATION_STYLE_ASSIGNMENT( ( #104 ) );
#51 = ADVANCED_FACE( '', ( #105 ), #106, .F. );
#52 = PRESENTATION_STYLE_ASSIGNMENT( ( #107 ) );
#53 = ADVANCED_FACE( '', ( #108, #109 ), #110, .T. );
#54 = PRESENTATION_STYLE_ASSIGNMENT( ( #111 ) );
#55 = ADVANCED_FACE( '', ( #112 ), #113, .T. );
#56 = PRESENTATION_STYLE_ASSIGNMENT( ( #114 ) );
#57 = ADVANCED_FACE( '', ( #115 ), #116, .T. );
#58 = PRESENTATION_STYLE_ASSIGNMENT( ( #117 ) );
#59 = ADVANCED_FACE( '', ( #118, #119 ), #120, .T. );
#60 = PRESENTATION_STYLE_ASSIGNMENT( ( #121 ) );
#61 = ADVANCED_FACE( '', ( #122 ), #123, .T. );
#62 = PRODUCT( '_K0391.08X45', '_K0391.08X45', 'PART-_K0391.08X45-DESC', ( #124 ) );
#63 = PRODUCT_DEFINITION( 'NONE', 'NONE', #125, #2 );
#64 = MANIFOLD_SOLID_BREP( '_K0391.08X45', #126 );
#65 = AXIS2_PLACEMENT_3D( '', #127, #128, #129 );
#68 = LENGTH_MEASURE_WITH_UNIT( LENGTH_MEASURE( 1.00000000000000 ), #130 );
#71 = DIMENSIONAL_EXPONENTS( 1.00000000000000, 0.000000000000000, 0.000000000000000, 0.000000000000000, 0.000000000000000, 0.000000000000000, 0.000000000000000 );
#73 = DIMENSIONAL_EXPONENTS( 0.000000000000000, 0.000000000000000, 0.000000000000000, 0.000000000000000, 0.000000000000000, 0.000000000000000, 0.000000000000000 );
#79 = SURFACE_STYLE_USAGE( .BOTH., #131 );
#80 = FACE_OUTER_BOUND( '', #132, .T. );
#81 = FACE_BOUND( '', #133, .T. );
#82 = PLANE( '', #134 );
#83 = SURFACE_STYLE_USAGE( .BOTH., #135 );
#84 = FACE_BOUND( '', #136, .T. );
#85 = FACE_OUTER_BOUND( '', #137, .T. );
#86 = CONICAL_SURFACE( '', #138, 4.00000000000000, 0.785398163400000 );
#87 = SURFACE_STYLE_USAGE( .BOTH., #139 );
#88 = FACE_OUTER_BOUND( '', #140, .T. );
#89 = FACE_OUTER_BOUND( '', #141, .T. );
#90 = CYLINDRICAL_SURFACE( '', #142, 2.40000000000000 );
#91 = SURFACE_STYLE_USAGE( .BOTH., #143 );
#92 = FACE_OUTER_BOUND( '', #144, .T. );
#93 = PLANE( '', #145 );
#94 = SURFACE_STYLE_USAGE( .BOTH., #146 );
#95 = FACE_OUTER_BOUND( '', #147, .T. );
#96 = PLANE( '', #148 );
#97 = SURFACE_STYLE_USAGE( .BOTH., #149 );
#98 = FACE_OUTER_BOUND( '', #150, .T. );
#99 = PLANE( '', #151 );
#100 = SURFACE_STYLE_USAGE( .BOTH., #152 );
#101 = FACE_OUTER_BOUND( '', #153, .T. );
#102 = FACE_OUTER_BOUND( '', #154, .T. );
#103 = CYLINDRICAL_SURFACE( '', #155, 4.00000000000000 );
#104 = SURFACE_STYLE_USAGE( .BOTH., #156 );
#105 = FACE_OUTER_BOUND( '', #157, .T. );
#106 = PLANE( '', #158 );
#107 = SURFACE_STYLE_USAGE( .BOTH., #159 );
#108 = FACE_BOUND( '', #160, .T. );
#109 = FACE_OUTER_BOUND( '', #161, .T. );
#110 = SPHERICAL_SURFACE( '', #162, 3.00000000000000 );
#111 = SURFACE_STYLE_USAGE( .BOTH., #163 );
#112 = FACE_OUTER_BOUND( '', #164, .T. );
#113 = PLANE( '', #165 );
#114 = SURFACE_STYLE_USAGE( .BOTH., #166 );
#115 = FACE_OUTER_BOUND( '', #167, .T. );
#116 = PLANE( '', #168 );
#117 = SURFACE_STYLE_USAGE( .BOTH., #169 );
#118 = FACE_OUTER_BOUND( '', #170, .T. );
#119 = FACE_BOUND( '', #171, .T. );
#120 = CONICAL_SURFACE( '', #172, 3.23300000000000, 0.785398163400000 );
#121 = SURFACE_STYLE_USAGE( .BOTH., #173 );
#122 = FACE_OUTER_BOUND( '', #174, .T. );
#123 = PLANE( '', #175 );
#124 = PRODUCT_CONTEXT( '', #23, 'mechanical' );
#125 = PRODUCT_DEFINITION_FORMATION_WITH_SPECIFIED_SOURCE( ' ', 'NONE', #62, .NOT_KNOWN. );
#126 = CLOSED_SHELL( '', ( #59, #37, #47, #61, #45, #53, #41, #39, #49, #43, #55, #57, #51 ) );
#127 = CARTESIAN_POINT( '', ( 0.000000000000000, 0.000000000000000, 0.000000000000000 ) );
#128 = DIRECTION( '', ( 0.000000000000000, 0.000000000000000, 1.00000000000000 ) );
#129 = DIRECTION( '', ( 1.00000000000000, 0.000000000000000, 0.000000000000000 ) );
#130 =  ( LENGTH_UNIT(  )NAMED_UNIT( #71 )SI_UNIT( .MILLI., .METRE. ) );
#131 = SURFACE_SIDE_STYLE( '', ( #177 ) );
#132 = EDGE_LOOP( '', ( #178 ) );
#133 = EDGE_LOOP( '', ( #179, #180, #181, #182, #183, #184 ) );
#134 = AXIS2_PLACEMENT_3D( '', #185, #186, #187 );
#135 = SURFACE_SIDE_STYLE( '', ( #188 ) );
#136 = EDGE_LOOP( '', ( #189 ) );
#137 = EDGE_LOOP( '', ( #190 ) );
#138 = AXIS2_PLACEMENT_3D( '', #191, #192, #193 );
#139 = SURFACE_SIDE_STYLE( '', ( #194 ) );
#140 = EDGE_LOOP( '', ( #195 ) );
#141 = EDGE_LOOP( '', ( #196 ) );
#142 = AXIS2_PLACEMENT_3D( '', #197, #198, #199 );
#143 = SURFACE_SIDE_STYLE( '', ( #200 ) );
#144 = EDGE_LOOP( '', ( #201, #202, #203, #204 ) );
#145 = AXIS2_PLACEMENT_3D( '', #205, #206, #207 );
#146 = SURFACE_SIDE_STYLE( '', ( #208 ) );
#147 = EDGE_LOOP( '', ( #209, #210, #211, #212 ) );
#148 = AXIS2_PLACEMENT_3D( '', #213, #214, #215 );
#149 = SURFACE_SIDE_STYLE( '', ( #216 ) );
#150 = EDGE_LOOP( '', ( #217, #218, #219, #220 ) );
#151 = AXIS2_PLACEMENT_3D( '', #221, #222, #223 );
#152 = SURFACE_SIDE_STYLE( '', ( #224 ) );
#153 = EDGE_LOOP( '', ( #225 ) );
#154 = EDGE_LOOP( '', ( #226 ) );
#155 = AXIS2_PLACEMENT_3D( '', #227, #228, #229 );
#156 = SURFACE_SIDE_STYLE( '', ( #230 ) );
#157 = EDGE_LOOP( '', ( #231, #232, #233, #234, #235, #236 ) );
#158 = AXIS2_PLACEMENT_3D( '', #237, #238, #239 );
#159 = SURFACE_SIDE_STYLE( '', ( #240 ) );
#160 = VERTEX_LOOP( '', #241 );
#161 = EDGE_LOOP( '', ( #242 ) );
#162 = AXIS2_PLACEMENT_3D( '', #243, #244, #245 );
#163 = SURFACE_SIDE_STYLE( '', ( #246 ) );
#164 = EDGE_LOOP( '', ( #247, #248, #249, #250 ) );
#165 = AXIS2_PLACEMENT_3D( '', #251, #252, #253 );
#166 = SURFACE_SIDE_STYLE( '', ( #254 ) );
#167 = EDGE_LOOP( '', ( #255, #256, #257, #258 ) );
#168 = AXIS2_PLACEMENT_3D( '', #259, #260, #261 );
#169 = SURFACE_SIDE_STYLE( '', ( #262 ) );
#170 = EDGE_LOOP( '', ( #263 ) );
#171 = EDGE_LOOP( '', ( #264 ) );
#172 = AXIS2_PLACEMENT_3D( '', #265, #266, #267 );
#173 = SURFACE_SIDE_STYLE( '', ( #268 ) );
#174 = EDGE_LOOP( '', ( #269, #270, #271, #272 ) );
#175 = AXIS2_PLACEMENT_3D( '', #273, #274, #275 );
#177 = SURFACE_STYLE_FILL_AREA( #276 );
#178 = ORIENTED_EDGE( '', *, *, #277, .F. );
#179 = ORIENTED_EDGE( '', *, *, #278, .T. );
#180 = ORIENTED_EDGE( '', *, *, #279, .T. );
#181 = ORIENTED_EDGE( '', *, *, #280, .T. );
#182 = ORIENTED_EDGE( '', *, *, #281, .T. );
#183 = ORIENTED_EDGE( '', *, *, #282, .T. );
#184 = ORIENTED_EDGE( '', *, *, #283, .T. );
#185 = CARTESIAN_POINT( '', ( 0.000000000000000, 0.000000000000000, 0.000000000000000 ) );
#186 = DIRECTION( '', ( 1.00000000000000, 0.000000000000000, -0.000000000000000 ) );
#187 = DIRECTION( '', ( -0.000000000000000, 0.000000000000000, -1.00000000000000 ) );
#188 = SURFACE_STYLE_FILL_AREA( #284 );
#189 = ORIENTED_EDGE( '', *, *, #285, .F. );
#190 = ORIENTED_EDGE( '', *, *, #286, .T. );
#191 = CARTESIAN_POINT( '', ( 37.6000000000000, 0.000000000000000, 0.000000000000000 ) );
#192 = DIRECTION( '', ( -1.00000000000000, 0.000000000000000, -0.000000000000000 ) );
#193 = DIRECTION( '', ( 0.000000000000000, 0.000000000000000, 1.00000000000000 ) );
#194 = SURFACE_STYLE_FILL_AREA( #287 );
#195 = ORIENTED_EDGE( '', *, *, #288, .F. );
#196 = ORIENTED_EDGE( '', *, *, #285, .T. );
#197 = CARTESIAN_POINT( '', ( 45.0000000000000, 0.000000000000000, 0.000000000000000 ) );
#198 = DIRECTION( '', ( -1.00000000000000, -0.000000000000000, 0.000000000000000 ) );
#199 = DIRECTION( '', ( -0.000000000000000, 0.000000000000000, -1.00000000000000 ) );
#200 = SURFACE_STYLE_FILL_AREA( #289 );
#201 = ORIENTED_EDGE( '', *, *, #281, .F. );
#202 = ORIENTED_EDGE( '', *, *, #290, .F. );
#203 = ORIENTED_EDGE( '', *, *, #291, .T. );
#204 = ORIENTED_EDGE( '', *, *, #292, .T. );
#205 = CARTESIAN_POINT( '', ( 4.00000000000000, -1.15470053837925, -2.00000000000000 ) );
#206 = DIRECTION( '', ( 0.000000000000000, 0.000000000000000, 1.00000000000000 ) );
#207 = DIRECTION( '', ( 1.00000000000000, 0.000000000000000, -0.000000000000000 ) );
#208 = SURFACE_STYLE_FILL_AREA( #293 );
#209 = ORIENTED_EDGE( '', *, *, #278, .F. );
#210 = ORIENTED_EDGE( '', *, *, #294, .F. );
#211 = ORIENTED_EDGE( '', *, *, #295, .T. );
#212 = ORIENTED_EDGE( '', *, *, #296, .T. );
#213 = CARTESIAN_POINT( '', ( 4.00000000000000, 1.15470053837925, 2.00000000000000 ) );
#214 = DIRECTION( '', ( 0.000000000000000, 0.000000000000000, -1.00000000000000 ) );
#215 = DIRECTION( '', ( -1.00000000000000, 0.000000000000000, 0.000000000000000 ) );
#216 = SURFACE_STYLE_FILL_AREA( #297 );
#217 = ORIENTED_EDGE( '', *, *, #279, .F. );
#218 = ORIENTED_EDGE( '', *, *, #296, .F. );
#219 = ORIENTED_EDGE( '', *, *, #298, .T. );
#220 = ORIENTED_EDGE( '', *, *, #299, .T. );
#221 = CARTESIAN_POINT( '', ( 4.00000000000000, -1.15470053837925, 2.00000000000000 ) );
#222 = DIRECTION( '', ( 0.000000000000000, 0.866025403784439, -0.500000000000000 ) );
#223 = DIRECTION( '', ( 0.000000000000000, 0.500000000000000, 0.866025403784439 ) );
#224 = SURFACE_STYLE_FILL_AREA( #300 );
#225 = ORIENTED_EDGE( '', *, *, #286, .F. );
#226 = ORIENTED_EDGE( '', *, *, #301, .T. );
#227 = CARTESIAN_POINT( '', ( 45.0000000000000, 0.000000000000000, 0.000000000000000 ) );
#228 = DIRECTION( '', ( -1.00000000000000, -0.000000000000000, 0.000000000000000 ) );
#229 = DIRECTION( '', ( -0.000000000000000, 0.000000000000000, -1.00000000000000 ) );
#230 = SURFACE_STYLE_FILL_AREA( #302 );
#231 = ORIENTED_EDGE( '', *, *, #295, .F. );
#232 = ORIENTED_EDGE( '', *, *, #303, .F. );
#233 = ORIENTED_EDGE( '', *, *, #304, .F. );
#234 = ORIENTED_EDGE( '', *, *, #291, .F. );
#235 = ORIENTED_EDGE( '', *, *, #305, .F. );
#236 = ORIENTED_EDGE( '', *, *, #298, .F. );
#237 = CARTESIAN_POINT( '', ( 4.00000000000000, 0.000000000000000, 0.000000000000000 ) );
#238 = DIRECTION( '', ( 1.00000000000000, 0.000000000000000, 0.000000000000000 ) );
#239 = DIRECTION( '', ( 0.000000000000000, 0.000000000000000, -1.00000000000000 ) );
#240 = SURFACE_STYLE_FILL_AREA( #306 );
#241 = VERTEX_POINT( '', #307 );
#242 = ORIENTED_EDGE( '', *, *, #288, .T. );
#243 = CARTESIAN_POINT( '', ( 42.0000000000000, 4.33680868994202E-15, 0.000000000000000 ) );
#244 = DIRECTION( '', ( 1.00000000000000, 0.000000000000000, 0.000000000000000 ) );
#245 = DIRECTION( '', ( 0.000000000000000, -1.00000000000000, 0.000000000000000 ) );
#246 = SURFACE_STYLE_FILL_AREA( #308 );
#247 = ORIENTED_EDGE( '', *, *, #282, .F. );
#248 = ORIENTED_EDGE( '', *, *, #292, .F. );
#249 = ORIENTED_EDGE( '', *, *, #304, .T. );
#250 = ORIENTED_EDGE( '', *, *, #309, .T. );
#251 = CARTESIAN_POINT( '', ( 4.00000000000000, 1.15470053837925, -2.00000000000000 ) );
#252 = DIRECTION( '', ( 0.000000000000000, -0.866025403784439, 0.500000000000000 ) );
#253 = DIRECTION( '', ( 0.000000000000000, -0.500000000000000, -0.866025403784439 ) );
#254 = SURFACE_STYLE_FILL_AREA( #310 );
#255 = ORIENTED_EDGE( '', *, *, #283, .F. );
#256 = ORIENTED_EDGE( '', *, *, #309, .F. );
#257 = ORIENTED_EDGE( '', *, *, #303, .T. );
#258 = ORIENTED_EDGE( '', *, *, #294, .T. );
#259 = CARTESIAN_POINT( '', ( 4.00000000000000, 2.30940107675850, 0.000000000000000 ) );
#260 = DIRECTION( '', ( 0.000000000000000, -0.866025403784439, -0.500000000000000 ) );
#261 = DIRECTION( '', ( 0.000000000000000, 0.500000000000000, -0.866025403784439 ) );
#262 = SURFACE_STYLE_FILL_AREA( #311 );
#263 = ORIENTED_EDGE( '', *, *, #301, .F. );
#264 = ORIENTED_EDGE( '', *, *, #277, .T. );
#265 = CARTESIAN_POINT( '', ( 0.000000000000000, 0.000000000000000, 0.000000000000000 ) );
#266 = DIRECTION( '', ( 1.00000000000000, -0.000000000000000, -0.000000000000000 ) );
#267 = DIRECTION( '', ( -0.000000000000000, 0.000000000000000, -1.00000000000000 ) );
#268 = SURFACE_STYLE_FILL_AREA( #312 );
#269 = ORIENTED_EDGE( '', *, *, #280, .F. );
#270 = ORIENTED_EDGE( '', *, *, #299, .F. );
#271 = ORIENTED_EDGE( '', *, *, #305, .T. );
#272 = ORIENTED_EDGE( '', *, *, #290, .T. );
#273 = CARTESIAN_POINT( '', ( 4.00000000000000, -2.30940107675850, 0.000000000000000 ) );
#274 = DIRECTION( '', ( -0.000000000000000, 0.866025403784439, 0.500000000000000 ) );
#275 = DIRECTION( '', ( 0.000000000000000, -0.500000000000000, 0.866025403784439 ) );
#276 = FILL_AREA_STYLE( '', ( #313 ) );
#277 = EDGE_CURVE( '', #314, #314, #315, .T. );
#278 = EDGE_CURVE( '', #316, #317, #318, .T. );
#279 = EDGE_CURVE( '', #317, #319, #320, .T. );
#280 = EDGE_CURVE( '', #319, #321, #322, .T. );
#281 = EDGE_CURVE( '', #321, #323, #324, .T. );
#282 = EDGE_CURVE( '', #323, #325, #326, .T. );
#283 = EDGE_CURVE( '', #325, #316, #327, .T. );
#284 = FILL_AREA_STYLE( '', ( #328 ) );
#285 = EDGE_CURVE( '', #329, #329, #330, .T. );
#286 = EDGE_CURVE( '', #331, #331, #332, .T. );
#287 = FILL_AREA_STYLE( '', ( #333 ) );
#288 = EDGE_CURVE( '', #334, #334, #335, .T. );
#289 = FILL_AREA_STYLE( '', ( #336 ) );
#290 = EDGE_CURVE( '', #337, #321, #338, .T. );
#291 = EDGE_CURVE( '', #337, #339, #340, .T. );
#292 = EDGE_CURVE( '', #339, #323, #341, .T. );
#293 = FILL_AREA_STYLE( '', ( #342 ) );
#294 = EDGE_CURVE( '', #343, #316, #344, .T. );
#295 = EDGE_CURVE( '', #343, #345, #346, .T. );
#296 = EDGE_CURVE( '', #345, #317, #347, .T. );
#297 = FILL_AREA_STYLE( '', ( #348 ) );
#298 = EDGE_CURVE( '', #345, #349, #350, .T. );
#299 = EDGE_CURVE( '', #349, #319, #351, .T. );
#300 = FILL_AREA_STYLE( '', ( #352 ) );
#301 = EDGE_CURVE( '', #353, #353, #354, .T. );
#302 = FILL_AREA_STYLE( '', ( #355 ) );
#303 = EDGE_CURVE( '', #356, #343, #357, .T. );
#304 = EDGE_CURVE( '', #339, #356, #358, .T. );
#305 = EDGE_CURVE( '', #349, #337, #359, .T. );
#306 = FILL_AREA_STYLE( '', ( #360 ) );
#307 = CARTESIAN_POINT( '', ( 45.0000000000000, 4.15311167006992E-15, 0.000000000000000 ) );
#308 = FILL_AREA_STYLE( '', ( #361 ) );
#309 = EDGE_CURVE( '', #356, #325, #362, .T. );
#310 = FILL_AREA_STYLE( '', ( #363 ) );
#311 = FILL_AREA_STYLE( '', ( #364 ) );
#312 = FILL_AREA_STYLE( '', ( #365 ) );
#313 = FILL_AREA_STYLE_COLOUR( '', #366 );
#314 = VERTEX_POINT( '', #367 );
#315 = CIRCLE( '', #368, 3.23300000000000 );
#316 = VERTEX_POINT( '', #369 );
#317 = VERTEX_POINT( '', #370 );
#318 = LINE( '', #371, #372 );
#319 = VERTEX_POINT( '', #373 );
#320 = LINE( '', #374, #375 );
#321 = VERTEX_POINT( '', #376 );
#322 = LINE( '', #377, #378 );
#323 = VERTEX_POINT( '', #379 );
#324 = LINE( '', #380, #381 );
#325 = VERTEX_POINT( '', #382 );
#326 = LINE( '', #383, #384 );
#327 = LINE( '', #385, #386 );
#328 = FILL_AREA_STYLE_COLOUR( '', #387 );
#329 = VERTEX_POINT( '', #388 );
#330 = CIRCLE( '', #389, 2.40000000000000 );
#331 = VERTEX_POINT( '', #390 );
#332 = CIRCLE( '', #391, 4.00000000000000 );
#333 = FILL_AREA_STYLE_COLOUR( '', #392 );
#334 = VERTEX_POINT( '', #393 );
#335 = CIRCLE( '', #394, 2.40000000000000 );
#336 = FILL_AREA_STYLE_COLOUR( '', #395 );
#337 = VERTEX_POINT( '', #396 );
#338 = LINE( '', #397, #398 );
#339 = VERTEX_POINT( '', #399 );
#340 = LINE( '', #400, #401 );
#341 = LINE( '', #402, #403 );
#342 = FILL_AREA_STYLE_COLOUR( '', #404 );
#343 = VERTEX_POINT( '', #405 );
#344 = LINE( '', #406, #407 );
#345 = VERTEX_POINT( '', #408 );
#346 = LINE( '', #409, #410 );
#347 = LINE( '', #411, #412 );
#348 = FILL_AREA_STYLE_COLOUR( '', #413 );
#349 = VERTEX_POINT( '', #414 );
#350 = LINE( '', #415, #416 );
#351 = LINE( '', #417, #418 );
#352 = FILL_AREA_STYLE_COLOUR( '', #419 );
#353 = VERTEX_POINT( '', #420 );
#354 = CIRCLE( '', #421, 4.00000000000000 );
#355 = FILL_AREA_STYLE_COLOUR( '', #422 );
#356 = VERTEX_POINT( '', #423 );
#357 = LINE( '', #424, #425 );
#358 = LINE( '', #426, #427 );
#359 = LINE( '', #428, #429 );
#360 = FILL_AREA_STYLE_COLOUR( '', #430 );
#361 = FILL_AREA_STYLE_COLOUR( '', #431 );
#362 = LINE( '', #432, #433 );
#363 = FILL_AREA_STYLE_COLOUR( '', #434 );
#364 = FILL_AREA_STYLE_COLOUR( '', #435 );
#365 = FILL_AREA_STYLE_COLOUR( '', #436 );
#366 = COLOUR_RGB( '', 0.689999997600000, 0.689999997600000, 0.689999997600000 );
#367 = CARTESIAN_POINT( '', ( 0.000000000000000, 0.000000000000000, -3.23300000000000 ) );
#368 = AXIS2_PLACEMENT_3D( '', #437, #438, #439 );
#369 = CARTESIAN_POINT( '', ( 0.000000000000000, 1.15470053837925, 2.00000000000000 ) );
#370 = CARTESIAN_POINT( '', ( 0.000000000000000, -1.15470053837925, 2.00000000000000 ) );
#371 = CARTESIAN_POINT( '', ( 0.000000000000000, 1.15470053837925, 2.00000000000000 ) );
#372 = VECTOR( '', #440, 1000.00000000000 );
#373 = CARTESIAN_POINT( '', ( 0.000000000000000, -2.30940107675850, 0.000000000000000 ) );
#374 = CARTESIAN_POINT( '', ( 0.000000000000000, -1.15470053837925, 2.00000000000000 ) );
#375 = VECTOR( '', #441, 1000.00000000000 );
#376 = CARTESIAN_POINT( '', ( 0.000000000000000, -1.15470053837925, -2.00000000000000 ) );
#377 = CARTESIAN_POINT( '', ( 0.000000000000000, -2.30940107675850, 0.000000000000000 ) );
#378 = VECTOR( '', #442, 1000.00000000000 );
#379 = CARTESIAN_POINT( '', ( 0.000000000000000, 1.15470053837925, -2.00000000000000 ) );
#380 = CARTESIAN_POINT( '', ( 0.000000000000000, -1.15470053837925, -2.00000000000000 ) );
#381 = VECTOR( '', #443, 1000.00000000000 );
#382 = CARTESIAN_POINT( '', ( 0.000000000000000, 2.30940107675850, 0.000000000000000 ) );
#383 = CARTESIAN_POINT( '', ( 0.000000000000000, 1.15470053837925, -2.00000000000000 ) );
#384 = VECTOR( '', #444, 1000.00000000000 );
#385 = CARTESIAN_POINT( '', ( 0.000000000000000, 2.30940107675850, 0.000000000000000 ) );
#386 = VECTOR( '', #445, 1000.00000000000 );
#387 = COLOUR_RGB( '', 0.689999997600000, 0.689999997600000, 0.689999997600000 );
#388 = CARTESIAN_POINT( '', ( 39.2000000000000, 0.000000000000000, -2.40000000000000 ) );
#389 = AXIS2_PLACEMENT_3D( '', #446, #447, #448 );
#390 = CARTESIAN_POINT( '', ( 37.6000000000000, 0.000000000000000, -4.00000000000000 ) );
#391 = AXIS2_PLACEMENT_3D( '', #449, #450, #451 );
#392 = COLOUR_RGB( '', 0.689999997600000, 0.689999997600000, 0.689999997600000 );
#393 = CARTESIAN_POINT( '', ( 40.2000000000000, 0.000000000000000, -2.40000000000000 ) );
#394 = AXIS2_PLACEMENT_3D( '', #452, #453, #454 );
#395 = COLOUR_RGB( '', 0.689999997600000, 0.689999997600000, 0.689999997600000 );
#396 = CARTESIAN_POINT( '', ( 4.00000000000000, -1.15470053837925, -2.00000000000000 ) );
#397 = CARTESIAN_POINT( '', ( 4.00000000000000, -1.15470053837925, -2.00000000000000 ) );
#398 = VECTOR( '', #455, 1000.00000000000 );
#399 = CARTESIAN_POINT( '', ( 4.00000000000000, 1.15470053837925, -2.00000000000000 ) );
#400 = CARTESIAN_POINT( '', ( 4.00000000000000, -1.15470053837925, -2.00000000000000 ) );
#401 = VECTOR( '', #456, 1000.00000000000 );
#402 = CARTESIAN_POINT( '', ( 4.00000000000000, 1.15470053837925, -2.00000000000000 ) );
#403 = VECTOR( '', #457, 1000.00000000000 );
#404 = COLOUR_RGB( '', 0.689999997600000, 0.689999997600000, 0.689999997600000 );
#405 = CARTESIAN_POINT( '', ( 4.00000000000000, 1.15470053837925, 2.00000000000000 ) );
#406 = CARTESIAN_POINT( '', ( 4.00000000000000, 1.15470053837925, 2.00000000000000 ) );
#407 = VECTOR( '', #458, 1000.00000000000 );
#408 = CARTESIAN_POINT( '', ( 4.00000000000000, -1.15470053837925, 2.00000000000000 ) );
#409 = CARTESIAN_POINT( '', ( 4.00000000000000, 1.15470053837925, 2.00000000000000 ) );
#410 = VECTOR( '', #459, 1000.00000000000 );
#411 = CARTESIAN_POINT( '', ( 4.00000000000000, -1.15470053837925, 2.00000000000000 ) );
#412 = VECTOR( '', #460, 1000.00000000000 );
#413 = COLOUR_RGB( '', 0.689999997600000, 0.689999997600000, 0.689999997600000 );
#414 = CARTESIAN_POINT( '', ( 4.00000000000000, -2.30940107675850, 0.000000000000000 ) );
#415 = CARTESIAN_POINT( '', ( 4.00000000000000, -1.15470053837925, 2.00000000000000 ) );
#416 = VECTOR( '', #461, 1000.00000000000 );
#417 = CARTESIAN_POINT( '', ( 4.00000000000000, -2.30940107675850, 0.000000000000000 ) );
#418 = VECTOR( '', #462, 1000.00000000000 );
#419 = COLOUR_RGB( '', 0.689999997600000, 0.689999997600000, 0.689999997600000 );
#420 = CARTESIAN_POINT( '', ( 0.766999999999997, 0.000000000000000, -4.00000000000000 ) );
#421 = AXIS2_PLACEMENT_3D( '', #463, #464, #465 );
#422 = COLOUR_RGB( '', 0.689999997600000, 0.689999997600000, 0.689999997600000 );
#423 = CARTESIAN_POINT( '', ( 4.00000000000000, 2.30940107675850, 0.000000000000000 ) );
#424 = CARTESIAN_POINT( '', ( 4.00000000000000, 2.30940107675850, 0.000000000000000 ) );
#425 = VECTOR( '', #466, 1000.00000000000 );
#426 = CARTESIAN_POINT( '', ( 4.00000000000000, 1.15470053837925, -2.00000000000000 ) );
#427 = VECTOR( '', #467, 1000.00000000000 );
#428 = CARTESIAN_POINT( '', ( 4.00000000000000, -2.30940107675850, 0.000000000000000 ) );
#429 = VECTOR( '', #468, 1000.00000000000 );
#430 = COLOUR_RGB( '', 0.689999997600000, 0.689999997600000, 0.689999997600000 );
#431 = COLOUR_RGB( '', 0.689999997600000, 0.689999997600000, 0.689999997600000 );
#432 = CARTESIAN_POINT( '', ( 4.00000000000000, 2.30940107675850, 0.000000000000000 ) );
#433 = VECTOR( '', #469, 1000.00000000000 );
#434 = COLOUR_RGB( '', 0.689999997600000, 0.689999997600000, 0.689999997600000 );
#435 = COLOUR_RGB( '', 0.689999997600000, 0.689999997600000, 0.689999997600000 );
#436 = COLOUR_RGB( '', 0.689999997600000, 0.689999997600000, 0.689999997600000 );
#437 = CARTESIAN_POINT( '', ( 0.000000000000000, 0.000000000000000, 0.000000000000000 ) );
#438 = DIRECTION( '', ( 1.00000000000000, 0.000000000000000, -0.000000000000000 ) );
#439 = DIRECTION( '', ( -0.000000000000000, 0.000000000000000, -1.00000000000000 ) );
#440 = DIRECTION( '', ( 0.000000000000000, -1.00000000000000, 0.000000000000000 ) );
#441 = DIRECTION( '', ( 0.000000000000000, -0.500000000000000, -0.866025403784439 ) );
#442 = DIRECTION( '', ( 0.000000000000000, 0.500000000000000, -0.866025403784439 ) );
#443 = DIRECTION( '', ( 0.000000000000000, 1.00000000000000, 0.000000000000000 ) );
#444 = DIRECTION( '', ( 0.000000000000000, 0.500000000000000, 0.866025403784439 ) );
#445 = DIRECTION( '', ( 0.000000000000000, -0.500000000000000, 0.866025403784439 ) );
#446 = CARTESIAN_POINT( '', ( 39.2000000000000, 0.000000000000000, 0.000000000000000 ) );
#447 = DIRECTION( '', ( 1.00000000000000, 0.000000000000000, -0.000000000000000 ) );
#448 = DIRECTION( '', ( -0.000000000000000, 0.000000000000000, -1.00000000000000 ) );
#449 = CARTESIAN_POINT( '', ( 37.6000000000000, 0.000000000000000, 0.000000000000000 ) );
#450 = DIRECTION( '', ( 1.00000000000000, 0.000000000000000, -0.000000000000000 ) );
#451 = DIRECTION( '', ( -0.000000000000000, 0.000000000000000, -1.00000000000000 ) );
#452 = CARTESIAN_POINT( '', ( 40.2000000000000, 0.000000000000000, 0.000000000000000 ) );
#453 = DIRECTION( '', ( 1.00000000000000, 0.000000000000000, -0.000000000000000 ) );
#454 = DIRECTION( '', ( -0.000000000000000, 0.000000000000000, -1.00000000000000 ) );
#455 = DIRECTION( '', ( -1.00000000000000, -0.000000000000000, -0.000000000000000 ) );
#456 = DIRECTION( '', ( 0.000000000000000, 1.00000000000000, 0.000000000000000 ) );
#457 = DIRECTION( '', ( -1.00000000000000, -0.000000000000000, -0.000000000000000 ) );
#458 = DIRECTION( '', ( -1.00000000000000, -0.000000000000000, -0.000000000000000 ) );
#459 = DIRECTION( '', ( 0.000000000000000, -1.00000000000000, 0.000000000000000 ) );
#460 = DIRECTION( '', ( -1.00000000000000, -0.000000000000000, -0.000000000000000 ) );
#461 = DIRECTION( '', ( 0.000000000000000, -0.500000000000000, -0.866025403784439 ) );
#462 = DIRECTION( '', ( -1.00000000000000, -0.000000000000000, -0.000000000000000 ) );
#463 = CARTESIAN_POINT( '', ( 0.766999999999997, 0.000000000000000, 0.000000000000000 ) );
#464 = DIRECTION( '', ( 1.00000000000000, 0.000000000000000, -0.000000000000000 ) );
#465 = DIRECTION( '', ( -0.000000000000000, 0.000000000000000, -1.00000000000000 ) );
#466 = DIRECTION( '', ( 0.000000000000000, -0.500000000000000, 0.866025403784439 ) );
#467 = DIRECTION( '', ( 0.000000000000000, 0.500000000000000, 0.866025403784439 ) );
#468 = DIRECTION( '', ( 0.000000000000000, 0.500000000000000, -0.866025403784439 ) );
#469 = DIRECTION( '', ( -1.00000000000000, -0.000000000000000, -0.000000000000000 ) );
ENDSEC;
END-ISO-10303-21;
