ISO-10303-21;
HEADER;
FILE_DESCRIPTION( ( 'STEP AP214' ), '1' );
FILE_NAME( '//goodhand-server/Shared Folders/GoodHand Data/Kipp CAD/K0676/K0676.2508X030.stp', '2020-12-09T11:09:52', ( '' ), ( '' ), ' ', 'PARTsolutions', ' ' );
FILE_SCHEMA( ( 'AUTOMOTIVE_DESIGN { 1 0 10303 214 1 1 1 1 }' ) );
ENDSEC;
DATA;
#1 = MECHANICAL_DESIGN_GEOMETRIC_PRESENTATION_REPRESENTATION( ' ', ( #10, #11, #12, #13, #14, #15, #16, #17, #18, #19, #20 ), #6 );
#2 = PRODUCT_DEFINITION_CONTEXT( '', #21, 'design' );
#3 = APPLICATION_PROTOCOL_DEFINITION( 'international standard', 'automotive_design', 2001, #21 );
#4 = PRODUCT_CATEGORY_RELATIONSHIP( 'NONE', 'NONE', #22, #23 );
#5 = SHAPE_DEFINITION_REPRESENTATION( #24, #25 );
#6 =  ( GEOMETRIC_REPRESENTATION_CONTEXT( 3 )GLOBAL_UNCERTAINTY_ASSIGNED_CONTEXT( ( #28 ) )GLOBAL_UNIT_ASSIGNED_CONTEXT( ( #30, #31, #32 ) )REPRESENTATION_CONTEXT( 'NONE', 'WORKSPACE' ) );
#10 = STYLED_ITEM( '', ( #34 ), #35 );
#11 = STYLED_ITEM( '', ( #36 ), #37 );
#12 = STYLED_ITEM( '', ( #38 ), #39 );
#13 = STYLED_ITEM( '', ( #40 ), #41 );
#14 = STYLED_ITEM( '', ( #42 ), #43 );
#15 = STYLED_ITEM( '', ( #44 ), #45 );
#16 = STYLED_ITEM( '', ( #46 ), #47 );
#17 = STYLED_ITEM( '', ( #48 ), #49 );
#18 = STYLED_ITEM( '', ( #50 ), #51 );
#19 = STYLED_ITEM( '', ( #52 ), #53 );
#20 = STYLED_ITEM( '', ( #54 ), #55 );
#21 = APPLICATION_CONTEXT( 'core data for automotive mechanical design processes' );
#22 = PRODUCT_CATEGORY( 'part', 'NONE' );
#23 = PRODUCT_RELATED_PRODUCT_CATEGORY( 'detail', ' ', ( #56 ) );
#24 = PRODUCT_DEFINITION_SHAPE( 'NONE', 'NONE', #57 );
#25 = ADVANCED_BREP_SHAPE_REPRESENTATION( '_K0676.2508X030', ( #58, #59 ), #6 );
#28 = UNCERTAINTY_MEASURE_WITH_UNIT( LENGTH_MEASURE( 0.00100000000000000 ), #30, '', '' );
#30 =  ( CONVERSION_BASED_UNIT( 'MILLIMETRE', #62 )LENGTH_UNIT(  )NAMED_UNIT( #65 ) );
#31 =  ( NAMED_UNIT( #67 )PLANE_ANGLE_UNIT(  )SI_UNIT( $, .RADIAN. ) );
#32 =  ( NAMED_UNIT( #67 )SI_UNIT( $, .STERADIAN. )SOLID_ANGLE_UNIT(  ) );
#34 = PRESENTATION_STYLE_ASSIGNMENT( ( #73 ) );
#35 = ADVANCED_FACE( '', ( #74 ), #75, .F. );
#36 = PRESENTATION_STYLE_ASSIGNMENT( ( #76 ) );
#37 = ADVANCED_FACE( '', ( #77 ), #78, .T. );
#38 = PRESENTATION_STYLE_ASSIGNMENT( ( #79 ) );
#39 = ADVANCED_FACE( '', ( #80 ), #81, .T. );
#40 = PRESENTATION_STYLE_ASSIGNMENT( ( #82 ) );
#41 = ADVANCED_FACE( '', ( #83 ), #84, .F. );
#42 = PRESENTATION_STYLE_ASSIGNMENT( ( #85 ) );
#43 = ADVANCED_FACE( '', ( #86 ), #87, .T. );
#44 = PRESENTATION_STYLE_ASSIGNMENT( ( #88 ) );
#45 = ADVANCED_FACE( '', ( #89, #90 ), #91, .T. );
#46 = PRESENTATION_STYLE_ASSIGNMENT( ( #92 ) );
#47 = ADVANCED_FACE( '', ( #93 ), #94, .T. );
#48 = PRESENTATION_STYLE_ASSIGNMENT( ( #95 ) );
#49 = ADVANCED_FACE( '', ( #96 ), #97, .T. );
#50 = PRESENTATION_STYLE_ASSIGNMENT( ( #98 ) );
#51 = ADVANCED_FACE( '', ( #99, #100 ), #101, .T. );
#52 = PRESENTATION_STYLE_ASSIGNMENT( ( #102 ) );
#53 = ADVANCED_FACE( '', ( #103, #104 ), #105, .T. );
#54 = PRESENTATION_STYLE_ASSIGNMENT( ( #106 ) );
#55 = ADVANCED_FACE( '', ( #107 ), #108, .T. );
#56 = PRODUCT( '_K0676.2508X030', '_K0676.2508X030', 'PART-_K0676.2508X030-DESC', ( #109 ) );
#57 = PRODUCT_DEFINITION( 'NONE', 'NONE', #110, #2 );
#58 = MANIFOLD_SOLID_BREP( '_K0676.2508X030', #111 );
#59 = AXIS2_PLACEMENT_3D( '', #112, #113, #114 );
#62 = LENGTH_MEASURE_WITH_UNIT( LENGTH_MEASURE( 1.00000000000000 ), #115 );
#65 = DIMENSIONAL_EXPONENTS( 1.00000000000000, 0.000000000000000, 0.000000000000000, 0.000000000000000, 0.000000000000000, 0.000000000000000, 0.000000000000000 );
#67 = DIMENSIONAL_EXPONENTS( 0.000000000000000, 0.000000000000000, 0.000000000000000, 0.000000000000000, 0.000000000000000, 0.000000000000000, 0.000000000000000 );
#73 = SURFACE_STYLE_USAGE( .BOTH., #116 );
#74 = FACE_OUTER_BOUND( '', #117, .T. );
#75 = PLANE( '', #118 );
#76 = SURFACE_STYLE_USAGE( .BOTH., #119 );
#77 = FACE_OUTER_BOUND( '', #120, .T. );
#78 = PLANE( '', #121 );
#79 = SURFACE_STYLE_USAGE( .BOTH., #122 );
#80 = FACE_OUTER_BOUND( '', #123, .T. );
#81 = PLANE( '', #124 );
#82 = SURFACE_STYLE_USAGE( .BOTH., #125 );
#83 = FACE_OUTER_BOUND( '', #126, .T. );
#84 = PLANE( '', #127 );
#85 = SURFACE_STYLE_USAGE( .BOTH., #128 );
#86 = FACE_OUTER_BOUND( '', #129, .T. );
#87 = PLANE( '', #130 );
#88 = SURFACE_STYLE_USAGE( .BOTH., #131 );
#89 = FACE_BOUND( '', #132, .T. );
#90 = FACE_OUTER_BOUND( '', #133, .T. );
#91 = PLANE( '', #134 );
#92 = SURFACE_STYLE_USAGE( .BOTH., #135 );
#93 = FACE_OUTER_BOUND( '', #136, .T. );
#94 = PLANE( '', #137 );
#95 = SURFACE_STYLE_USAGE( .BOTH., #138 );
#96 = FACE_OUTER_BOUND( '', #139, .T. );
#97 = PLANE( '', #140 );
#98 = SURFACE_STYLE_USAGE( .BOTH., #141 );
#99 = FACE_OUTER_BOUND( '', #142, .T. );
#100 = FACE_BOUND( '', #143, .T. );
#101 = CONICAL_SURFACE( '', #144, 3.23300000000000, 0.785398163400000 );
#102 = SURFACE_STYLE_USAGE( .BOTH., #145 );
#103 = FACE_OUTER_BOUND( '', #146, .T. );
#104 = FACE_OUTER_BOUND( '', #147, .T. );
#105 = CYLINDRICAL_SURFACE( '', #148, 4.00000000000000 );
#106 = SURFACE_STYLE_USAGE( .BOTH., #149 );
#107 = FACE_OUTER_BOUND( '', #150, .T. );
#108 = PLANE( '', #151 );
#109 = PRODUCT_CONTEXT( '', #21, 'mechanical' );
#110 = PRODUCT_DEFINITION_FORMATION_WITH_SPECIFIED_SOURCE( ' ', 'NONE', #56, .NOT_KNOWN. );
#111 = CLOSED_SHELL( '', ( #43, #35, #39, #55, #49, #37, #47, #45, #41, #51, #53 ) );
#112 = CARTESIAN_POINT( '', ( 0.000000000000000, 0.000000000000000, 0.000000000000000 ) );
#113 = DIRECTION( '', ( 0.000000000000000, 0.000000000000000, 1.00000000000000 ) );
#114 = DIRECTION( '', ( 1.00000000000000, 0.000000000000000, 0.000000000000000 ) );
#115 =  ( LENGTH_UNIT(  )NAMED_UNIT( #65 )SI_UNIT( .MILLI., .METRE. ) );
#116 = SURFACE_SIDE_STYLE( '', ( #153 ) );
#117 = EDGE_LOOP( '', ( #154, #155, #156, #157, #158, #159 ) );
#118 = AXIS2_PLACEMENT_3D( '', #160, #161, #162 );
#119 = SURFACE_SIDE_STYLE( '', ( #163 ) );
#120 = EDGE_LOOP( '', ( #164, #165, #166, #167 ) );
#121 = AXIS2_PLACEMENT_3D( '', #168, #169, #170 );
#122 = SURFACE_SIDE_STYLE( '', ( #171 ) );
#123 = EDGE_LOOP( '', ( #172, #173, #174, #175 ) );
#124 = AXIS2_PLACEMENT_3D( '', #176, #177, #178 );
#125 = SURFACE_SIDE_STYLE( '', ( #179 ) );
#126 = EDGE_LOOP( '', ( #180 ) );
#127 = AXIS2_PLACEMENT_3D( '', #181, #182, #183 );
#128 = SURFACE_SIDE_STYLE( '', ( #184 ) );
#129 = EDGE_LOOP( '', ( #185, #186, #187, #188 ) );
#130 = AXIS2_PLACEMENT_3D( '', #189, #190, #191 );
#131 = SURFACE_SIDE_STYLE( '', ( #192 ) );
#132 = EDGE_LOOP( '', ( #193 ) );
#133 = EDGE_LOOP( '', ( #194, #195, #196, #197, #198, #199 ) );
#134 = AXIS2_PLACEMENT_3D( '', #200, #201, #202 );
#135 = SURFACE_SIDE_STYLE( '', ( #203 ) );
#136 = EDGE_LOOP( '', ( #204, #205, #206, #207 ) );
#137 = AXIS2_PLACEMENT_3D( '', #208, #209, #210 );
#138 = SURFACE_SIDE_STYLE( '', ( #211 ) );
#139 = EDGE_LOOP( '', ( #212, #213, #214, #215 ) );
#140 = AXIS2_PLACEMENT_3D( '', #216, #217, #218 );
#141 = SURFACE_SIDE_STYLE( '', ( #219 ) );
#142 = EDGE_LOOP( '', ( #220 ) );
#143 = EDGE_LOOP( '', ( #221 ) );
#144 = AXIS2_PLACEMENT_3D( '', #222, #223, #224 );
#145 = SURFACE_SIDE_STYLE( '', ( #225 ) );
#146 = EDGE_LOOP( '', ( #226 ) );
#147 = EDGE_LOOP( '', ( #227 ) );
#148 = AXIS2_PLACEMENT_3D( '', #228, #229, #230 );
#149 = SURFACE_SIDE_STYLE( '', ( #231 ) );
#150 = EDGE_LOOP( '', ( #232, #233, #234, #235 ) );
#151 = AXIS2_PLACEMENT_3D( '', #236, #237, #238 );
#153 = SURFACE_STYLE_FILL_AREA( #239 );
#154 = ORIENTED_EDGE( '', *, *, #240, .F. );
#155 = ORIENTED_EDGE( '', *, *, #241, .F. );
#156 = ORIENTED_EDGE( '', *, *, #242, .F. );
#157 = ORIENTED_EDGE( '', *, *, #243, .F. );
#158 = ORIENTED_EDGE( '', *, *, #244, .F. );
#159 = ORIENTED_EDGE( '', *, *, #245, .F. );
#160 = CARTESIAN_POINT( '', ( 0.000000000000000, 0.000000000000000, 0.000000000000000 ) );
#161 = DIRECTION( '', ( 0.000000000000000, 1.00000000000000, 0.000000000000000 ) );
#162 = DIRECTION( '', ( 0.000000000000000, -0.000000000000000, 1.00000000000000 ) );
#163 = SURFACE_STYLE_FILL_AREA( #246 );
#164 = ORIENTED_EDGE( '', *, *, #247, .F. );
#165 = ORIENTED_EDGE( '', *, *, #248, .F. );
#166 = ORIENTED_EDGE( '', *, *, #244, .T. );
#167 = ORIENTED_EDGE( '', *, *, #249, .T. );
#168 = CARTESIAN_POINT( '', ( 0.000000000000000, 7.50000000000000, 14.4337567297406 ) );
#169 = DIRECTION( '', ( 0.499524110790929, -0.0436193873653360, 0.865201139495554 ) );
#170 = DIRECTION( '', ( 0.866025403784439, -2.42136240865198E-18, -0.500000000000000 ) );
#171 = SURFACE_STYLE_FILL_AREA( #250 );
#172 = ORIENTED_EDGE( '', *, *, #251, .F. );
#173 = ORIENTED_EDGE( '', *, *, #252, .F. );
#174 = ORIENTED_EDGE( '', *, *, #242, .T. );
#175 = ORIENTED_EDGE( '', *, *, #253, .T. );
#176 = CARTESIAN_POINT( '', ( 12.5000000000000, 7.50000000000000, -7.21687836487032 ) );
#177 = DIRECTION( '', ( 0.499524110790929, -0.0436193873653360, -0.865201139495554 ) );
#178 = DIRECTION( '', ( -0.866025403784439, 2.42136240865198E-18, -0.500000000000000 ) );
#179 = SURFACE_STYLE_FILL_AREA( #254 );
#180 = ORIENTED_EDGE( '', *, *, #255, .F. );
#181 = CARTESIAN_POINT( '', ( 0.000000000000000, 37.5000000000000, 0.000000000000000 ) );
#182 = DIRECTION( '', ( 0.000000000000000, -1.00000000000000, -0.000000000000000 ) );
#183 = DIRECTION( '', ( 0.000000000000000, 0.000000000000000, -1.00000000000000 ) );
#184 = SURFACE_STYLE_FILL_AREA( #256 );
#185 = ORIENTED_EDGE( '', *, *, #257, .F. );
#186 = ORIENTED_EDGE( '', *, *, #253, .F. );
#187 = ORIENTED_EDGE( '', *, *, #241, .T. );
#188 = ORIENTED_EDGE( '', *, *, #258, .T. );
#189 = CARTESIAN_POINT( '', ( 0.000000000000000, 7.50000000000000, -14.4337567297406 ) );
#190 = DIRECTION( '', ( -0.499524110790929, -0.0436193873653360, -0.865201139495554 ) );
#191 = DIRECTION( '', ( -0.866025403784439, -2.42136240865198E-18, 0.500000000000000 ) );
#192 = SURFACE_STYLE_FILL_AREA( #259 );
#193 = ORIENTED_EDGE( '', *, *, #260, .T. );
#194 = ORIENTED_EDGE( '', *, *, #261, .T. );
#195 = ORIENTED_EDGE( '', *, *, #262, .T. );
#196 = ORIENTED_EDGE( '', *, *, #247, .T. );
#197 = ORIENTED_EDGE( '', *, *, #263, .T. );
#198 = ORIENTED_EDGE( '', *, *, #251, .T. );
#199 = ORIENTED_EDGE( '', *, *, #257, .T. );
#200 = CARTESIAN_POINT( '', ( 0.000000000000000, 7.50000000000000, 0.000000000000000 ) );
#201 = DIRECTION( '', ( 0.000000000000000, 1.00000000000000, 0.000000000000000 ) );
#202 = DIRECTION( '', ( 0.000000000000000, -0.000000000000000, 1.00000000000000 ) );
#203 = SURFACE_STYLE_FILL_AREA( #264 );
#204 = ORIENTED_EDGE( '', *, *, #263, .F. );
#205 = ORIENTED_EDGE( '', *, *, #249, .F. );
#206 = ORIENTED_EDGE( '', *, *, #243, .T. );
#207 = ORIENTED_EDGE( '', *, *, #252, .T. );
#208 = CARTESIAN_POINT( '', ( 12.5000000000000, 7.50000000000000, 7.21687836487032 ) );
#209 = DIRECTION( '', ( 0.999048221581858, -0.0436193873653360, 0.000000000000000 ) );
#210 = DIRECTION( '', ( 0.0436193873653360, 0.999048221581858, 0.000000000000000 ) );
#211 = SURFACE_STYLE_FILL_AREA( #265 );
#212 = ORIENTED_EDGE( '', *, *, #262, .F. );
#213 = ORIENTED_EDGE( '', *, *, #266, .F. );
#214 = ORIENTED_EDGE( '', *, *, #245, .T. );
#215 = ORIENTED_EDGE( '', *, *, #248, .T. );
#216 = CARTESIAN_POINT( '', ( -12.5000000000000, 7.50000000000000, 7.21687836487032 ) );
#217 = DIRECTION( '', ( -0.499524110790929, -0.0436193873653360, 0.865201139495554 ) );
#218 = DIRECTION( '', ( 0.866025403784439, 2.42136240865198E-18, 0.500000000000000 ) );
#219 = SURFACE_STYLE_FILL_AREA( #267 );
#220 = ORIENTED_EDGE( '', *, *, #268, .F. );
#221 = ORIENTED_EDGE( '', *, *, #255, .T. );
#222 = CARTESIAN_POINT( '', ( 0.000000000000000, 37.5000000000000, 0.000000000000000 ) );
#223 = DIRECTION( '', ( -0.000000000000000, -1.00000000000000, -0.000000000000000 ) );
#224 = DIRECTION( '', ( 0.000000000000000, 0.000000000000000, -1.00000000000000 ) );
#225 = SURFACE_STYLE_FILL_AREA( #269 );
#226 = ORIENTED_EDGE( '', *, *, #260, .F. );
#227 = ORIENTED_EDGE( '', *, *, #268, .T. );
#228 = CARTESIAN_POINT( '', ( 0.000000000000000, 7.50000000000000, 0.000000000000000 ) );
#229 = DIRECTION( '', ( -0.000000000000000, 1.00000000000000, 0.000000000000000 ) );
#230 = DIRECTION( '', ( 0.000000000000000, 0.000000000000000, -1.00000000000000 ) );
#231 = SURFACE_STYLE_FILL_AREA( #270 );
#232 = ORIENTED_EDGE( '', *, *, #261, .F. );
#233 = ORIENTED_EDGE( '', *, *, #258, .F. );
#234 = ORIENTED_EDGE( '', *, *, #240, .T. );
#235 = ORIENTED_EDGE( '', *, *, #266, .T. );
#236 = CARTESIAN_POINT( '', ( -12.5000000000000, 7.50000000000000, -7.21687836487032 ) );
#237 = DIRECTION( '', ( -0.999048221581858, -0.0436193873653360, 0.000000000000000 ) );
#238 = DIRECTION( '', ( 0.0436193873653360, -0.999048221581858, 0.000000000000000 ) );
#239 = FILL_AREA_STYLE( '', ( #271 ) );
#240 = EDGE_CURVE( '', #272, #273, #274, .T. );
#241 = EDGE_CURVE( '', #275, #272, #276, .T. );
#242 = EDGE_CURVE( '', #277, #275, #278, .T. );
#243 = EDGE_CURVE( '', #279, #277, #280, .T. );
#244 = EDGE_CURVE( '', #281, #279, #282, .T. );
#245 = EDGE_CURVE( '', #273, #281, #283, .T. );
#246 = FILL_AREA_STYLE( '', ( #284 ) );
#247 = EDGE_CURVE( '', #285, #286, #287, .T. );
#248 = EDGE_CURVE( '', #281, #285, #288, .T. );
#249 = EDGE_CURVE( '', #279, #286, #289, .T. );
#250 = FILL_AREA_STYLE( '', ( #290 ) );
#251 = EDGE_CURVE( '', #291, #292, #293, .T. );
#252 = EDGE_CURVE( '', #277, #291, #294, .T. );
#253 = EDGE_CURVE( '', #275, #292, #295, .T. );
#254 = FILL_AREA_STYLE( '', ( #296 ) );
#255 = EDGE_CURVE( '', #297, #297, #298, .T. );
#256 = FILL_AREA_STYLE( '', ( #299 ) );
#257 = EDGE_CURVE( '', #292, #300, #301, .T. );
#258 = EDGE_CURVE( '', #272, #300, #302, .T. );
#259 = FILL_AREA_STYLE( '', ( #303 ) );
#260 = EDGE_CURVE( '', #304, #304, #305, .T. );
#261 = EDGE_CURVE( '', #300, #306, #307, .T. );
#262 = EDGE_CURVE( '', #306, #285, #308, .T. );
#263 = EDGE_CURVE( '', #286, #291, #309, .T. );
#264 = FILL_AREA_STYLE( '', ( #310 ) );
#265 = FILL_AREA_STYLE( '', ( #311 ) );
#266 = EDGE_CURVE( '', #273, #306, #312, .T. );
#267 = FILL_AREA_STYLE( '', ( #313 ) );
#268 = EDGE_CURVE( '', #314, #314, #315, .T. );
#269 = FILL_AREA_STYLE( '', ( #316 ) );
#270 = FILL_AREA_STYLE( '', ( #317 ) );
#271 = FILL_AREA_STYLE_COLOUR( '', #318 );
#272 = VERTEX_POINT( '', #319 );
#273 = VERTEX_POINT( '', #320 );
#274 = LINE( '', #321, #322 );
#275 = VERTEX_POINT( '', #323 );
#276 = LINE( '', #324, #325 );
#277 = VERTEX_POINT( '', #326 );
#278 = LINE( '', #327, #328 );
#279 = VERTEX_POINT( '', #329 );
#280 = LINE( '', #330, #331 );
#281 = VERTEX_POINT( '', #332 );
#282 = LINE( '', #333, #334 );
#283 = LINE( '', #335, #336 );
#284 = FILL_AREA_STYLE_COLOUR( '', #337 );
#285 = VERTEX_POINT( '', #338 );
#286 = VERTEX_POINT( '', #339 );
#287 = LINE( '', #340, #341 );
#288 = LINE( '', #342, #343 );
#289 = LINE( '', #344, #345 );
#290 = FILL_AREA_STYLE_COLOUR( '', #346 );
#291 = VERTEX_POINT( '', #347 );
#292 = VERTEX_POINT( '', #348 );
#293 = LINE( '', #349, #350 );
#294 = LINE( '', #351, #352 );
#295 = LINE( '', #353, #354 );
#296 = FILL_AREA_STYLE_COLOUR( '', #355 );
#297 = VERTEX_POINT( '', #356 );
#298 = CIRCLE( '', #357, 3.23300000000000 );
#299 = FILL_AREA_STYLE_COLOUR( '', #358 );
#300 = VERTEX_POINT( '', #359 );
#301 = LINE( '', #360, #361 );
#302 = LINE( '', #362, #363 );
#303 = FILL_AREA_STYLE_COLOUR( '', #364 );
#304 = VERTEX_POINT( '', #365 );
#305 = CIRCLE( '', #366, 4.00000000000000 );
#306 = VERTEX_POINT( '', #367 );
#307 = LINE( '', #368, #369 );
#308 = LINE( '', #370, #371 );
#309 = LINE( '', #372, #373 );
#310 = FILL_AREA_STYLE_COLOUR( '', #374 );
#311 = FILL_AREA_STYLE_COLOUR( '', #375 );
#312 = LINE( '', #376, #377 );
#313 = FILL_AREA_STYLE_COLOUR( '', #378 );
#314 = VERTEX_POINT( '', #379 );
#315 = CIRCLE( '', #380, 4.00000000000000 );
#316 = FILL_AREA_STYLE_COLOUR( '', #381 );
#317 = FILL_AREA_STYLE_COLOUR( '', #382 );
#318 = COLOUR_RGB( '', 0.689999997600000, 0.689999997600000, 0.689999997600000 );
#319 = CARTESIAN_POINT( '', ( -12.1725429281862, 0.000000000000000, -7.02782093631055 ) );
#320 = CARTESIAN_POINT( '', ( -12.1725429281862, 0.000000000000000, 7.02782093631055 ) );
#321 = CARTESIAN_POINT( '', ( -12.1725429281862, 0.000000000000000, 0.000000000000000 ) );
#322 = VECTOR( '', #383, 1000.00000000000 );
#323 = CARTESIAN_POINT( '', ( -4.39010374806836E-16, 0.000000000000000, -14.0556418726211 ) );
#324 = CARTESIAN_POINT( '', ( -6.08627146409308, 0.000000000000000, -10.5417314044658 ) );
#325 = VECTOR( '', #384, 1000.00000000000 );
#326 = CARTESIAN_POINT( '', ( 12.1725429281862, 0.000000000000000, -7.02782093631055 ) );
#327 = CARTESIAN_POINT( '', ( 6.08627146409308, 0.000000000000000, -10.5417314044658 ) );
#328 = VECTOR( '', #385, 1000.00000000000 );
#329 = CARTESIAN_POINT( '', ( 12.1725429281862, 0.000000000000000, 7.02782093631055 ) );
#330 = CARTESIAN_POINT( '', ( 12.1725429281862, 0.000000000000000, 0.000000000000000 ) );
#331 = VECTOR( '', #386, 1000.00000000000 );
#332 = CARTESIAN_POINT( '', ( 4.39010374806836E-16, 0.000000000000000, 14.0556418726211 ) );
#333 = CARTESIAN_POINT( '', ( 6.08627146409308, 0.000000000000000, 10.5417314044658 ) );
#334 = VECTOR( '', #387, 1000.00000000000 );
#335 = CARTESIAN_POINT( '', ( -6.08627146409308, 0.000000000000000, 10.5417314044658 ) );
#336 = VECTOR( '', #388, 1000.00000000000 );
#337 = COLOUR_RGB( '', 0.689999997600000, 0.689999997600000, 0.689999997600000 );
#338 = CARTESIAN_POINT( '', ( 0.000000000000000, 7.50000000000000, 14.4337567297406 ) );
#339 = CARTESIAN_POINT( '', ( 12.5000000000000, 7.50000000000000, 7.21687836487032 ) );
#340 = CARTESIAN_POINT( '', ( 0.000000000000000, 7.50000000000000, 14.4337567297406 ) );
#341 = VECTOR( '', #389, 1000.00000000000 );
#342 = CARTESIAN_POINT( '', ( 0.000000000000000, 7.13708124112571, 14.4154600664529 ) );
#343 = VECTOR( '', #390, 1000.00000000000 );
#344 = CARTESIAN_POINT( '', ( 12.4841546247884, 7.13708124112571, 7.20773003322647 ) );
#345 = VECTOR( '', #391, 1000.00000000000 );
#346 = COLOUR_RGB( '', 0.689999997600000, 0.689999997600000, 0.689999997600000 );
#347 = CARTESIAN_POINT( '', ( 12.5000000000000, 7.50000000000000, -7.21687836487032 ) );
#348 = CARTESIAN_POINT( '', ( 0.000000000000000, 7.50000000000000, -14.4337567297406 ) );
#349 = CARTESIAN_POINT( '', ( 12.5000000000000, 7.50000000000000, -7.21687836487032 ) );
#350 = VECTOR( '', #392, 1000.00000000000 );
#351 = CARTESIAN_POINT( '', ( 12.4841546247884, 7.13708124112570, -7.20773003322647 ) );
#352 = VECTOR( '', #393, 1000.00000000000 );
#353 = CARTESIAN_POINT( '', ( 0.000000000000000, 7.13708124112571, -14.4154600664529 ) );
#354 = VECTOR( '', #394, 1000.00000000000 );
#355 = COLOUR_RGB( '', 0.689999997600000, 0.689999997600000, 0.689999997600000 );
#356 = CARTESIAN_POINT( '', ( 0.000000000000000, 37.5000000000000, -3.23300000000000 ) );
#357 = AXIS2_PLACEMENT_3D( '', #395, #396, #397 );
#358 = COLOUR_RGB( '', 0.689999997600000, 0.689999997600000, 0.689999997600000 );
#359 = CARTESIAN_POINT( '', ( -12.5000000000000, 7.50000000000000, -7.21687836487032 ) );
#360 = CARTESIAN_POINT( '', ( 0.000000000000000, 7.50000000000000, -14.4337567297406 ) );
#361 = VECTOR( '', #398, 1000.00000000000 );
#362 = CARTESIAN_POINT( '', ( -12.4841546247884, 7.13708124112571, -7.20773003322647 ) );
#363 = VECTOR( '', #399, 1000.00000000000 );
#364 = COLOUR_RGB( '', 0.689999997600000, 0.689999997600000, 0.689999997600000 );
#365 = CARTESIAN_POINT( '', ( 0.000000000000000, 7.50000000000000, -4.00000000000000 ) );
#366 = AXIS2_PLACEMENT_3D( '', #400, #401, #402 );
#367 = CARTESIAN_POINT( '', ( -12.5000000000000, 7.50000000000000, 7.21687836487032 ) );
#368 = CARTESIAN_POINT( '', ( -12.5000000000000, 7.50000000000000, -7.21687836487032 ) );
#369 = VECTOR( '', #403, 1000.00000000000 );
#370 = CARTESIAN_POINT( '', ( -12.5000000000000, 7.50000000000000, 7.21687836487032 ) );
#371 = VECTOR( '', #404, 1000.00000000000 );
#372 = CARTESIAN_POINT( '', ( 12.5000000000000, 7.50000000000000, 7.21687836487032 ) );
#373 = VECTOR( '', #405, 1000.00000000000 );
#374 = COLOUR_RGB( '', 0.689999997600000, 0.689999997600000, 0.689999997600000 );
#375 = COLOUR_RGB( '', 0.689999997600000, 0.689999997600000, 0.689999997600000 );
#376 = CARTESIAN_POINT( '', ( -12.4841546247884, 7.13708124112570, 7.20773003322647 ) );
#377 = VECTOR( '', #406, 1000.00000000000 );
#378 = COLOUR_RGB( '', 0.689999997600000, 0.689999997600000, 0.689999997600000 );
#379 = CARTESIAN_POINT( '', ( 0.000000000000000, 36.7330000000000, -4.00000000000000 ) );
#380 = AXIS2_PLACEMENT_3D( '', #407, #408, #409 );
#381 = COLOUR_RGB( '', 0.689999997600000, 0.689999997600000, 0.689999997600000 );
#382 = COLOUR_RGB( '', 0.689999997600000, 0.689999997600000, 0.689999997600000 );
#383 = DIRECTION( '', ( 0.000000000000000, 0.000000000000000, 1.00000000000000 ) );
#384 = DIRECTION( '', ( -0.866025403784439, 0.000000000000000, 0.500000000000000 ) );
#385 = DIRECTION( '', ( -0.866025403784439, 0.000000000000000, -0.500000000000000 ) );
#386 = DIRECTION( '', ( 0.000000000000000, 0.000000000000000, -1.00000000000000 ) );
#387 = DIRECTION( '', ( 0.866025403784439, 0.000000000000000, -0.500000000000000 ) );
#388 = DIRECTION( '', ( 0.866025403784439, 0.000000000000000, 0.500000000000000 ) );
#389 = DIRECTION( '', ( 0.866025403784439, 0.000000000000000, -0.500000000000000 ) );
#390 = DIRECTION( '', ( 0.000000000000000, 0.998731565520054, 0.0503513657596513 ) );
#391 = DIRECTION( '', ( 0.0436055618630999, 0.998731565520054, 0.0251756828798256 ) );
#392 = DIRECTION( '', ( -0.866025403784439, 0.000000000000000, -0.500000000000000 ) );
#393 = DIRECTION( '', ( 0.0436055618630999, 0.998731565520054, -0.0251756828798256 ) );
#394 = DIRECTION( '', ( 0.000000000000000, 0.998731565520054, -0.0503513657596513 ) );
#395 = CARTESIAN_POINT( '', ( 0.000000000000000, 37.5000000000000, 0.000000000000000 ) );
#396 = DIRECTION( '', ( 0.000000000000000, -1.00000000000000, -0.000000000000000 ) );
#397 = DIRECTION( '', ( 0.000000000000000, 0.000000000000000, -1.00000000000000 ) );
#398 = DIRECTION( '', ( -0.866025403784439, 0.000000000000000, 0.500000000000000 ) );
#399 = DIRECTION( '', ( -0.0436055618630999, 0.998731565520054, -0.0251756828798256 ) );
#400 = CARTESIAN_POINT( '', ( 0.000000000000000, 7.50000000000000, 0.000000000000000 ) );
#401 = DIRECTION( '', ( 0.000000000000000, -1.00000000000000, -0.000000000000000 ) );
#402 = DIRECTION( '', ( 0.000000000000000, 0.000000000000000, -1.00000000000000 ) );
#403 = DIRECTION( '', ( 0.000000000000000, 0.000000000000000, 1.00000000000000 ) );
#404 = DIRECTION( '', ( 0.866025403784439, 0.000000000000000, 0.500000000000000 ) );
#405 = DIRECTION( '', ( 0.000000000000000, 0.000000000000000, -1.00000000000000 ) );
#406 = DIRECTION( '', ( -0.0436055618630999, 0.998731565520054, 0.0251756828798256 ) );
#407 = CARTESIAN_POINT( '', ( 0.000000000000000, 36.7330000000000, 0.000000000000000 ) );
#408 = DIRECTION( '', ( 0.000000000000000, -1.00000000000000, -0.000000000000000 ) );
#409 = DIRECTION( '', ( 0.000000000000000, 0.000000000000000, -1.00000000000000 ) );
ENDSEC;
END-ISO-10303-21;
