ISO-10303-21;
HEADER;
FILE_DESCRIPTION( ( 'STEP AP214' ), '1' );
FILE_NAME( '//goodhand-server/Shared Folders/GoodHand Data/Kipp CAD/K0712/K0712.0805.stp', '2020-12-09T12:34:30', ( '' ), ( '' ), ' ', 'PARTsolutions', ' ' );
FILE_SCHEMA( ( 'AUTOMOTIVE_DESIGN { 1 0 10303 214 1 1 1 1 }' ) );
ENDSEC;
DATA;
#1 = MECHANICAL_DESIGN_GEOMETRIC_PRESENTATION_REPRESENTATION( ' ', ( #10, #11, #12, #13, #14, #15, #16, #17, #18, #19, #20, #21, #22 ), #6 );
#2 = PRODUCT_DEFINITION_CONTEXT( '', #23, 'design' );
#3 = APPLICATION_PROTOCOL_DEFINITION( 'international standard', 'automotive_design', 2001, #23 );
#4 = PRODUCT_CATEGORY_RELATIONSHIP( 'NONE', 'NONE', #24, #25 );
#5 = SHAPE_DEFINITION_REPRESENTATION( #26, #27 );
#6 =  ( GEOMETRIC_REPRESENTATION_CONTEXT( 3 )GLOBAL_UNCERTAINTY_ASSIGNED_CONTEXT( ( #30 ) )GLOBAL_UNIT_ASSIGNED_CONTEXT( ( #32, #33, #34 ) )REPRESENTATION_CONTEXT( 'NONE', 'WORKSPACE' ) );
#10 = STYLED_ITEM( '', ( #36 ), #37 );
#11 = STYLED_ITEM( '', ( #38 ), #39 );
#12 = STYLED_ITEM( '', ( #40 ), #41 );
#13 = STYLED_ITEM( '', ( #42 ), #43 );
#14 = STYLED_ITEM( '', ( #44 ), #45 );
#15 = STYLED_ITEM( '', ( #46 ), #47 );
#16 = STYLED_ITEM( '', ( #48 ), #49 );
#17 = STYLED_ITEM( '', ( #50 ), #51 );
#18 = STYLED_ITEM( '', ( #52 ), #53 );
#19 = STYLED_ITEM( '', ( #54 ), #55 );
#20 = STYLED_ITEM( '', ( #56 ), #57 );
#21 = STYLED_ITEM( '', ( #58 ), #59 );
#22 = STYLED_ITEM( '', ( #60 ), #61 );
#23 = APPLICATION_CONTEXT( 'core data for automotive mechanical design processes' );
#24 = PRODUCT_CATEGORY( 'part', 'NONE' );
#25 = PRODUCT_RELATED_PRODUCT_CATEGORY( 'detail', ' ', ( #62 ) );
#26 = PRODUCT_DEFINITION_SHAPE( 'NONE', 'NONE', #63 );
#27 = ADVANCED_BREP_SHAPE_REPRESENTATION( '_K0712.0805', ( #64, #65 ), #6 );
#30 = UNCERTAINTY_MEASURE_WITH_UNIT( LENGTH_MEASURE( 0.00100000000000000 ), #32, '', '' );
#32 =  ( CONVERSION_BASED_UNIT( 'MILLIMETRE', #68 )LENGTH_UNIT(  )NAMED_UNIT( #71 ) );
#33 =  ( NAMED_UNIT( #73 )PLANE_ANGLE_UNIT(  )SI_UNIT( $, .RADIAN. ) );
#34 =  ( NAMED_UNIT( #73 )SI_UNIT( $, .STERADIAN. )SOLID_ANGLE_UNIT(  ) );
#36 = PRESENTATION_STYLE_ASSIGNMENT( ( #79 ) );
#37 = ADVANCED_FACE( '', ( #80, #81 ), #82, .F. );
#38 = PRESENTATION_STYLE_ASSIGNMENT( ( #83 ) );
#39 = ADVANCED_FACE( '', ( #84, #85 ), #86, .T. );
#40 = PRESENTATION_STYLE_ASSIGNMENT( ( #87 ) );
#41 = ADVANCED_FACE( '', ( #88, #89 ), #90, .F. );
#42 = PRESENTATION_STYLE_ASSIGNMENT( ( #91 ) );
#43 = ADVANCED_FACE( '', ( #92, #93 ), #94, .F. );
#44 = PRESENTATION_STYLE_ASSIGNMENT( ( #95 ) );
#45 = ADVANCED_FACE( '', ( #96, #97 ), #98, .F. );
#46 = PRESENTATION_STYLE_ASSIGNMENT( ( #99 ) );
#47 = ADVANCED_FACE( '', ( #100, #101 ), #102, .F. );
#48 = PRESENTATION_STYLE_ASSIGNMENT( ( #103 ) );
#49 = ADVANCED_FACE( '', ( #104, #105 ), #106, .F. );
#50 = PRESENTATION_STYLE_ASSIGNMENT( ( #107 ) );
#51 = ADVANCED_FACE( '', ( #108, #109, #110 ), #111, .F. );
#52 = PRESENTATION_STYLE_ASSIGNMENT( ( #112 ) );
#53 = ADVANCED_FACE( '', ( #113, #114 ), #115, .F. );
#54 = PRESENTATION_STYLE_ASSIGNMENT( ( #116 ) );
#55 = ADVANCED_FACE( '', ( #117, #118 ), #119, .T. );
#56 = PRESENTATION_STYLE_ASSIGNMENT( ( #120 ) );
#57 = ADVANCED_FACE( '', ( #121, #122 ), #123, .T. );
#58 = PRESENTATION_STYLE_ASSIGNMENT( ( #124 ) );
#59 = ADVANCED_FACE( '', ( #125, #126 ), #127, .F. );
#60 = PRESENTATION_STYLE_ASSIGNMENT( ( #128 ) );
#61 = ADVANCED_FACE( '', ( #129, #130 ), #131, .T. );
#62 = PRODUCT( '_K0712.0805', '_K0712.0805', 'PART-_K0712.0805-DESC', ( #132 ) );
#63 = PRODUCT_DEFINITION( 'NONE', 'NONE', #133, #2 );
#64 = MANIFOLD_SOLID_BREP( '_K0712.0805', #134 );
#65 = AXIS2_PLACEMENT_3D( '', #135, #136, #137 );
#68 = LENGTH_MEASURE_WITH_UNIT( LENGTH_MEASURE( 1.00000000000000 ), #138 );
#71 = DIMENSIONAL_EXPONENTS( 1.00000000000000, 0.000000000000000, 0.000000000000000, 0.000000000000000, 0.000000000000000, 0.000000000000000, 0.000000000000000 );
#73 = DIMENSIONAL_EXPONENTS( 0.000000000000000, 0.000000000000000, 0.000000000000000, 0.000000000000000, 0.000000000000000, 0.000000000000000, 0.000000000000000 );
#79 = SURFACE_STYLE_USAGE( .BOTH., #139 );
#80 = FACE_OUTER_BOUND( '', #140, .T. );
#81 = FACE_OUTER_BOUND( '', #141, .T. );
#82 = CYLINDRICAL_SURFACE( '', #142, 4.00000000000000 );
#83 = SURFACE_STYLE_USAGE( .BOTH., #143 );
#84 = FACE_OUTER_BOUND( '', #144, .T. );
#85 = FACE_OUTER_BOUND( '', #145, .T. );
#86 = TOROIDAL_SURFACE( '', #146, 3.60000000000000, 0.400000000000000 );
#87 = SURFACE_STYLE_USAGE( .BOTH., #147 );
#88 = FACE_BOUND( '', #148, .T. );
#89 = FACE_OUTER_BOUND( '', #149, .T. );
#90 = PLANE( '', #150 );
#91 = SURFACE_STYLE_USAGE( .BOTH., #151 );
#92 = FACE_OUTER_BOUND( '', #152, .T. );
#93 = FACE_OUTER_BOUND( '', #153, .T. );
#94 = CYLINDRICAL_SURFACE( '', #154, 2.06700000000000 );
#95 = SURFACE_STYLE_USAGE( .BOTH., #155 );
#96 = FACE_OUTER_BOUND( '', #156, .T. );
#97 = FACE_OUTER_BOUND( '', #157, .T. );
#98 = TOROIDAL_SURFACE( '', #158, 4.80000000000000, 0.800000000000000 );
#99 = SURFACE_STYLE_USAGE( .BOTH., #159 );
#100 = FACE_OUTER_BOUND( '', #160, .T. );
#101 = FACE_OUTER_BOUND( '', #161, .T. );
#102 = CYLINDRICAL_SURFACE( '', #162, 4.00000000000000 );
#103 = SURFACE_STYLE_USAGE( .BOTH., #163 );
#104 = FACE_OUTER_BOUND( '', #164, .T. );
#105 = FACE_BOUND( '', #165, .T. );
#106 = CONICAL_SURFACE( '', #166, 2.06700000000000, 0.785398163400000 );
#107 = SURFACE_STYLE_USAGE( .BOTH., #167 );
#108 = FACE_BOUND( '', #168, .T. );
#109 = FACE_OUTER_BOUND( '', #169, .T. );
#110 = FACE_OUTER_BOUND( '', #170, .T. );
#111 = TOROIDAL_SURFACE( '', #171, 4.00000000000000, 0.533333333300000 );
#112 = SURFACE_STYLE_USAGE( .BOTH., #172 );
#113 = FACE_BOUND( '', #173, .T. );
#114 = FACE_OUTER_BOUND( '', #174, .T. );
#115 = SPHERICAL_SURFACE( '', #175, 4.00000000000000 );
#116 = SURFACE_STYLE_USAGE( .BOTH., #176 );
#117 = FACE_BOUND( '', #177, .T. );
#118 = FACE_OUTER_BOUND( '', #178, .T. );
#119 = SPHERICAL_SURFACE( '', #179, 6.80000000000000 );
#120 = SURFACE_STYLE_USAGE( .BOTH., #180 );
#121 = FACE_BOUND( '', #181, .T. );
#122 = FACE_OUTER_BOUND( '', #182, .T. );
#123 = PLANE( '', #183 );
#124 = SURFACE_STYLE_USAGE( .BOTH., #184 );
#125 = FACE_OUTER_BOUND( '', #185, .T. );
#126 = FACE_BOUND( '', #186, .T. );
#127 = CONICAL_SURFACE( '', #187, 857.167300702100, 1.02974425870000 );
#128 = SURFACE_STYLE_USAGE( .BOTH., #188 );
#129 = FACE_OUTER_BOUND( '', #189, .T. );
#130 = FACE_OUTER_BOUND( '', #190, .T. );
#131 = CYLINDRICAL_SURFACE( '', #191, 4.00000000000000 );
#132 = PRODUCT_CONTEXT( '', #23, 'mechanical' );
#133 = PRODUCT_DEFINITION_FORMATION_WITH_SPECIFIED_SOURCE( ' ', 'NONE', #62, .NOT_KNOWN. );
#134 = CLOSED_SHELL( '', ( #59, #43, #37, #55, #45, #61, #57, #41, #39, #49, #51, #47, #53 ) );
#135 = CARTESIAN_POINT( '', ( 0.000000000000000, 0.000000000000000, 0.000000000000000 ) );
#136 = DIRECTION( '', ( 0.000000000000000, 0.000000000000000, 1.00000000000000 ) );
#137 = DIRECTION( '', ( 1.00000000000000, 0.000000000000000, 0.000000000000000 ) );
#138 =  ( LENGTH_UNIT(  )NAMED_UNIT( #71 )SI_UNIT( .MILLI., .METRE. ) );
#139 = SURFACE_SIDE_STYLE( '', ( #193 ) );
#140 = EDGE_LOOP( '', ( #194 ) );
#141 = EDGE_LOOP( '', ( #195 ) );
#142 = AXIS2_PLACEMENT_3D( '', #196, #197, #198 );
#143 = SURFACE_SIDE_STYLE( '', ( #199 ) );
#144 = EDGE_LOOP( '', ( #200 ) );
#145 = EDGE_LOOP( '', ( #201 ) );
#146 = AXIS2_PLACEMENT_3D( '', #202, #203, #204 );
#147 = SURFACE_SIDE_STYLE( '', ( #205 ) );
#148 = EDGE_LOOP( '', ( #206 ) );
#149 = EDGE_LOOP( '', ( #207 ) );
#150 = AXIS2_PLACEMENT_3D( '', #208, #209, #210 );
#151 = SURFACE_SIDE_STYLE( '', ( #211 ) );
#152 = EDGE_LOOP( '', ( #212 ) );
#153 = EDGE_LOOP( '', ( #213 ) );
#154 = AXIS2_PLACEMENT_3D( '', #214, #215, #216 );
#155 = SURFACE_SIDE_STYLE( '', ( #217 ) );
#156 = EDGE_LOOP( '', ( #218 ) );
#157 = EDGE_LOOP( '', ( #219, #220 ) );
#158 = AXIS2_PLACEMENT_3D( '', #221, #222, #223 );
#159 = SURFACE_SIDE_STYLE( '', ( #224 ) );
#160 = EDGE_LOOP( '', ( #225 ) );
#161 = EDGE_LOOP( '', ( #226 ) );
#162 = AXIS2_PLACEMENT_3D( '', #227, #228, #229 );
#163 = SURFACE_SIDE_STYLE( '', ( #230 ) );
#164 = EDGE_LOOP( '', ( #231 ) );
#165 = EDGE_LOOP( '', ( #232 ) );
#166 = AXIS2_PLACEMENT_3D( '', #233, #234, #235 );
#167 = SURFACE_SIDE_STYLE( '', ( #236 ) );
#168 = VERTEX_LOOP( '', #237 );
#169 = EDGE_LOOP( '', ( #238 ) );
#170 = EDGE_LOOP( '', ( #239 ) );
#171 = AXIS2_PLACEMENT_3D( '', #240, #241, #242 );
#172 = SURFACE_SIDE_STYLE( '', ( #243 ) );
#173 = VERTEX_LOOP( '', #244 );
#174 = EDGE_LOOP( '', ( #245 ) );
#175 = AXIS2_PLACEMENT_3D( '', #246, #247, #248 );
#176 = SURFACE_SIDE_STYLE( '', ( #249 ) );
#177 = VERTEX_LOOP( '', #250 );
#178 = EDGE_LOOP( '', ( #251, #252 ) );
#179 = AXIS2_PLACEMENT_3D( '', #253, #254, #255 );
#180 = SURFACE_SIDE_STYLE( '', ( #256 ) );
#181 = EDGE_LOOP( '', ( #257 ) );
#182 = EDGE_LOOP( '', ( #258, #259 ) );
#183 = AXIS2_PLACEMENT_3D( '', #260, #261, #262 );
#184 = SURFACE_SIDE_STYLE( '', ( #263 ) );
#185 = EDGE_LOOP( '', ( #264 ) );
#186 = VERTEX_LOOP( '', #265 );
#187 = AXIS2_PLACEMENT_3D( '', #266, #267, #268 );
#188 = SURFACE_SIDE_STYLE( '', ( #269 ) );
#189 = EDGE_LOOP( '', ( #270 ) );
#190 = EDGE_LOOP( '', ( #271 ) );
#191 = AXIS2_PLACEMENT_3D( '', #272, #273, #274 );
#193 = SURFACE_STYLE_FILL_AREA( #275 );
#194 = ORIENTED_EDGE( '', *, *, #276, .F. );
#195 = ORIENTED_EDGE( '', *, *, #277, .F. );
#196 = CARTESIAN_POINT( '', ( 0.000000000000000, -8.00000000000000, 0.000000000000000 ) );
#197 = DIRECTION( '', ( -0.000000000000000, 1.00000000000000, 0.000000000000000 ) );
#198 = DIRECTION( '', ( 0.000000000000000, 0.000000000000000, -1.00000000000000 ) );
#199 = SURFACE_STYLE_FILL_AREA( #278 );
#200 = ORIENTED_EDGE( '', *, *, #279, .T. );
#201 = ORIENTED_EDGE( '', *, *, #280, .F. );
#202 = CARTESIAN_POINT( '', ( 21.6000000000000, 0.000000000000000, 0.000000000000000 ) );
#203 = DIRECTION( '', ( 1.00000000000000, 0.000000000000000, -0.000000000000000 ) );
#204 = DIRECTION( '', ( -0.000000000000000, 0.000000000000000, -1.00000000000000 ) );
#205 = SURFACE_STYLE_FILL_AREA( #281 );
#206 = ORIENTED_EDGE( '', *, *, #282, .F. );
#207 = ORIENTED_EDGE( '', *, *, #280, .T. );
#208 = CARTESIAN_POINT( '', ( 22.0000000000000, 3.60000000000000, 0.000000000000000 ) );
#209 = DIRECTION( '', ( -1.00000000000000, 0.000000000000000, 0.000000000000000 ) );
#210 = DIRECTION( '', ( 0.000000000000000, 0.000000000000000, 1.00000000000000 ) );
#211 = SURFACE_STYLE_FILL_AREA( #283 );
#212 = ORIENTED_EDGE( '', *, *, #284, .T. );
#213 = ORIENTED_EDGE( '', *, *, #285, .F. );
#214 = CARTESIAN_POINT( '', ( 22.0000000000000, 0.000000000000000, 0.000000000000000 ) );
#215 = DIRECTION( '', ( -1.00000000000000, -0.000000000000000, 0.000000000000000 ) );
#216 = DIRECTION( '', ( -0.000000000000000, 0.000000000000000, -1.00000000000000 ) );
#217 = SURFACE_STYLE_FILL_AREA( #286 );
#218 = ORIENTED_EDGE( '', *, *, #287, .F. );
#219 = ORIENTED_EDGE( '', *, *, #288, .F. );
#220 = ORIENTED_EDGE( '', *, *, #289, .T. );
#221 = CARTESIAN_POINT( '', ( 5.89236794506250, 0.000000000000000, 0.000000000000000 ) );
#222 = DIRECTION( '', ( 1.00000000000000, 0.000000000000000, -0.000000000000000 ) );
#223 = DIRECTION( '', ( -0.000000000000000, 0.000000000000000, -1.00000000000000 ) );
#224 = SURFACE_STYLE_FILL_AREA( #290 );
#225 = ORIENTED_EDGE( '', *, *, #291, .T. );
#226 = ORIENTED_EDGE( '', *, *, #292, .F. );
#227 = CARTESIAN_POINT( '', ( 0.000000000000000, -8.00000000000000, 0.000000000000000 ) );
#228 = DIRECTION( '', ( -0.000000000000000, 1.00000000000000, 0.000000000000000 ) );
#229 = DIRECTION( '', ( 0.000000000000000, 0.000000000000000, -1.00000000000000 ) );
#230 = SURFACE_STYLE_FILL_AREA( #293 );
#231 = ORIENTED_EDGE( '', *, *, #282, .T. );
#232 = ORIENTED_EDGE( '', *, *, #284, .F. );
#233 = CARTESIAN_POINT( '', ( 21.5670000000000, 0.000000000000000, 0.000000000000000 ) );
#234 = DIRECTION( '', ( 1.00000000000000, -0.000000000000000, -0.000000000000000 ) );
#235 = DIRECTION( '', ( -0.000000000000000, 0.000000000000000, -1.00000000000000 ) );
#236 = SURFACE_STYLE_FILL_AREA( #294 );
#237 = VERTEX_POINT( '', #295 );
#238 = ORIENTED_EDGE( '', *, *, #291, .F. );
#239 = ORIENTED_EDGE( '', *, *, #277, .T. );
#240 = CARTESIAN_POINT( '', ( 0.000000000000000, -1.60000000000000, 0.000000000000000 ) );
#241 = DIRECTION( '', ( 0.000000000000000, -1.00000000000000, -0.000000000000000 ) );
#242 = DIRECTION( '', ( 0.000000000000000, 0.000000000000000, -1.00000000000000 ) );
#243 = SURFACE_STYLE_FILL_AREA( #296 );
#244 = VERTEX_POINT( '', #297 );
#245 = ORIENTED_EDGE( '', *, *, #292, .T. );
#246 = CARTESIAN_POINT( '', ( 3.03576608295941E-15, 3.03576608295941E-15, 0.000000000000000 ) );
#247 = DIRECTION( '', ( 0.000000000000000, -1.00000000000000, 0.000000000000000 ) );
#248 = DIRECTION( '', ( 1.00000000000000, 0.000000000000000, 0.000000000000000 ) );
#249 = SURFACE_STYLE_FILL_AREA( #298 );
#250 = VERTEX_POINT( '', #299 );
#251 = ORIENTED_EDGE( '', *, *, #289, .F. );
#252 = ORIENTED_EDGE( '', *, *, #300, .T. );
#253 = CARTESIAN_POINT( '', ( 0.000000000000000, 4.33680868994202E-16, 0.000000000000000 ) );
#254 = DIRECTION( '', ( 1.00000000000000, 0.000000000000000, 0.000000000000000 ) );
#255 = DIRECTION( '', ( 0.000000000000000, 1.00000000000000, 0.000000000000000 ) );
#256 = SURFACE_STYLE_FILL_AREA( #301 );
#257 = ORIENTED_EDGE( '', *, *, #276, .T. );
#258 = ORIENTED_EDGE( '', *, *, #288, .T. );
#259 = ORIENTED_EDGE( '', *, *, #300, .F. );
#260 = CARTESIAN_POINT( '', ( 8.18431107706234, -4.04685707603749, 8.00000000000000 ) );
#261 = DIRECTION( '', ( 0.0436193873653360, -0.999048221581858, 0.000000000000000 ) );
#262 = DIRECTION( '', ( 0.999048221581858, 0.0436193873653360, 0.000000000000000 ) );
#263 = SURFACE_STYLE_FILL_AREA( #302 );
#264 = ORIENTED_EDGE( '', *, *, #285, .T. );
#265 = VERTEX_POINT( '', #303 );
#266 = CARTESIAN_POINT( '', ( 523.596096010525, 0.000000000000000, 0.000000000000000 ) );
#267 = DIRECTION( '', ( 1.00000000000000, -0.000000000000000, -0.000000000000000 ) );
#268 = DIRECTION( '', ( -0.000000000000000, 0.000000000000000, -1.00000000000000 ) );
#269 = SURFACE_STYLE_FILL_AREA( #304 );
#270 = ORIENTED_EDGE( '', *, *, #279, .F. );
#271 = ORIENTED_EDGE( '', *, *, #287, .T. );
#272 = CARTESIAN_POINT( '', ( 22.0000000000000, 0.000000000000000, 0.000000000000000 ) );
#273 = DIRECTION( '', ( -1.00000000000000, -0.000000000000000, 0.000000000000000 ) );
#274 = DIRECTION( '', ( -0.000000000000000, 0.000000000000000, -1.00000000000000 ) );
#275 = FILL_AREA_STYLE( '', ( #305 ) );
#276 = EDGE_CURVE( '', #306, #306, #307, .F. );
#277 = EDGE_CURVE( '', #308, #308, #309, .T. );
#278 = FILL_AREA_STYLE( '', ( #310 ) );
#279 = EDGE_CURVE( '', #311, #311, #312, .T. );
#280 = EDGE_CURVE( '', #313, #313, #314, .T. );
#281 = FILL_AREA_STYLE( '', ( #315 ) );
#282 = EDGE_CURVE( '', #316, #316, #317, .T. );
#283 = FILL_AREA_STYLE( '', ( #318 ) );
#284 = EDGE_CURVE( '', #319, #319, #320, .T. );
#285 = EDGE_CURVE( '', #321, #321, #322, .T. );
#286 = FILL_AREA_STYLE( '', ( #323 ) );
#287 = EDGE_CURVE( '', #324, #324, #325, .T. );
#288 = EDGE_CURVE( '', #326, #327, #328, .T. );
#289 = EDGE_CURVE( '', #326, #327, #329, .T. );
#290 = FILL_AREA_STYLE( '', ( #330 ) );
#291 = EDGE_CURVE( '', #331, #331, #332, .T. );
#292 = EDGE_CURVE( '', #333, #333, #334, .T. );
#293 = FILL_AREA_STYLE( '', ( #335 ) );
#294 = FILL_AREA_STYLE( '', ( #336 ) );
#295 = CARTESIAN_POINT( '', ( 0.000000000000000, -1.60000000000000, -4.53333333333333 ) );
#296 = FILL_AREA_STYLE( '', ( #337 ) );
#297 = CARTESIAN_POINT( '', ( 3.28069544278888E-15, 4.00000000000000, 0.000000000000000 ) );
#298 = FILL_AREA_STYLE( '', ( #338 ) );
#299 = CARTESIAN_POINT( '', ( -6.80000000000000, 8.50060780704302E-16, 0.000000000000000 ) );
#300 = EDGE_CURVE( '', #326, #327, #339, .F. );
#301 = FILL_AREA_STYLE( '', ( #340 ) );
#302 = FILL_AREA_STYLE( '', ( #341 ) );
#303 = CARTESIAN_POINT( '', ( 8.55802110047003, 0.000000000000000, 0.000000000000000 ) );
#304 = FILL_AREA_STYLE( '', ( #342 ) );
#305 = FILL_AREA_STYLE_COLOUR( '', #343 );
#306 = VERTEX_POINT( '', #344 );
#307 = ELLIPSE( '', #345, 4.00381074070000, 4.00000000000000 );
#308 = VERTEX_POINT( '', #346 );
#309 = CIRCLE( '', #347, 4.00000000000000 );
#310 = FILL_AREA_STYLE_COLOUR( '', #348 );
#311 = VERTEX_POINT( '', #349 );
#312 = CIRCLE( '', #350, 4.00000000000000 );
#313 = VERTEX_POINT( '', #351 );
#314 = CIRCLE( '', #352, 3.60000000000000 );
#315 = FILL_AREA_STYLE_COLOUR( '', #353 );
#316 = VERTEX_POINT( '', #354 );
#317 = CIRCLE( '', #355, 2.50000000000000 );
#318 = FILL_AREA_STYLE_COLOUR( '', #356 );
#319 = VERTEX_POINT( '', #357 );
#320 = CIRCLE( '', #358, 2.06700000000000 );
#321 = VERTEX_POINT( '', #359 );
#322 = CIRCLE( '', #360, 2.06700000000000 );
#323 = FILL_AREA_STYLE_COLOUR( '', #361 );
#324 = VERTEX_POINT( '', #362 );
#325 = CIRCLE( '', #363, 4.00000000000000 );
#326 = VERTEX_POINT( '', #364 );
#327 = VERTEX_POINT( '', #365 );
#328 = B_SPLINE_CURVE_WITH_KNOTS( '', 3, ( #366, #367, #368, #369, #370, #371 ), .UNSPECIFIED., .F., .F., ( 4, 2, 4 ), ( 1.01495278705295E-06, 0.00101214676804802, 0.00202327858330900 ), .UNSPECIFIED. );
#329 = CIRCLE( '', #372, 4.29473684210000 );
#330 = FILL_AREA_STYLE_COLOUR( '', #373 );
#331 = VERTEX_POINT( '', #374 );
#332 = CIRCLE( '', #375, 4.00000000000000 );
#333 = VERTEX_POINT( '', #376 );
#334 = CIRCLE( '', #377, 4.00000000000000 );
#335 = FILL_AREA_STYLE_COLOUR( '', #378 );
#336 = FILL_AREA_STYLE_COLOUR( '', #379 );
#337 = FILL_AREA_STYLE_COLOUR( '', #380 );
#338 = FILL_AREA_STYLE_COLOUR( '', #381 );
#339 = CIRCLE( '', #382, 5.18459255870000 );
#340 = FILL_AREA_STYLE_COLOUR( '', #383 );
#341 = FILL_AREA_STYLE_COLOUR( '', #384 );
#342 = FILL_AREA_STYLE_COLOUR( '', #385 );
#343 = COLOUR_RGB( '', 0.689999997600000, 0.689999997600000, 0.689999997600000 );
#344 = CARTESIAN_POINT( '', ( -4.00000000000000, -4.57883558635266, 0.000000000000000 ) );
#345 = AXIS2_PLACEMENT_3D( '', #386, #387, #388 );
#346 = CARTESIAN_POINT( '', ( 0.000000000000000, -2.13333333333333, -4.00000000000000 ) );
#347 = AXIS2_PLACEMENT_3D( '', #389, #390, #391 );
#348 = COLOUR_RGB( '', 0.689999997600000, 0.689999997600000, 0.689999997600000 );
#349 = CARTESIAN_POINT( '', ( 21.6000000000000, 0.000000000000000, -4.00000000000000 ) );
#350 = AXIS2_PLACEMENT_3D( '', #392, #393, #394 );
#351 = CARTESIAN_POINT( '', ( 22.0000000000000, 0.000000000000000, -3.60000000000000 ) );
#352 = AXIS2_PLACEMENT_3D( '', #395, #396, #397 );
#353 = COLOUR_RGB( '', 0.689999997600000, 0.689999997600000, 0.689999997600000 );
#354 = CARTESIAN_POINT( '', ( 22.0000000000000, 0.000000000000000, -2.50000000000000 ) );
#355 = AXIS2_PLACEMENT_3D( '', #398, #399, #400 );
#356 = COLOUR_RGB( '', 0.689999997600000, 0.689999997600000, 0.689999997600000 );
#357 = CARTESIAN_POINT( '', ( 21.5670000000000, 0.000000000000000, -2.06700000000000 ) );
#358 = AXIS2_PLACEMENT_3D( '', #401, #402, #403 );
#359 = CARTESIAN_POINT( '', ( 9.80000000000000, 0.000000000000000, -2.06700000000000 ) );
#360 = AXIS2_PLACEMENT_3D( '', #404, #405, #406 );
#361 = COLOUR_RGB( '', 0.689999997600000, 0.689999997600000, 0.689999997600000 );
#362 = CARTESIAN_POINT( '', ( 5.89236794506250, 0.000000000000000, -4.00000000000000 ) );
#363 = AXIS2_PLACEMENT_3D( '', #407, #408, #409 );
#364 = CARTESIAN_POINT( '', ( 5.27211868768750, -4.17400614168858, -1.01115640337302 ) );
#365 = CARTESIAN_POINT( '', ( 5.27211868768750, -4.17400614168859, 1.01115640337302 ) );
#366 = CARTESIAN_POINT( '', ( 5.27211868768750, -4.17400614168859, -1.01115640337302 ) );
#367 = CARTESIAN_POINT( '', ( 5.33853113049764, -4.17110651181464, -0.676854798987919 ) );
#368 = CARTESIAN_POINT( '', ( 5.40086497057854, -4.16838495758160, -0.342362120275657 ) );
#369 = CARTESIAN_POINT( '', ( 5.40196274718264, -4.16833702761996, 0.332412238369929 ) );
#370 = CARTESIAN_POINT( '', ( 5.33921282943553, -4.17107674819623, 0.673423317792506 ) );
#371 = CARTESIAN_POINT( '', ( 5.27211868768750, -4.17400614168859, 1.01115640337302 ) );
#372 = AXIS2_PLACEMENT_3D( '', #410, #411, #412 );
#373 = COLOUR_RGB( '', 0.689999997600000, 0.689999997600000, 0.689999997600000 );
#374 = CARTESIAN_POINT( '', ( 0.000000000000000, -1.06666666666667, -4.00000000000000 ) );
#375 = AXIS2_PLACEMENT_3D( '', #413, #414, #415 );
#376 = CARTESIAN_POINT( '', ( 0.000000000000000, 0.000000000000000, -4.00000000000000 ) );
#377 = AXIS2_PLACEMENT_3D( '', #416, #417, #418 );
#378 = COLOUR_RGB( '', 0.689999997600000, 0.689999997600000, 0.689999997600000 );
#379 = COLOUR_RGB( '', 0.689999997600000, 0.689999997600000, 0.689999997600000 );
#380 = COLOUR_RGB( '', 0.689999997600000, 0.689999997600000, 0.689999997600000 );
#381 = COLOUR_RGB( '', 0.689999997600000, 0.689999997600000, 0.689999997600000 );
#382 = AXIS2_PLACEMENT_3D( '', #419, #420, #421 );
#383 = COLOUR_RGB( '', 0.689999997600000, 0.689999997600000, 0.689999997600000 );
#384 = COLOUR_RGB( '', 0.689999997600000, 0.689999997600000, 0.689999997600000 );
#385 = COLOUR_RGB( '', 0.689999997600000, 0.689999997600000, 0.689999997600000 );
#386 = CARTESIAN_POINT( '', ( 0.000000000000000, -4.40419181471861, 0.000000000000000 ) );
#387 = DIRECTION( '', ( 0.0436193873653360, -0.999048221581858, 0.000000000000000 ) );
#388 = DIRECTION( '', ( -0.999048221581858, -0.0436193873653360, -0.000000000000000 ) );
#389 = CARTESIAN_POINT( '', ( 0.000000000000000, -2.13333333333333, 0.000000000000000 ) );
#390 = DIRECTION( '', ( 0.000000000000000, -1.00000000000000, -0.000000000000000 ) );
#391 = DIRECTION( '', ( 0.000000000000000, 0.000000000000000, -1.00000000000000 ) );
#392 = CARTESIAN_POINT( '', ( 21.6000000000000, 0.000000000000000, 0.000000000000000 ) );
#393 = DIRECTION( '', ( 1.00000000000000, 0.000000000000000, -0.000000000000000 ) );
#394 = DIRECTION( '', ( -0.000000000000000, 0.000000000000000, -1.00000000000000 ) );
#395 = CARTESIAN_POINT( '', ( 22.0000000000000, 0.000000000000000, 0.000000000000000 ) );
#396 = DIRECTION( '', ( 1.00000000000000, 0.000000000000000, -0.000000000000000 ) );
#397 = DIRECTION( '', ( -0.000000000000000, 0.000000000000000, -1.00000000000000 ) );
#398 = CARTESIAN_POINT( '', ( 22.0000000000000, 0.000000000000000, 0.000000000000000 ) );
#399 = DIRECTION( '', ( 1.00000000000000, 0.000000000000000, -0.000000000000000 ) );
#400 = DIRECTION( '', ( -0.000000000000000, 0.000000000000000, -1.00000000000000 ) );
#401 = CARTESIAN_POINT( '', ( 21.5670000000000, 0.000000000000000, 0.000000000000000 ) );
#402 = DIRECTION( '', ( 1.00000000000000, 0.000000000000000, -0.000000000000000 ) );
#403 = DIRECTION( '', ( -0.000000000000000, 0.000000000000000, -1.00000000000000 ) );
#404 = CARTESIAN_POINT( '', ( 9.80000000000000, 0.000000000000000, 0.000000000000000 ) );
#405 = DIRECTION( '', ( 1.00000000000000, 0.000000000000000, -0.000000000000000 ) );
#406 = DIRECTION( '', ( -0.000000000000000, 0.000000000000000, -1.00000000000000 ) );
#407 = CARTESIAN_POINT( '', ( 5.89236794506250, 0.000000000000000, 0.000000000000000 ) );
#408 = DIRECTION( '', ( 1.00000000000000, 0.000000000000000, -0.000000000000000 ) );
#409 = DIRECTION( '', ( -0.000000000000000, 0.000000000000000, -1.00000000000000 ) );
#410 = CARTESIAN_POINT( '', ( 5.27211868768750, 0.000000000000000, 0.000000000000000 ) );
#411 = DIRECTION( '', ( 1.00000000000000, 0.000000000000000, -0.000000000000000 ) );
#412 = DIRECTION( '', ( -0.000000000000000, 0.000000000000000, -1.00000000000000 ) );
#413 = CARTESIAN_POINT( '', ( 0.000000000000000, -1.06666666666667, 0.000000000000000 ) );
#414 = DIRECTION( '', ( 0.000000000000000, -1.00000000000000, -0.000000000000000 ) );
#415 = DIRECTION( '', ( 0.000000000000000, 0.000000000000000, -1.00000000000000 ) );
#416 = CARTESIAN_POINT( '', ( 0.000000000000000, 0.000000000000000, 0.000000000000000 ) );
#417 = DIRECTION( '', ( 0.000000000000000, -1.00000000000000, -0.000000000000000 ) );
#418 = DIRECTION( '', ( 0.000000000000000, 0.000000000000000, -1.00000000000000 ) );
#419 = CARTESIAN_POINT( '', ( 0.191925304407479, -4.39581217496018, 0.000000000000000 ) );
#420 = DIRECTION( '', ( 0.0436193873653360, -0.999048221581858, 0.000000000000000 ) );
#421 = DIRECTION( '', ( 0.999048221581858, 0.0436193873653360, 0.000000000000000 ) );
ENDSEC;
END-ISO-10303-21;
