ISO-10303-21;
HEADER;
FILE_DESCRIPTION( ( 'STEP AP214' ), '1' );
FILE_NAME( '//goodhand-server/Shared Folders/GoodHand Data/Kipp CAD/K0284/K0284.605X0190.stp', '2020-11-27T12:51:25', ( '' ), ( '' ), ' ', 'PARTsolutions', ' ' );
FILE_SCHEMA( ( 'AUTOMOTIVE_DESIGN { 1 0 10303 214 1 1 1 1 }' ) );
ENDSEC;
DATA;
#1 = MECHANICAL_DESIGN_GEOMETRIC_PRESENTATION_REPRESENTATION( ' ', ( #10, #11, #12, #13, #14, #15, #16, #17, #18, #19, #20, #21, #22, #23, #24, #25, #26 ), #6 );
#2 = PRODUCT_DEFINITION_CONTEXT( '', #27, 'design' );
#3 = APPLICATION_PROTOCOL_DEFINITION( 'international standard', 'automotive_design', 2001, #27 );
#4 = PRODUCT_CATEGORY_RELATIONSHIP( 'NONE', 'NONE', #28, #29 );
#5 = SHAPE_DEFINITION_REPRESENTATION( #30, #31 );
#6 =  ( GEOMETRIC_REPRESENTATION_CONTEXT( 3 )GLOBAL_UNCERTAINTY_ASSIGNED_CONTEXT( ( #34 ) )GLOBAL_UNIT_ASSIGNED_CONTEXT( ( #36, #37, #38 ) )REPRESENTATION_CONTEXT( 'NONE', 'WORKSPACE' ) );
#10 = STYLED_ITEM( '', ( #40 ), #41 );
#11 = STYLED_ITEM( '', ( #42 ), #43 );
#12 = STYLED_ITEM( '', ( #44 ), #45 );
#13 = STYLED_ITEM( '', ( #46 ), #47 );
#14 = STYLED_ITEM( '', ( #48 ), #49 );
#15 = STYLED_ITEM( '', ( #50 ), #51 );
#16 = STYLED_ITEM( '', ( #52 ), #53 );
#17 = STYLED_ITEM( '', ( #54 ), #55 );
#18 = STYLED_ITEM( '', ( #56 ), #57 );
#19 = STYLED_ITEM( '', ( #58 ), #59 );
#20 = STYLED_ITEM( '', ( #60 ), #61 );
#21 = STYLED_ITEM( '', ( #62 ), #63 );
#22 = STYLED_ITEM( '', ( #64 ), #65 );
#23 = STYLED_ITEM( '', ( #66 ), #67 );
#24 = STYLED_ITEM( '', ( #68 ), #69 );
#25 = STYLED_ITEM( '', ( #70 ), #71 );
#26 = STYLED_ITEM( '', ( #72 ), #73 );
#27 = APPLICATION_CONTEXT( 'core data for automotive mechanical design processes' );
#28 = PRODUCT_CATEGORY( 'part', 'NONE' );
#29 = PRODUCT_RELATED_PRODUCT_CATEGORY( 'detail', ' ', ( #74 ) );
#30 = PRODUCT_DEFINITION_SHAPE( 'NONE', 'NONE', #75 );
#31 = ADVANCED_BREP_SHAPE_REPRESENTATION( '_K0284.605X0190', ( #76, #77 ), #6 );
#34 = UNCERTAINTY_MEASURE_WITH_UNIT( LENGTH_MEASURE( 0.00100000000000000 ), #36, '', '' );
#36 =  ( CONVERSION_BASED_UNIT( 'MILLIMETRE', #80 )LENGTH_UNIT(  )NAMED_UNIT( #83 ) );
#37 =  ( NAMED_UNIT( #85 )PLANE_ANGLE_UNIT(  )SI_UNIT( $, .RADIAN. ) );
#38 =  ( NAMED_UNIT( #85 )SI_UNIT( $, .STERADIAN. )SOLID_ANGLE_UNIT(  ) );
#40 = PRESENTATION_STYLE_ASSIGNMENT( ( #91 ) );
#41 = ADVANCED_FACE( '', ( #92, #93 ), #94, .T. );
#42 = PRESENTATION_STYLE_ASSIGNMENT( ( #95 ) );
#43 = ADVANCED_FACE( '', ( #96, #97 ), #98, .T. );
#44 = PRESENTATION_STYLE_ASSIGNMENT( ( #99 ) );
#45 = ADVANCED_FACE( '', ( #100, #101 ), #102, .F. );
#46 = PRESENTATION_STYLE_ASSIGNMENT( ( #103 ) );
#47 = ADVANCED_FACE( '', ( #104, #105 ), #106, .T. );
#48 = PRESENTATION_STYLE_ASSIGNMENT( ( #107 ) );
#49 = ADVANCED_FACE( '', ( #108 ), #109, .F. );
#50 = PRESENTATION_STYLE_ASSIGNMENT( ( #110 ) );
#51 = ADVANCED_FACE( '', ( #111, #112 ), #113, .T. );
#52 = PRESENTATION_STYLE_ASSIGNMENT( ( #114 ) );
#53 = ADVANCED_FACE( '', ( #115, #116 ), #117, .F. );
#54 = PRESENTATION_STYLE_ASSIGNMENT( ( #118 ) );
#55 = ADVANCED_FACE( '', ( #119, #120 ), #121, .F. );
#56 = PRESENTATION_STYLE_ASSIGNMENT( ( #122 ) );
#57 = ADVANCED_FACE( '', ( #123, #124 ), #125, .F. );
#58 = PRESENTATION_STYLE_ASSIGNMENT( ( #126 ) );
#59 = ADVANCED_FACE( '', ( #127, #128 ), #129, .F. );
#60 = PRESENTATION_STYLE_ASSIGNMENT( ( #130 ) );
#61 = ADVANCED_FACE( '', ( #131, #132 ), #133, .F. );
#62 = PRESENTATION_STYLE_ASSIGNMENT( ( #134 ) );
#63 = ADVANCED_FACE( '', ( #135, #136 ), #137, .F. );
#64 = PRESENTATION_STYLE_ASSIGNMENT( ( #138 ) );
#65 = ADVANCED_FACE( '', ( #139, #140 ), #141, .T. );
#66 = PRESENTATION_STYLE_ASSIGNMENT( ( #142 ) );
#67 = ADVANCED_FACE( '', ( #143, #144 ), #145, .T. );
#68 = PRESENTATION_STYLE_ASSIGNMENT( ( #146 ) );
#69 = ADVANCED_FACE( '', ( #147, #148 ), #149, .T. );
#70 = PRESENTATION_STYLE_ASSIGNMENT( ( #150 ) );
#71 = ADVANCED_FACE( '', ( #151, #152 ), #153, .T. );
#72 = PRESENTATION_STYLE_ASSIGNMENT( ( #154 ) );
#73 = ADVANCED_FACE( '', ( #155, #156 ), #157, .F. );
#74 = PRODUCT( '_K0284.605X0190', '_K0284.605X0190', 'PART-_K0284.605X0190-DESC', ( #158 ) );
#75 = PRODUCT_DEFINITION( 'NONE', 'NONE', #159, #2 );
#76 = MANIFOLD_SOLID_BREP( '_K0284.605X0190', #160 );
#77 = AXIS2_PLACEMENT_3D( '', #161, #162, #163 );
#80 = LENGTH_MEASURE_WITH_UNIT( LENGTH_MEASURE( 1.00000000000000 ), #164 );
#83 = DIMENSIONAL_EXPONENTS( 1.00000000000000, 0.000000000000000, 0.000000000000000, 0.000000000000000, 0.000000000000000, 0.000000000000000, 0.000000000000000 );
#85 = DIMENSIONAL_EXPONENTS( 0.000000000000000, 0.000000000000000, 0.000000000000000, 0.000000000000000, 0.000000000000000, 0.000000000000000, 0.000000000000000 );
#91 = SURFACE_STYLE_USAGE( .BOTH., #165 );
#92 = FACE_OUTER_BOUND( '', #166, .T. );
#93 = FACE_BOUND( '', #167, .T. );
#94 = CONICAL_SURFACE( '', #168, 4.85000000000000, 0.785398163400000 );
#95 = SURFACE_STYLE_USAGE( .BOTH., #169 );
#96 = FACE_OUTER_BOUND( '', #170, .T. );
#97 = FACE_OUTER_BOUND( '', #171, .T. );
#98 = TOROIDAL_SURFACE( '', #172, 6.00000000000000, 0.500000000000000 );
#99 = SURFACE_STYLE_USAGE( .BOTH., #173 );
#100 = FACE_OUTER_BOUND( '', #174, .T. );
#101 = FACE_OUTER_BOUND( '', #175, .T. );
#102 = CYLINDRICAL_SURFACE( '', #176, 5.05000000000000 );
#103 = SURFACE_STYLE_USAGE( .BOTH., #177 );
#104 = FACE_BOUND( '', #178, .T. );
#105 = FACE_OUTER_BOUND( '', #179, .T. );
#106 = CONICAL_SURFACE( '', #180, 6.50000000000000, 0.785398163400000 );
#107 = SURFACE_STYLE_USAGE( .BOTH., #181 );
#108 = FACE_OUTER_BOUND( '', #182, .T. );
#109 = PLANE( '', #183 );
#110 = SURFACE_STYLE_USAGE( .BOTH., #184 );
#111 = FACE_OUTER_BOUND( '', #185, .T. );
#112 = FACE_OUTER_BOUND( '', #186, .T. );
#113 = CYLINDRICAL_SURFACE( '', #187, 6.50000000000000 );
#114 = SURFACE_STYLE_USAGE( .BOTH., #188 );
#115 = FACE_OUTER_BOUND( '', #189, .T. );
#116 = FACE_BOUND( '', #190, .T. );
#117 = PLANE( '', #191 );
#118 = SURFACE_STYLE_USAGE( .BOTH., #192 );
#119 = FACE_BOUND( '', #193, .T. );
#120 = FACE_OUTER_BOUND( '', #194, .T. );
#121 = PLANE( '', #195 );
#122 = SURFACE_STYLE_USAGE( .BOTH., #196 );
#123 = FACE_OUTER_BOUND( '', #197, .T. );
#124 = FACE_BOUND( '', #198, .T. );
#125 = CONICAL_SURFACE( '', #199, 5.05000000000000, 0.785398163400000 );
#126 = SURFACE_STYLE_USAGE( .BOTH., #200 );
#127 = FACE_BOUND( '', #201, .T. );
#128 = FACE_OUTER_BOUND( '', #202, .T. );
#129 = CONICAL_SURFACE( '', #203, 2.50000000000000, 0.785398163400000 );
#130 = SURFACE_STYLE_USAGE( .BOTH., #204 );
#131 = FACE_OUTER_BOUND( '', #205, .T. );
#132 = FACE_OUTER_BOUND( '', #206, .T. );
#133 = CYLINDRICAL_SURFACE( '', #207, 2.06700000000000 );
#134 = SURFACE_STYLE_USAGE( .BOTH., #208 );
#135 = FACE_OUTER_BOUND( '', #209, .T. );
#136 = FACE_BOUND( '', #210, .T. );
#137 = PLANE( '', #211 );
#138 = SURFACE_STYLE_USAGE( .BOTH., #212 );
#139 = FACE_OUTER_BOUND( '', #213, .T. );
#140 = FACE_OUTER_BOUND( '', #214, .T. );
#141 = SPHERICAL_SURFACE( '', #215, 5.00000000000000 );
#142 = SURFACE_STYLE_USAGE( .BOTH., #216 );
#143 = FACE_OUTER_BOUND( '', #217, .T. );
#144 = FACE_OUTER_BOUND( '', #218, .T. );
#145 = CYLINDRICAL_SURFACE( '', #219, 4.85000000000000 );
#146 = SURFACE_STYLE_USAGE( .BOTH., #220 );
#147 = FACE_BOUND( '', #221, .T. );
#148 = FACE_OUTER_BOUND( '', #222, .T. );
#149 = SPHERICAL_SURFACE( '', #223, 5.00000000000000 );
#150 = SURFACE_STYLE_USAGE( .BOTH., #224 );
#151 = FACE_OUTER_BOUND( '', #225, .T. );
#152 = FACE_OUTER_BOUND( '', #226, .T. );
#153 = CYLINDRICAL_SURFACE( '', #227, 6.50000000000000 );
#154 = SURFACE_STYLE_USAGE( .BOTH., #228 );
#155 = FACE_OUTER_BOUND( '', #229, .T. );
#156 = FACE_BOUND( '', #230, .T. );
#157 = PLANE( '', #231 );
#158 = PRODUCT_CONTEXT( '', #27, 'mechanical' );
#159 = PRODUCT_DEFINITION_FORMATION_WITH_SPECIFIED_SOURCE( ' ', 'NONE', #74, .NOT_KNOWN. );
#160 = CLOSED_SHELL( '', ( #43, #49, #51, #53, #45, #65, #67, #41, #61, #59, #55, #47, #71, #63, #57, #69, #73 ) );
#161 = CARTESIAN_POINT( '', ( 0.000000000000000, 0.000000000000000, 0.000000000000000 ) );
#162 = DIRECTION( '', ( 0.000000000000000, 0.000000000000000, 1.00000000000000 ) );
#163 = DIRECTION( '', ( 1.00000000000000, 0.000000000000000, 0.000000000000000 ) );
#164 =  ( LENGTH_UNIT(  )NAMED_UNIT( #83 )SI_UNIT( .MILLI., .METRE. ) );
#165 = SURFACE_SIDE_STYLE( '', ( #233 ) );
#166 = EDGE_LOOP( '', ( #234 ) );
#167 = EDGE_LOOP( '', ( #235 ) );
#168 = AXIS2_PLACEMENT_3D( '', #236, #237, #238 );
#169 = SURFACE_SIDE_STYLE( '', ( #239 ) );
#170 = EDGE_LOOP( '', ( #240 ) );
#171 = EDGE_LOOP( '', ( #241 ) );
#172 = AXIS2_PLACEMENT_3D( '', #242, #243, #244 );
#173 = SURFACE_SIDE_STYLE( '', ( #245 ) );
#174 = EDGE_LOOP( '', ( #246 ) );
#175 = EDGE_LOOP( '', ( #247 ) );
#176 = AXIS2_PLACEMENT_3D( '', #248, #249, #250 );
#177 = SURFACE_SIDE_STYLE( '', ( #251 ) );
#178 = EDGE_LOOP( '', ( #252 ) );
#179 = EDGE_LOOP( '', ( #253 ) );
#180 = AXIS2_PLACEMENT_3D( '', #254, #255, #256 );
#181 = SURFACE_SIDE_STYLE( '', ( #257 ) );
#182 = EDGE_LOOP( '', ( #258 ) );
#183 = AXIS2_PLACEMENT_3D( '', #259, #260, #261 );
#184 = SURFACE_SIDE_STYLE( '', ( #262 ) );
#185 = EDGE_LOOP( '', ( #263 ) );
#186 = EDGE_LOOP( '', ( #264 ) );
#187 = AXIS2_PLACEMENT_3D( '', #265, #266, #267 );
#188 = SURFACE_SIDE_STYLE( '', ( #268 ) );
#189 = EDGE_LOOP( '', ( #269 ) );
#190 = EDGE_LOOP( '', ( #270 ) );
#191 = AXIS2_PLACEMENT_3D( '', #271, #272, #273 );
#192 = SURFACE_SIDE_STYLE( '', ( #274 ) );
#193 = EDGE_LOOP( '', ( #275 ) );
#194 = EDGE_LOOP( '', ( #276 ) );
#195 = AXIS2_PLACEMENT_3D( '', #277, #278, #279 );
#196 = SURFACE_SIDE_STYLE( '', ( #280 ) );
#197 = EDGE_LOOP( '', ( #281 ) );
#198 = EDGE_LOOP( '', ( #282 ) );
#199 = AXIS2_PLACEMENT_3D( '', #283, #284, #285 );
#200 = SURFACE_SIDE_STYLE( '', ( #286 ) );
#201 = EDGE_LOOP( '', ( #287 ) );
#202 = EDGE_LOOP( '', ( #288 ) );
#203 = AXIS2_PLACEMENT_3D( '', #289, #290, #291 );
#204 = SURFACE_SIDE_STYLE( '', ( #292 ) );
#205 = EDGE_LOOP( '', ( #293 ) );
#206 = EDGE_LOOP( '', ( #294 ) );
#207 = AXIS2_PLACEMENT_3D( '', #295, #296, #297 );
#208 = SURFACE_SIDE_STYLE( '', ( #298 ) );
#209 = EDGE_LOOP( '', ( #299 ) );
#210 = EDGE_LOOP( '', ( #300 ) );
#211 = AXIS2_PLACEMENT_3D( '', #301, #302, #303 );
#212 = SURFACE_SIDE_STYLE( '', ( #304 ) );
#213 = EDGE_LOOP( '', ( #305 ) );
#214 = EDGE_LOOP( '', ( #306 ) );
#215 = AXIS2_PLACEMENT_3D( '', #307, #308, #309 );
#216 = SURFACE_SIDE_STYLE( '', ( #310 ) );
#217 = EDGE_LOOP( '', ( #311 ) );
#218 = EDGE_LOOP( '', ( #312 ) );
#219 = AXIS2_PLACEMENT_3D( '', #313, #314, #315 );
#220 = SURFACE_SIDE_STYLE( '', ( #316 ) );
#221 = VERTEX_LOOP( '', #317 );
#222 = EDGE_LOOP( '', ( #318 ) );
#223 = AXIS2_PLACEMENT_3D( '', #319, #320, #321 );
#224 = SURFACE_SIDE_STYLE( '', ( #322 ) );
#225 = EDGE_LOOP( '', ( #323 ) );
#226 = EDGE_LOOP( '', ( #324 ) );
#227 = AXIS2_PLACEMENT_3D( '', #325, #326, #327 );
#228 = SURFACE_SIDE_STYLE( '', ( #328 ) );
#229 = EDGE_LOOP( '', ( #329 ) );
#230 = EDGE_LOOP( '', ( #330 ) );
#231 = AXIS2_PLACEMENT_3D( '', #331, #332, #333 );
#233 = SURFACE_STYLE_FILL_AREA( #334 );
#234 = ORIENTED_EDGE( '', *, *, #335, .F. );
#235 = ORIENTED_EDGE( '', *, *, #336, .T. );
#236 = CARTESIAN_POINT( '', ( 0.000000000000000, 15.4000000000000, 0.000000000000000 ) );
#237 = DIRECTION( '', ( -0.000000000000000, 1.00000000000000, -0.000000000000000 ) );
#238 = DIRECTION( '', ( 0.000000000000000, 0.000000000000000, 1.00000000000000 ) );
#239 = SURFACE_STYLE_FILL_AREA( #337 );
#240 = ORIENTED_EDGE( '', *, *, #338, .T. );
#241 = ORIENTED_EDGE( '', *, *, #339, .F. );
#242 = CARTESIAN_POINT( '', ( 0.000000000000000, 19.0000000000000, 0.000000000000000 ) );
#243 = DIRECTION( '', ( -0.000000000000000, 1.00000000000000, 0.000000000000000 ) );
#244 = DIRECTION( '', ( 0.000000000000000, 0.000000000000000, 1.00000000000000 ) );
#245 = SURFACE_STYLE_FILL_AREA( #340 );
#246 = ORIENTED_EDGE( '', *, *, #341, .F. );
#247 = ORIENTED_EDGE( '', *, *, #342, .T. );
#248 = CARTESIAN_POINT( '', ( 0.000000000000000, -8.88178419700125E-16, 0.000000000000000 ) );
#249 = DIRECTION( '', ( -0.000000000000000, 1.00000000000000, 0.000000000000000 ) );
#250 = DIRECTION( '', ( 0.000000000000000, 0.000000000000000, -1.00000000000000 ) );
#251 = SURFACE_STYLE_FILL_AREA( #343 );
#252 = ORIENTED_EDGE( '', *, *, #344, .F. );
#253 = ORIENTED_EDGE( '', *, *, #345, .T. );
#254 = CARTESIAN_POINT( '', ( 0.000000000000000, 0.500000000000000, 0.000000000000000 ) );
#255 = DIRECTION( '', ( -0.000000000000000, 1.00000000000000, 0.000000000000000 ) );
#256 = DIRECTION( '', ( 0.000000000000000, -0.000000000000000, 1.00000000000000 ) );
#257 = SURFACE_STYLE_FILL_AREA( #346 );
#258 = ORIENTED_EDGE( '', *, *, #339, .T. );
#259 = CARTESIAN_POINT( '', ( -6.00000000000000, 19.5000000000000, 0.000000000000000 ) );
#260 = DIRECTION( '', ( 0.000000000000000, -1.00000000000000, 0.000000000000000 ) );
#261 = DIRECTION( '', ( 0.000000000000000, 0.000000000000000, -1.00000000000000 ) );
#262 = SURFACE_STYLE_FILL_AREA( #347 );
#263 = ORIENTED_EDGE( '', *, *, #338, .F. );
#264 = ORIENTED_EDGE( '', *, *, #348, .T. );
#265 = CARTESIAN_POINT( '', ( 0.000000000000000, 19.5000000000000, 0.000000000000000 ) );
#266 = DIRECTION( '', ( 0.000000000000000, -1.00000000000000, -0.000000000000000 ) );
#267 = DIRECTION( '', ( 0.000000000000000, 0.000000000000000, 1.00000000000000 ) );
#268 = SURFACE_STYLE_FILL_AREA( #349 );
#269 = ORIENTED_EDGE( '', *, *, #342, .F. );
#270 = ORIENTED_EDGE( '', *, *, #350, .T. );
#271 = CARTESIAN_POINT( '', ( 0.000000000000000, 9.10000000000000, 0.000000000000000 ) );
#272 = DIRECTION( '', ( 0.000000000000000, -1.00000000000000, -0.000000000000000 ) );
#273 = DIRECTION( '', ( 0.000000000000000, 0.000000000000000, -1.00000000000000 ) );
#274 = SURFACE_STYLE_FILL_AREA( #351 );
#275 = ORIENTED_EDGE( '', *, *, #352, .F. );
#276 = ORIENTED_EDGE( '', *, *, #344, .T. );
#277 = CARTESIAN_POINT( '', ( 6.00000000000000, 0.000000000000000, 0.000000000000000 ) );
#278 = DIRECTION( '', ( 0.000000000000000, 1.00000000000000, 0.000000000000000 ) );
#279 = DIRECTION( '', ( 0.000000000000000, -0.000000000000000, 1.00000000000000 ) );
#280 = SURFACE_STYLE_FILL_AREA( #353 );
#281 = ORIENTED_EDGE( '', *, *, #354, .F. );
#282 = ORIENTED_EDGE( '', *, *, #341, .T. );
#283 = CARTESIAN_POINT( '', ( 0.000000000000000, 14.2000000000000, 0.000000000000000 ) );
#284 = DIRECTION( '', ( -0.000000000000000, 1.00000000000000, 0.000000000000000 ) );
#285 = DIRECTION( '', ( 0.000000000000000, -0.000000000000000, 1.00000000000000 ) );
#286 = SURFACE_STYLE_FILL_AREA( #355 );
#287 = ORIENTED_EDGE( '', *, *, #356, .F. );
#288 = ORIENTED_EDGE( '', *, *, #352, .T. );
#289 = CARTESIAN_POINT( '', ( 0.000000000000000, 0.000000000000000, 0.000000000000000 ) );
#290 = DIRECTION( '', ( -0.000000000000000, -1.00000000000000, -0.000000000000000 ) );
#291 = DIRECTION( '', ( 0.000000000000000, 0.000000000000000, -1.00000000000000 ) );
#292 = SURFACE_STYLE_FILL_AREA( #357 );
#293 = ORIENTED_EDGE( '', *, *, #358, .T. );
#294 = ORIENTED_EDGE( '', *, *, #356, .T. );
#295 = CARTESIAN_POINT( '', ( 0.000000000000000, -8.88178419700125E-16, 0.000000000000000 ) );
#296 = DIRECTION( '', ( -0.000000000000000, 1.00000000000000, 0.000000000000000 ) );
#297 = DIRECTION( '', ( 0.000000000000000, 0.000000000000000, -1.00000000000000 ) );
#298 = SURFACE_STYLE_FILL_AREA( #359 );
#299 = ORIENTED_EDGE( '', *, *, #360, .F. );
#300 = ORIENTED_EDGE( '', *, *, #354, .T. );
#301 = CARTESIAN_POINT( '', ( 5.35000000000000, 14.5000000000000, 0.000000000000000 ) );
#302 = DIRECTION( '', ( 0.000000000000000, -1.00000000000000, -0.000000000000000 ) );
#303 = DIRECTION( '', ( 0.000000000000000, 0.000000000000000, -1.00000000000000 ) );
#304 = SURFACE_STYLE_FILL_AREA( #361 );
#305 = ORIENTED_EDGE( '', *, *, #350, .F. );
#306 = ORIENTED_EDGE( '', *, *, #362, .F. );
#307 = CARTESIAN_POINT( '', ( -1.30104260698261E-15, 11.0000000000000, 0.000000000000000 ) );
#308 = DIRECTION( '', ( 0.000000000000000, 1.00000000000000, 0.000000000000000 ) );
#309 = DIRECTION( '', ( -1.00000000000000, 0.000000000000000, 0.000000000000000 ) );
#310 = SURFACE_STYLE_FILL_AREA( #363 );
#311 = ORIENTED_EDGE( '', *, *, #336, .F. );
#312 = ORIENTED_EDGE( '', *, *, #362, .T. );
#313 = CARTESIAN_POINT( '', ( 0.000000000000000, 19.5000000000000, 0.000000000000000 ) );
#314 = DIRECTION( '', ( 0.000000000000000, -1.00000000000000, -0.000000000000000 ) );
#315 = DIRECTION( '', ( 0.000000000000000, 0.000000000000000, 1.00000000000000 ) );
#316 = SURFACE_STYLE_FILL_AREA( #364 );
#317 = VERTEX_POINT( '', #365 );
#318 = ORIENTED_EDGE( '', *, *, #358, .F. );
#319 = CARTESIAN_POINT( '', ( -1.30104260698261E-15, 11.0000000000000, 0.000000000000000 ) );
#320 = DIRECTION( '', ( 0.000000000000000, 1.00000000000000, 0.000000000000000 ) );
#321 = DIRECTION( '', ( -1.00000000000000, 0.000000000000000, 0.000000000000000 ) );
#322 = SURFACE_STYLE_FILL_AREA( #366 );
#323 = ORIENTED_EDGE( '', *, *, #345, .F. );
#324 = ORIENTED_EDGE( '', *, *, #360, .T. );
#325 = CARTESIAN_POINT( '', ( 0.000000000000000, -8.88178419700125E-16, 0.000000000000000 ) );
#326 = DIRECTION( '', ( -0.000000000000000, 1.00000000000000, 0.000000000000000 ) );
#327 = DIRECTION( '', ( 0.000000000000000, 0.000000000000000, -1.00000000000000 ) );
#328 = SURFACE_STYLE_FILL_AREA( #367 );
#329 = ORIENTED_EDGE( '', *, *, #348, .F. );
#330 = ORIENTED_EDGE( '', *, *, #335, .T. );
#331 = CARTESIAN_POINT( '', ( -6.34999999999998, 16.9000000000000, 0.000000000000000 ) );
#332 = DIRECTION( '', ( -0.000000000000000, 1.00000000000000, 0.000000000000000 ) );
#333 = DIRECTION( '', ( 0.000000000000000, 0.000000000000000, 1.00000000000000 ) );
#334 = FILL_AREA_STYLE( '', ( #368 ) );
#335 = EDGE_CURVE( '', #369, #369, #370, .T. );
#336 = EDGE_CURVE( '', #371, #371, #372, .T. );
#337 = FILL_AREA_STYLE( '', ( #373 ) );
#338 = EDGE_CURVE( '', #374, #374, #375, .T. );
#339 = EDGE_CURVE( '', #376, #376, #377, .T. );
#340 = FILL_AREA_STYLE( '', ( #378 ) );
#341 = EDGE_CURVE( '', #379, #379, #380, .T. );
#342 = EDGE_CURVE( '', #381, #381, #382, .T. );
#343 = FILL_AREA_STYLE( '', ( #383 ) );
#344 = EDGE_CURVE( '', #384, #384, #385, .T. );
#345 = EDGE_CURVE( '', #386, #386, #387, .T. );
#346 = FILL_AREA_STYLE( '', ( #388 ) );
#347 = FILL_AREA_STYLE( '', ( #389 ) );
#348 = EDGE_CURVE( '', #390, #390, #391, .T. );
#349 = FILL_AREA_STYLE( '', ( #392 ) );
#350 = EDGE_CURVE( '', #393, #393, #394, .T. );
#351 = FILL_AREA_STYLE( '', ( #395 ) );
#352 = EDGE_CURVE( '', #396, #396, #397, .T. );
#353 = FILL_AREA_STYLE( '', ( #398 ) );
#354 = EDGE_CURVE( '', #399, #399, #400, .T. );
#355 = FILL_AREA_STYLE( '', ( #401 ) );
#356 = EDGE_CURVE( '', #402, #402, #403, .T. );
#357 = FILL_AREA_STYLE( '', ( #404 ) );
#358 = EDGE_CURVE( '', #405, #405, #406, .T. );
#359 = FILL_AREA_STYLE( '', ( #407 ) );
#360 = EDGE_CURVE( '', #408, #408, #409, .T. );
#361 = FILL_AREA_STYLE( '', ( #410 ) );
#362 = EDGE_CURVE( '', #411, #411, #412, .T. );
#363 = FILL_AREA_STYLE( '', ( #413 ) );
#364 = FILL_AREA_STYLE( '', ( #414 ) );
#365 = CARTESIAN_POINT( '', ( -1.60720430676944E-15, 6.00000000000000, 0.000000000000000 ) );
#366 = FILL_AREA_STYLE( '', ( #415 ) );
#367 = FILL_AREA_STYLE( '', ( #416 ) );
#368 = FILL_AREA_STYLE_COLOUR( '', #417 );
#369 = VERTEX_POINT( '', #418 );
#370 = CIRCLE( '', #419, 6.35000000000000 );
#371 = VERTEX_POINT( '', #420 );
#372 = CIRCLE( '', #421, 4.85000000000000 );
#373 = FILL_AREA_STYLE_COLOUR( '', #422 );
#374 = VERTEX_POINT( '', #423 );
#375 = CIRCLE( '', #424, 6.50000000000000 );
#376 = VERTEX_POINT( '', #425 );
#377 = CIRCLE( '', #426, 6.00000000000000 );
#378 = FILL_AREA_STYLE_COLOUR( '', #427 );
#379 = VERTEX_POINT( '', #428 );
#380 = CIRCLE( '', #429, 5.05000000000000 );
#381 = VERTEX_POINT( '', #430 );
#382 = CIRCLE( '', #431, 5.05000000000000 );
#383 = FILL_AREA_STYLE_COLOUR( '', #432 );
#384 = VERTEX_POINT( '', #433 );
#385 = CIRCLE( '', #434, 6.00000000000000 );
#386 = VERTEX_POINT( '', #435 );
#387 = CIRCLE( '', #436, 6.50000000000000 );
#388 = FILL_AREA_STYLE_COLOUR( '', #437 );
#389 = FILL_AREA_STYLE_COLOUR( '', #438 );
#390 = VERTEX_POINT( '', #439 );
#391 = CIRCLE( '', #440, 6.50000000000000 );
#392 = FILL_AREA_STYLE_COLOUR( '', #441 );
#393 = VERTEX_POINT( '', #442 );
#394 = CIRCLE( '', #443, 4.62493243190000 );
#395 = FILL_AREA_STYLE_COLOUR( '', #444 );
#396 = VERTEX_POINT( '', #445 );
#397 = CIRCLE( '', #446, 2.50000000000000 );
#398 = FILL_AREA_STYLE_COLOUR( '', #447 );
#399 = VERTEX_POINT( '', #448 );
#400 = CIRCLE( '', #449, 5.35000000000000 );
#401 = FILL_AREA_STYLE_COLOUR( '', #450 );
#402 = VERTEX_POINT( '', #451 );
#403 = CIRCLE( '', #452, 2.06700000000000 );
#404 = FILL_AREA_STYLE_COLOUR( '', #453 );
#405 = VERTEX_POINT( '', #454 );
#406 = CIRCLE( '', #455, 2.06700000000000 );
#407 = FILL_AREA_STYLE_COLOUR( '', #456 );
#408 = VERTEX_POINT( '', #457 );
#409 = CIRCLE( '', #458, 6.50000000000000 );
#410 = FILL_AREA_STYLE_COLOUR( '', #459 );
#411 = VERTEX_POINT( '', #460 );
#412 = CIRCLE( '', #461, 4.85000000000000 );
#413 = FILL_AREA_STYLE_COLOUR( '', #462 );
#414 = FILL_AREA_STYLE_COLOUR( '', #463 );
#415 = FILL_AREA_STYLE_COLOUR( '', #464 );
#416 = FILL_AREA_STYLE_COLOUR( '', #465 );
#417 = COLOUR_RGB( '', 0.689999997600000, 0.689999997600000, 0.689999997600000 );
#418 = CARTESIAN_POINT( '', ( 0.000000000000000, 16.9000000000000, 6.34999999999998 ) );
#419 = AXIS2_PLACEMENT_3D( '', #466, #467, #468 );
#420 = CARTESIAN_POINT( '', ( 0.000000000000000, 15.4000000000000, 4.85000000000000 ) );
#421 = AXIS2_PLACEMENT_3D( '', #469, #470, #471 );
#422 = COLOUR_RGB( '', 0.689999997600000, 0.689999997600000, 0.689999997600000 );
#423 = CARTESIAN_POINT( '', ( 0.000000000000000, 19.0000000000000, 6.50000000000000 ) );
#424 = AXIS2_PLACEMENT_3D( '', #472, #473, #474 );
#425 = CARTESIAN_POINT( '', ( 0.000000000000000, 19.5000000000000, 6.00000000000000 ) );
#426 = AXIS2_PLACEMENT_3D( '', #475, #476, #477 );
#427 = COLOUR_RGB( '', 0.689999997600000, 0.689999997600000, 0.689999997600000 );
#428 = CARTESIAN_POINT( '', ( 0.000000000000000, 14.2000000000000, -5.05000000000000 ) );
#429 = AXIS2_PLACEMENT_3D( '', #478, #479, #480 );
#430 = CARTESIAN_POINT( '', ( 0.000000000000000, 9.10000000000000, -5.05000000000000 ) );
#431 = AXIS2_PLACEMENT_3D( '', #481, #482, #483 );
#432 = COLOUR_RGB( '', 0.689999997600000, 0.689999997600000, 0.689999997600000 );
#433 = CARTESIAN_POINT( '', ( 0.000000000000000, 0.000000000000000, -6.00000000000000 ) );
#434 = AXIS2_PLACEMENT_3D( '', #484, #485, #486 );
#435 = CARTESIAN_POINT( '', ( 0.000000000000000, 0.500000000000000, -6.50000000000000 ) );
#436 = AXIS2_PLACEMENT_3D( '', #487, #488, #489 );
#437 = COLOUR_RGB( '', 0.689999997600000, 0.689999997600000, 0.689999997600000 );
#438 = COLOUR_RGB( '', 0.689999997600000, 0.689999997600000, 0.689999997600000 );
#439 = CARTESIAN_POINT( '', ( 0.000000000000000, 16.9000000000000, 6.50000000000000 ) );
#440 = AXIS2_PLACEMENT_3D( '', #490, #491, #492 );
#441 = COLOUR_RGB( '', 0.689999997600000, 0.689999997600000, 0.689999997600000 );
#442 = CARTESIAN_POINT( '', ( -1.30104260698261E-15, 9.10000000000000, -4.62493243193887 ) );
#443 = AXIS2_PLACEMENT_3D( '', #493, #494, #495 );
#444 = COLOUR_RGB( '', 0.689999997600000, 0.689999997600000, 0.689999997600000 );
#445 = CARTESIAN_POINT( '', ( 0.000000000000000, 0.000000000000000, -2.50000000000000 ) );
#446 = AXIS2_PLACEMENT_3D( '', #496, #497, #498 );
#447 = COLOUR_RGB( '', 0.689999997600000, 0.689999997600000, 0.689999997600000 );
#448 = CARTESIAN_POINT( '', ( 0.000000000000000, 14.5000000000000, -5.35000000000000 ) );
#449 = AXIS2_PLACEMENT_3D( '', #499, #500, #501 );
#450 = COLOUR_RGB( '', 0.689999997600000, 0.689999997600000, 0.689999997600000 );
#451 = CARTESIAN_POINT( '', ( 0.000000000000000, 0.433000000000000, -2.06700000000000 ) );
#452 = AXIS2_PLACEMENT_3D( '', #502, #503, #504 );
#453 = COLOUR_RGB( '', 0.689999997600000, 0.689999997600000, 0.689999997600000 );
#454 = CARTESIAN_POINT( '', ( 0.000000000000000, 6.44725236807486, 2.06700000000000 ) );
#455 = AXIS2_PLACEMENT_3D( '', #505, #506, #507 );
#456 = COLOUR_RGB( '', 0.689999997600000, 0.689999997600000, 0.689999997600000 );
#457 = CARTESIAN_POINT( '', ( 0.000000000000000, 14.5000000000000, -6.50000000000000 ) );
#458 = AXIS2_PLACEMENT_3D( '', #508, #509, #510 );
#459 = COLOUR_RGB( '', 0.689999997600000, 0.689999997600000, 0.689999997600000 );
#460 = CARTESIAN_POINT( '', ( 0.000000000000000, 12.2155245781143, 4.85000000000000 ) );
#461 = AXIS2_PLACEMENT_3D( '', #511, #512, #513 );
#462 = COLOUR_RGB( '', 0.689999997600000, 0.689999997600000, 0.689999997600000 );
#463 = COLOUR_RGB( '', 0.689999997600000, 0.689999997600000, 0.689999997600000 );
#464 = COLOUR_RGB( '', 0.689999997600000, 0.689999997600000, 0.689999997600000 );
#465 = COLOUR_RGB( '', 0.689999997600000, 0.689999997600000, 0.689999997600000 );
#466 = CARTESIAN_POINT( '', ( 0.000000000000000, 16.9000000000000, 0.000000000000000 ) );
#467 = DIRECTION( '', ( -0.000000000000000, 1.00000000000000, 0.000000000000000 ) );
#468 = DIRECTION( '', ( 0.000000000000000, 0.000000000000000, 1.00000000000000 ) );
#469 = CARTESIAN_POINT( '', ( 0.000000000000000, 15.4000000000000, 0.000000000000000 ) );
#470 = DIRECTION( '', ( -0.000000000000000, 1.00000000000000, 0.000000000000000 ) );
#471 = DIRECTION( '', ( 0.000000000000000, 0.000000000000000, 1.00000000000000 ) );
#472 = CARTESIAN_POINT( '', ( 0.000000000000000, 19.0000000000000, 0.000000000000000 ) );
#473 = DIRECTION( '', ( -0.000000000000000, 1.00000000000000, 0.000000000000000 ) );
#474 = DIRECTION( '', ( 0.000000000000000, 0.000000000000000, 1.00000000000000 ) );
#475 = CARTESIAN_POINT( '', ( 0.000000000000000, 19.5000000000000, 0.000000000000000 ) );
#476 = DIRECTION( '', ( -0.000000000000000, 1.00000000000000, 0.000000000000000 ) );
#477 = DIRECTION( '', ( 0.000000000000000, 0.000000000000000, 1.00000000000000 ) );
#478 = CARTESIAN_POINT( '', ( 0.000000000000000, 14.2000000000000, 0.000000000000000 ) );
#479 = DIRECTION( '', ( 0.000000000000000, -1.00000000000000, -0.000000000000000 ) );
#480 = DIRECTION( '', ( 0.000000000000000, 0.000000000000000, -1.00000000000000 ) );
#481 = CARTESIAN_POINT( '', ( 0.000000000000000, 9.10000000000000, 0.000000000000000 ) );
#482 = DIRECTION( '', ( 0.000000000000000, -1.00000000000000, -0.000000000000000 ) );
#483 = DIRECTION( '', ( 0.000000000000000, 0.000000000000000, -1.00000000000000 ) );
#484 = CARTESIAN_POINT( '', ( 0.000000000000000, 0.000000000000000, 0.000000000000000 ) );
#485 = DIRECTION( '', ( 0.000000000000000, -1.00000000000000, -0.000000000000000 ) );
#486 = DIRECTION( '', ( 0.000000000000000, 0.000000000000000, -1.00000000000000 ) );
#487 = CARTESIAN_POINT( '', ( 0.000000000000000, 0.500000000000000, 0.000000000000000 ) );
#488 = DIRECTION( '', ( 0.000000000000000, -1.00000000000000, -0.000000000000000 ) );
#489 = DIRECTION( '', ( 0.000000000000000, 0.000000000000000, -1.00000000000000 ) );
#490 = CARTESIAN_POINT( '', ( 0.000000000000000, 16.9000000000000, 0.000000000000000 ) );
#491 = DIRECTION( '', ( -0.000000000000000, 1.00000000000000, 0.000000000000000 ) );
#492 = DIRECTION( '', ( 0.000000000000000, 0.000000000000000, 1.00000000000000 ) );
#493 = CARTESIAN_POINT( '', ( -1.30104260698261E-15, 9.10000000000000, 0.000000000000000 ) );
#494 = DIRECTION( '', ( 0.000000000000000, -1.00000000000000, -0.000000000000000 ) );
#495 = DIRECTION( '', ( 0.000000000000000, 0.000000000000000, -1.00000000000000 ) );
#496 = CARTESIAN_POINT( '', ( 0.000000000000000, 0.000000000000000, 0.000000000000000 ) );
#497 = DIRECTION( '', ( 0.000000000000000, -1.00000000000000, -0.000000000000000 ) );
#498 = DIRECTION( '', ( 0.000000000000000, 0.000000000000000, -1.00000000000000 ) );
#499 = CARTESIAN_POINT( '', ( 0.000000000000000, 14.5000000000000, 0.000000000000000 ) );
#500 = DIRECTION( '', ( 0.000000000000000, -1.00000000000000, -0.000000000000000 ) );
#501 = DIRECTION( '', ( 0.000000000000000, 0.000000000000000, -1.00000000000000 ) );
#502 = CARTESIAN_POINT( '', ( 0.000000000000000, 0.433000000000000, 0.000000000000000 ) );
#503 = DIRECTION( '', ( 0.000000000000000, -1.00000000000000, -0.000000000000000 ) );
#504 = DIRECTION( '', ( 0.000000000000000, 0.000000000000000, -1.00000000000000 ) );
#505 = CARTESIAN_POINT( '', ( 0.000000000000000, 6.44725236807486, 0.000000000000000 ) );
#506 = DIRECTION( '', ( 0.000000000000000, 1.00000000000000, 0.000000000000000 ) );
#507 = DIRECTION( '', ( 0.000000000000000, -0.000000000000000, 1.00000000000000 ) );
#508 = CARTESIAN_POINT( '', ( 0.000000000000000, 14.5000000000000, 0.000000000000000 ) );
#509 = DIRECTION( '', ( 0.000000000000000, -1.00000000000000, -0.000000000000000 ) );
#510 = DIRECTION( '', ( 0.000000000000000, 0.000000000000000, -1.00000000000000 ) );
#511 = CARTESIAN_POINT( '', ( 0.000000000000000, 12.2155245781143, 0.000000000000000 ) );
#512 = DIRECTION( '', ( -0.000000000000000, 1.00000000000000, 0.000000000000000 ) );
#513 = DIRECTION( '', ( 0.000000000000000, 0.000000000000000, 1.00000000000000 ) );
ENDSEC;
END-ISO-10303-21;
