ISO-10303-21;
HEADER;
FILE_DESCRIPTION( ( 'STEP AP214' ), '1' );
FILE_NAME( '//goodhand-server/Shared Folders/GoodHand Data/Kipp CAD/K1129/K1129.102615.stp', '2020-12-10T10:16:06', ( '' ), ( '' ), ' ', 'PARTsolutions', ' ' );
FILE_SCHEMA( ( 'AUTOMOTIVE_DESIGN { 1 0 10303 214 1 1 1 1 }' ) );
ENDSEC;
DATA;
#1 = MECHANICAL_DESIGN_GEOMETRIC_PRESENTATION_REPRESENTATION( ' ', ( #10, #11, #12, #13, #14, #15, #16, #17, #18, #19, #20, #21 ), #6 );
#2 = PRODUCT_DEFINITION_CONTEXT( '', #22, 'design' );
#3 = APPLICATION_PROTOCOL_DEFINITION( 'international standard', 'automotive_design', 2001, #22 );
#4 = PRODUCT_CATEGORY_RELATIONSHIP( 'NONE', 'NONE', #23, #24 );
#5 = SHAPE_DEFINITION_REPRESENTATION( #25, #26 );
#6 =  ( GEOMETRIC_REPRESENTATION_CONTEXT( 3 )GLOBAL_UNCERTAINTY_ASSIGNED_CONTEXT( ( #29 ) )GLOBAL_UNIT_ASSIGNED_CONTEXT( ( #31, #32, #33 ) )REPRESENTATION_CONTEXT( 'NONE', 'WORKSPACE' ) );
#10 = STYLED_ITEM( '', ( #35 ), #36 );
#11 = STYLED_ITEM( '', ( #37 ), #38 );
#12 = STYLED_ITEM( '', ( #39 ), #40 );
#13 = STYLED_ITEM( '', ( #41 ), #42 );
#14 = STYLED_ITEM( '', ( #43 ), #44 );
#15 = STYLED_ITEM( '', ( #45 ), #46 );
#16 = STYLED_ITEM( '', ( #47 ), #48 );
#17 = STYLED_ITEM( '', ( #49 ), #50 );
#18 = STYLED_ITEM( '', ( #51 ), #52 );
#19 = STYLED_ITEM( '', ( #53 ), #54 );
#20 = STYLED_ITEM( '', ( #55 ), #56 );
#21 = STYLED_ITEM( '', ( #57 ), #58 );
#22 = APPLICATION_CONTEXT( 'core data for automotive mechanical design processes' );
#23 = PRODUCT_CATEGORY( 'part', 'NONE' );
#24 = PRODUCT_RELATED_PRODUCT_CATEGORY( 'detail', ' ', ( #59 ) );
#25 = PRODUCT_DEFINITION_SHAPE( 'NONE', 'NONE', #60 );
#26 = ADVANCED_BREP_SHAPE_REPRESENTATION( '_K1129.102615', ( #61, #62 ), #6 );
#29 = UNCERTAINTY_MEASURE_WITH_UNIT( LENGTH_MEASURE( 0.00100000000000000 ), #31, '', '' );
#31 =  ( CONVERSION_BASED_UNIT( 'MILLIMETRE', #65 )LENGTH_UNIT(  )NAMED_UNIT( #68 ) );
#32 =  ( NAMED_UNIT( #70 )PLANE_ANGLE_UNIT(  )SI_UNIT( $, .RADIAN. ) );
#33 =  ( NAMED_UNIT( #70 )SI_UNIT( $, .STERADIAN. )SOLID_ANGLE_UNIT(  ) );
#35 = PRESENTATION_STYLE_ASSIGNMENT( ( #76 ) );
#36 = ADVANCED_FACE( '', ( #77, #78 ), #79, .T. );
#37 = PRESENTATION_STYLE_ASSIGNMENT( ( #80 ) );
#38 = ADVANCED_FACE( '', ( #81 ), #82, .F. );
#39 = PRESENTATION_STYLE_ASSIGNMENT( ( #83 ) );
#40 = ADVANCED_FACE( '', ( #84 ), #85, .T. );
#41 = PRESENTATION_STYLE_ASSIGNMENT( ( #86 ) );
#42 = ADVANCED_FACE( '', ( #87, #88 ), #89, .F. );
#43 = PRESENTATION_STYLE_ASSIGNMENT( ( #90 ) );
#44 = ADVANCED_FACE( '', ( #91 ), #92, .T. );
#45 = PRESENTATION_STYLE_ASSIGNMENT( ( #93 ) );
#46 = ADVANCED_FACE( '', ( #94 ), #95, .F. );
#47 = PRESENTATION_STYLE_ASSIGNMENT( ( #96 ) );
#48 = ADVANCED_FACE( '', ( #97, #98 ), #99, .T. );
#49 = PRESENTATION_STYLE_ASSIGNMENT( ( #100 ) );
#50 = ADVANCED_FACE( '', ( #101 ), #102, .T. );
#51 = PRESENTATION_STYLE_ASSIGNMENT( ( #103 ) );
#52 = ADVANCED_FACE( '', ( #104 ), #105, .T. );
#53 = PRESENTATION_STYLE_ASSIGNMENT( ( #106 ) );
#54 = ADVANCED_FACE( '', ( #107 ), #108, .T. );
#55 = PRESENTATION_STYLE_ASSIGNMENT( ( #109 ) );
#56 = ADVANCED_FACE( '', ( #110, #111 ), #112, .T. );
#57 = PRESENTATION_STYLE_ASSIGNMENT( ( #113 ) );
#58 = ADVANCED_FACE( '', ( #114 ), #115, .T. );
#59 = PRODUCT( '_K1129.102615', '_K1129.102615', 'PART-_K1129.102615-DESC', ( #116 ) );
#60 = PRODUCT_DEFINITION( 'NONE', 'NONE', #117, #2 );
#61 = MANIFOLD_SOLID_BREP( '_K1129.102615', #118 );
#62 = AXIS2_PLACEMENT_3D( '', #119, #120, #121 );
#65 = LENGTH_MEASURE_WITH_UNIT( LENGTH_MEASURE( 1.00000000000000 ), #122 );
#68 = DIMENSIONAL_EXPONENTS( 1.00000000000000, 0.000000000000000, 0.000000000000000, 0.000000000000000, 0.000000000000000, 0.000000000000000, 0.000000000000000 );
#70 = DIMENSIONAL_EXPONENTS( 0.000000000000000, 0.000000000000000, 0.000000000000000, 0.000000000000000, 0.000000000000000, 0.000000000000000, 0.000000000000000 );
#76 = SURFACE_STYLE_USAGE( .BOTH., #123 );
#77 = FACE_BOUND( '', #124, .T. );
#78 = FACE_OUTER_BOUND( '', #125, .T. );
#79 = CONICAL_SURFACE( '', #126, 13.1728522167000, 0.0314159265000000 );
#80 = SURFACE_STYLE_USAGE( .BOTH., #127 );
#81 = FACE_OUTER_BOUND( '', #128, .T. );
#82 = PLANE( '', #129 );
#83 = SURFACE_STYLE_USAGE( .BOTH., #130 );
#84 = FACE_OUTER_BOUND( '', #131, .T. );
#85 = PLANE( '', #132 );
#86 = SURFACE_STYLE_USAGE( .BOTH., #133 );
#87 = FACE_OUTER_BOUND( '', #134, .T. );
#88 = FACE_BOUND( '', #135, .T. );
#89 = PLANE( '', #136 );
#90 = SURFACE_STYLE_USAGE( .BOTH., #137 );
#91 = FACE_OUTER_BOUND( '', #138, .T. );
#92 = PLANE( '', #139 );
#93 = SURFACE_STYLE_USAGE( .BOTH., #140 );
#94 = FACE_OUTER_BOUND( '', #141, .T. );
#95 = PLANE( '', #142 );
#96 = SURFACE_STYLE_USAGE( .BOTH., #143 );
#97 = FACE_BOUND( '', #144, .T. );
#98 = FACE_OUTER_BOUND( '', #145, .T. );
#99 = CONICAL_SURFACE( '', #146, 12.8271477833000, 0.801106126700000 );
#100 = SURFACE_STYLE_USAGE( .BOTH., #147 );
#101 = FACE_OUTER_BOUND( '', #148, .T. );
#102 = PLANE( '', #149 );
#103 = SURFACE_STYLE_USAGE( .BOTH., #150 );
#104 = FACE_OUTER_BOUND( '', #151, .T. );
#105 = PLANE( '', #152 );
#106 = SURFACE_STYLE_USAGE( .BOTH., #153 );
#107 = FACE_OUTER_BOUND( '', #154, .T. );
#108 = PLANE( '', #155 );
#109 = SURFACE_STYLE_USAGE( .BOTH., #156 );
#110 = FACE_OUTER_BOUND( '', #157, .T. );
#111 = FACE_BOUND( '', #158, .T. );
#112 = CONICAL_SURFACE( '', #159, 12.6885575963000, 0.769690200100000 );
#113 = SURFACE_STYLE_USAGE( .BOTH., #160 );
#114 = FACE_OUTER_BOUND( '', #161, .T. );
#115 = PLANE( '', #162 );
#116 = PRODUCT_CONTEXT( '', #22, 'mechanical' );
#117 = PRODUCT_DEFINITION_FORMATION_WITH_SPECIFIED_SOURCE( ' ', 'NONE', #59, .NOT_KNOWN. );
#118 = CLOSED_SHELL( '', ( #56, #42, #40, #44, #58, #46, #48, #36, #54, #50, #52, #38 ) );
#119 = CARTESIAN_POINT( '', ( 0.000000000000000, 0.000000000000000, 0.000000000000000 ) );
#120 = DIRECTION( '', ( 0.000000000000000, 0.000000000000000, 1.00000000000000 ) );
#121 = DIRECTION( '', ( 1.00000000000000, 0.000000000000000, 0.000000000000000 ) );
#122 =  ( LENGTH_UNIT(  )NAMED_UNIT( #68 )SI_UNIT( .MILLI., .METRE. ) );
#123 = SURFACE_SIDE_STYLE( '', ( #164 ) );
#124 = EDGE_LOOP( '', ( #165 ) );
#125 = EDGE_LOOP( '', ( #166 ) );
#126 = AXIS2_PLACEMENT_3D( '', #167, #168, #169 );
#127 = SURFACE_SIDE_STYLE( '', ( #170 ) );
#128 = EDGE_LOOP( '', ( #171, #172, #173, #174, #175, #176 ) );
#129 = AXIS2_PLACEMENT_3D( '', #177, #178, #179 );
#130 = SURFACE_SIDE_STYLE( '', ( #180 ) );
#131 = EDGE_LOOP( '', ( #181, #182, #183, #184 ) );
#132 = AXIS2_PLACEMENT_3D( '', #185, #186, #187 );
#133 = SURFACE_SIDE_STYLE( '', ( #188 ) );
#134 = EDGE_LOOP( '', ( #189 ) );
#135 = EDGE_LOOP( '', ( #190, #191, #192, #193, #194, #195 ) );
#136 = AXIS2_PLACEMENT_3D( '', #196, #197, #198 );
#137 = SURFACE_SIDE_STYLE( '', ( #199 ) );
#138 = EDGE_LOOP( '', ( #200, #201, #202, #203 ) );
#139 = AXIS2_PLACEMENT_3D( '', #204, #205, #206 );
#140 = SURFACE_SIDE_STYLE( '', ( #207 ) );
#141 = EDGE_LOOP( '', ( #208 ) );
#142 = AXIS2_PLACEMENT_3D( '', #209, #210, #211 );
#143 = SURFACE_SIDE_STYLE( '', ( #212 ) );
#144 = EDGE_LOOP( '', ( #213 ) );
#145 = EDGE_LOOP( '', ( #214 ) );
#146 = AXIS2_PLACEMENT_3D( '', #215, #216, #217 );
#147 = SURFACE_SIDE_STYLE( '', ( #218 ) );
#148 = EDGE_LOOP( '', ( #219, #220, #221, #222 ) );
#149 = AXIS2_PLACEMENT_3D( '', #223, #224, #225 );
#150 = SURFACE_SIDE_STYLE( '', ( #226 ) );
#151 = EDGE_LOOP( '', ( #227, #228, #229, #230 ) );
#152 = AXIS2_PLACEMENT_3D( '', #231, #232, #233 );
#153 = SURFACE_SIDE_STYLE( '', ( #234 ) );
#154 = EDGE_LOOP( '', ( #235, #236, #237, #238 ) );
#155 = AXIS2_PLACEMENT_3D( '', #239, #240, #241 );
#156 = SURFACE_SIDE_STYLE( '', ( #242 ) );
#157 = EDGE_LOOP( '', ( #243 ) );
#158 = EDGE_LOOP( '', ( #244 ) );
#159 = AXIS2_PLACEMENT_3D( '', #245, #246, #247 );
#160 = SURFACE_SIDE_STYLE( '', ( #248 ) );
#161 = EDGE_LOOP( '', ( #249, #250, #251, #252 ) );
#162 = AXIS2_PLACEMENT_3D( '', #253, #254, #255 );
#164 = SURFACE_STYLE_FILL_AREA( #256 );
#165 = ORIENTED_EDGE( '', *, *, #257, .F. );
#166 = ORIENTED_EDGE( '', *, *, #258, .T. );
#167 = CARTESIAN_POINT( '', ( 0.499753280182863, 0.000000000000000, 0.000000000000000 ) );
#168 = DIRECTION( '', ( -1.00000000000000, 0.000000000000000, -0.000000000000000 ) );
#169 = DIRECTION( '', ( 0.000000000000000, 0.000000000000000, 1.00000000000000 ) );
#170 = SURFACE_STYLE_FILL_AREA( #259 );
#171 = ORIENTED_EDGE( '', *, *, #260, .F. );
#172 = ORIENTED_EDGE( '', *, *, #261, .F. );
#173 = ORIENTED_EDGE( '', *, *, #262, .F. );
#174 = ORIENTED_EDGE( '', *, *, #263, .F. );
#175 = ORIENTED_EDGE( '', *, *, #264, .F. );
#176 = ORIENTED_EDGE( '', *, *, #265, .F. );
#177 = CARTESIAN_POINT( '', ( 6.00000000000000, 0.000000000000000, 0.000000000000000 ) );
#178 = DIRECTION( '', ( 1.00000000000000, 0.000000000000000, 0.000000000000000 ) );
#179 = DIRECTION( '', ( 0.000000000000000, 0.000000000000000, -1.00000000000000 ) );
#180 = SURFACE_STYLE_FILL_AREA( #266 );
#181 = ORIENTED_EDGE( '', *, *, #267, .F. );
#182 = ORIENTED_EDGE( '', *, *, #268, .F. );
#183 = ORIENTED_EDGE( '', *, *, #265, .T. );
#184 = ORIENTED_EDGE( '', *, *, #269, .T. );
#185 = CARTESIAN_POINT( '', ( 6.00000000000000, -3.46410161513775, 6.00000000000000 ) );
#186 = DIRECTION( '', ( 0.000000000000000, 0.866025403784439, -0.500000000000000 ) );
#187 = DIRECTION( '', ( 0.000000000000000, 0.500000000000000, 0.866025403784439 ) );
#188 = SURFACE_STYLE_FILL_AREA( #270 );
#189 = ORIENTED_EDGE( '', *, *, #271, .F. );
#190 = ORIENTED_EDGE( '', *, *, #272, .T. );
#191 = ORIENTED_EDGE( '', *, *, #267, .T. );
#192 = ORIENTED_EDGE( '', *, *, #273, .T. );
#193 = ORIENTED_EDGE( '', *, *, #274, .T. );
#194 = ORIENTED_EDGE( '', *, *, #275, .T. );
#195 = ORIENTED_EDGE( '', *, *, #276, .T. );
#196 = CARTESIAN_POINT( '', ( -8.54506108940684E-16, 0.000000000000000, 0.000000000000000 ) );
#197 = DIRECTION( '', ( 1.00000000000000, 0.000000000000000, -0.000000000000000 ) );
#198 = DIRECTION( '', ( -0.000000000000000, 0.000000000000000, -1.00000000000000 ) );
#199 = SURFACE_STYLE_FILL_AREA( #277 );
#200 = ORIENTED_EDGE( '', *, *, #273, .F. );
#201 = ORIENTED_EDGE( '', *, *, #269, .F. );
#202 = ORIENTED_EDGE( '', *, *, #264, .T. );
#203 = ORIENTED_EDGE( '', *, *, #278, .T. );
#204 = CARTESIAN_POINT( '', ( 6.00000000000000, -6.92820323027551, 0.000000000000000 ) );
#205 = DIRECTION( '', ( -0.000000000000000, 0.866025403784439, 0.500000000000000 ) );
#206 = DIRECTION( '', ( 0.000000000000000, -0.500000000000000, 0.866025403784439 ) );
#207 = SURFACE_STYLE_FILL_AREA( #279 );
#208 = ORIENTED_EDGE( '', *, *, #280, .T. );
#209 = CARTESIAN_POINT( '', ( 12.0000000000000, 12.3114424037399, 0.000000000000000 ) );
#210 = DIRECTION( '', ( -1.00000000000000, 0.000000000000000, 0.000000000000000 ) );
#211 = DIRECTION( '', ( 0.000000000000000, 0.000000000000000, 1.00000000000000 ) );
#212 = SURFACE_STYLE_FILL_AREA( #281 );
#213 = ORIENTED_EDGE( '', *, *, #280, .F. );
#214 = ORIENTED_EDGE( '', *, *, #257, .T. );
#215 = CARTESIAN_POINT( '', ( 11.5002467198171, 0.000000000000000, 0.000000000000000 ) );
#216 = DIRECTION( '', ( -1.00000000000000, 0.000000000000000, -0.000000000000000 ) );
#217 = DIRECTION( '', ( 0.000000000000000, 0.000000000000000, 1.00000000000000 ) );
#218 = SURFACE_STYLE_FILL_AREA( #282 );
#219 = ORIENTED_EDGE( '', *, *, #275, .F. );
#220 = ORIENTED_EDGE( '', *, *, #283, .F. );
#221 = ORIENTED_EDGE( '', *, *, #262, .T. );
#222 = ORIENTED_EDGE( '', *, *, #284, .T. );
#223 = CARTESIAN_POINT( '', ( 6.00000000000000, 3.46410161513775, -6.00000000000000 ) );
#224 = DIRECTION( '', ( 0.000000000000000, -0.866025403784439, 0.500000000000000 ) );
#225 = DIRECTION( '', ( 0.000000000000000, -0.500000000000000, -0.866025403784439 ) );
#226 = SURFACE_STYLE_FILL_AREA( #285 );
#227 = ORIENTED_EDGE( '', *, *, #276, .F. );
#228 = ORIENTED_EDGE( '', *, *, #284, .F. );
#229 = ORIENTED_EDGE( '', *, *, #261, .T. );
#230 = ORIENTED_EDGE( '', *, *, #286, .T. );
#231 = CARTESIAN_POINT( '', ( 6.00000000000000, 6.92820323027551, 0.000000000000000 ) );
#232 = DIRECTION( '', ( 0.000000000000000, -0.866025403784439, -0.500000000000000 ) );
#233 = DIRECTION( '', ( 0.000000000000000, 0.500000000000000, -0.866025403784439 ) );
#234 = SURFACE_STYLE_FILL_AREA( #287 );
#235 = ORIENTED_EDGE( '', *, *, #274, .F. );
#236 = ORIENTED_EDGE( '', *, *, #278, .F. );
#237 = ORIENTED_EDGE( '', *, *, #263, .T. );
#238 = ORIENTED_EDGE( '', *, *, #283, .T. );
#239 = CARTESIAN_POINT( '', ( 6.00000000000000, -3.46410161513775, -6.00000000000000 ) );
#240 = DIRECTION( '', ( 0.000000000000000, 0.000000000000000, 1.00000000000000 ) );
#241 = DIRECTION( '', ( 1.00000000000000, 0.000000000000000, -0.000000000000000 ) );
#242 = SURFACE_STYLE_FILL_AREA( #288 );
#243 = ORIENTED_EDGE( '', *, *, #258, .F. );
#244 = ORIENTED_EDGE( '', *, *, #271, .T. );
#245 = CARTESIAN_POINT( '', ( -1.73472347597681E-15, 0.000000000000000, 0.000000000000000 ) );
#246 = DIRECTION( '', ( 1.00000000000000, -0.000000000000000, -0.000000000000000 ) );
#247 = DIRECTION( '', ( -0.000000000000000, 0.000000000000000, -1.00000000000000 ) );
#248 = SURFACE_STYLE_FILL_AREA( #289 );
#249 = ORIENTED_EDGE( '', *, *, #272, .F. );
#250 = ORIENTED_EDGE( '', *, *, #286, .F. );
#251 = ORIENTED_EDGE( '', *, *, #260, .T. );
#252 = ORIENTED_EDGE( '', *, *, #268, .T. );
#253 = CARTESIAN_POINT( '', ( 6.00000000000000, 3.46410161513775, 6.00000000000000 ) );
#254 = DIRECTION( '', ( 0.000000000000000, 0.000000000000000, -1.00000000000000 ) );
#255 = DIRECTION( '', ( -1.00000000000000, 0.000000000000000, 0.000000000000000 ) );
#256 = FILL_AREA_STYLE( '', ( #290 ) );
#257 = EDGE_CURVE( '', #291, #291, #292, .T. );
#258 = EDGE_CURVE( '', #293, #293, #294, .T. );
#259 = FILL_AREA_STYLE( '', ( #295 ) );
#260 = EDGE_CURVE( '', #296, #297, #298, .T. );
#261 = EDGE_CURVE( '', #299, #296, #300, .T. );
#262 = EDGE_CURVE( '', #301, #299, #302, .T. );
#263 = EDGE_CURVE( '', #303, #301, #304, .T. );
#264 = EDGE_CURVE( '', #305, #303, #306, .T. );
#265 = EDGE_CURVE( '', #297, #305, #307, .T. );
#266 = FILL_AREA_STYLE( '', ( #308 ) );
#267 = EDGE_CURVE( '', #309, #310, #311, .T. );
#268 = EDGE_CURVE( '', #297, #309, #312, .T. );
#269 = EDGE_CURVE( '', #305, #310, #313, .T. );
#270 = FILL_AREA_STYLE( '', ( #314 ) );
#271 = EDGE_CURVE( '', #315, #315, #316, .T. );
#272 = EDGE_CURVE( '', #317, #309, #318, .T. );
#273 = EDGE_CURVE( '', #310, #319, #320, .T. );
#274 = EDGE_CURVE( '', #319, #321, #322, .T. );
#275 = EDGE_CURVE( '', #321, #323, #324, .T. );
#276 = EDGE_CURVE( '', #323, #317, #325, .T. );
#277 = FILL_AREA_STYLE( '', ( #326 ) );
#278 = EDGE_CURVE( '', #303, #319, #327, .T. );
#279 = FILL_AREA_STYLE( '', ( #328 ) );
#280 = EDGE_CURVE( '', #329, #329, #330, .T. );
#281 = FILL_AREA_STYLE( '', ( #331 ) );
#282 = FILL_AREA_STYLE( '', ( #332 ) );
#283 = EDGE_CURVE( '', #301, #321, #333, .T. );
#284 = EDGE_CURVE( '', #299, #323, #334, .T. );
#285 = FILL_AREA_STYLE( '', ( #335 ) );
#286 = EDGE_CURVE( '', #296, #317, #336, .T. );
#287 = FILL_AREA_STYLE( '', ( #337 ) );
#288 = FILL_AREA_STYLE( '', ( #338 ) );
#289 = FILL_AREA_STYLE( '', ( #339 ) );
#290 = FILL_AREA_STYLE_COLOUR( '', #340 );
#291 = VERTEX_POINT( '', #341 );
#292 = CIRCLE( '', #342, 12.8271477833000 );
#293 = VERTEX_POINT( '', #343 );
#294 = CIRCLE( '', #344, 13.1728522167000 );
#295 = FILL_AREA_STYLE_COLOUR( '', #345 );
#296 = VERTEX_POINT( '', #346 );
#297 = VERTEX_POINT( '', #347 );
#298 = LINE( '', #348, #349 );
#299 = VERTEX_POINT( '', #350 );
#300 = LINE( '', #351, #352 );
#301 = VERTEX_POINT( '', #353 );
#302 = LINE( '', #354, #355 );
#303 = VERTEX_POINT( '', #356 );
#304 = LINE( '', #357, #358 );
#305 = VERTEX_POINT( '', #359 );
#306 = LINE( '', #360, #361 );
#307 = LINE( '', #362, #363 );
#308 = FILL_AREA_STYLE_COLOUR( '', #364 );
#309 = VERTEX_POINT( '', #365 );
#310 = VERTEX_POINT( '', #366 );
#311 = LINE( '', #367, #368 );
#312 = LINE( '', #369, #370 );
#313 = LINE( '', #371, #372 );
#314 = FILL_AREA_STYLE_COLOUR( '', #373 );
#315 = VERTEX_POINT( '', #374 );
#316 = CIRCLE( '', #375, 12.6885575963000 );
#317 = VERTEX_POINT( '', #376 );
#318 = LINE( '', #377, #378 );
#319 = VERTEX_POINT( '', #379 );
#320 = LINE( '', #380, #381 );
#321 = VERTEX_POINT( '', #382 );
#322 = LINE( '', #383, #384 );
#323 = VERTEX_POINT( '', #385 );
#324 = LINE( '', #386, #387 );
#325 = LINE( '', #388, #389 );
#326 = FILL_AREA_STYLE_COLOUR( '', #390 );
#327 = LINE( '', #391, #392 );
#328 = FILL_AREA_STYLE_COLOUR( '', #393 );
#329 = VERTEX_POINT( '', #394 );
#330 = CIRCLE( '', #395, 12.3114424037000 );
#331 = FILL_AREA_STYLE_COLOUR( '', #396 );
#332 = FILL_AREA_STYLE_COLOUR( '', #397 );
#333 = LINE( '', #398, #399 );
#334 = LINE( '', #400, #401 );
#335 = FILL_AREA_STYLE_COLOUR( '', #402 );
#336 = LINE( '', #403, #404 );
#337 = FILL_AREA_STYLE_COLOUR( '', #405 );
#338 = FILL_AREA_STYLE_COLOUR( '', #406 );
#339 = FILL_AREA_STYLE_COLOUR( '', #407 );
#340 = COLOUR_RGB( '', 0.689999997600000, 0.689999997600000, 0.689999997600000 );
#341 = CARTESIAN_POINT( '', ( 11.5002467198171, 0.000000000000000, -12.8271477832790 ) );
#342 = AXIS2_PLACEMENT_3D( '', #408, #409, #410 );
#343 = CARTESIAN_POINT( '', ( 0.499753280182863, 0.000000000000000, -13.1728522167210 ) );
#344 = AXIS2_PLACEMENT_3D( '', #411, #412, #413 );
#345 = COLOUR_RGB( '', 0.689999997600000, 0.689999997600000, 0.689999997600000 );
#346 = CARTESIAN_POINT( '', ( 6.00000000000000, 3.46410161513775, 6.00000000000000 ) );
#347 = CARTESIAN_POINT( '', ( 6.00000000000000, -3.46410161513775, 6.00000000000000 ) );
#348 = CARTESIAN_POINT( '', ( 6.00000000000000, 3.46410161513775, 6.00000000000000 ) );
#349 = VECTOR( '', #414, 1000.00000000000 );
#350 = CARTESIAN_POINT( '', ( 6.00000000000000, 6.92820323027551, 0.000000000000000 ) );
#351 = CARTESIAN_POINT( '', ( 6.00000000000000, 6.92820323027551, 0.000000000000000 ) );
#352 = VECTOR( '', #415, 1000.00000000000 );
#353 = CARTESIAN_POINT( '', ( 6.00000000000000, 3.46410161513775, -6.00000000000000 ) );
#354 = CARTESIAN_POINT( '', ( 6.00000000000000, 3.46410161513775, -6.00000000000000 ) );
#355 = VECTOR( '', #416, 1000.00000000000 );
#356 = CARTESIAN_POINT( '', ( 6.00000000000000, -3.46410161513775, -6.00000000000000 ) );
#357 = CARTESIAN_POINT( '', ( 6.00000000000000, -3.46410161513775, -6.00000000000000 ) );
#358 = VECTOR( '', #417, 1000.00000000000 );
#359 = CARTESIAN_POINT( '', ( 6.00000000000000, -6.92820323027551, 0.000000000000000 ) );
#360 = CARTESIAN_POINT( '', ( 6.00000000000000, -6.92820323027551, 0.000000000000000 ) );
#361 = VECTOR( '', #418, 1000.00000000000 );
#362 = CARTESIAN_POINT( '', ( 6.00000000000000, -3.46410161513775, 6.00000000000000 ) );
#363 = VECTOR( '', #419, 1000.00000000000 );
#364 = COLOUR_RGB( '', 0.689999997600000, 0.689999997600000, 0.689999997600000 );
#365 = CARTESIAN_POINT( '', ( 0.000000000000000, -3.46410161513775, 6.00000000000000 ) );
#366 = CARTESIAN_POINT( '', ( 0.000000000000000, -6.92820323027551, 0.000000000000000 ) );
#367 = CARTESIAN_POINT( '', ( 0.000000000000000, -3.46410161513775, 6.00000000000000 ) );
#368 = VECTOR( '', #420, 1000.00000000000 );
#369 = CARTESIAN_POINT( '', ( 6.00000000000000, -3.46410161513775, 6.00000000000000 ) );
#370 = VECTOR( '', #421, 1000.00000000000 );
#371 = CARTESIAN_POINT( '', ( 6.00000000000000, -6.92820323027551, 0.000000000000000 ) );
#372 = VECTOR( '', #422, 1000.00000000000 );
#373 = COLOUR_RGB( '', 0.689999997600000, 0.689999997600000, 0.689999997600000 );
#374 = CARTESIAN_POINT( '', ( -1.73472347597681E-15, 0.000000000000000, -12.6885575962601 ) );
#375 = AXIS2_PLACEMENT_3D( '', #423, #424, #425 );
#376 = CARTESIAN_POINT( '', ( -8.54506108940684E-16, 3.46410161513776, 6.00000000000000 ) );
#377 = CARTESIAN_POINT( '', ( 0.000000000000000, 3.46410161513775, 6.00000000000000 ) );
#378 = VECTOR( '', #426, 1000.00000000000 );
#379 = CARTESIAN_POINT( '', ( 0.000000000000000, -3.46410161513775, -6.00000000000000 ) );
#380 = CARTESIAN_POINT( '', ( 0.000000000000000, -6.92820323027551, 0.000000000000000 ) );
#381 = VECTOR( '', #427, 1000.00000000000 );
#382 = CARTESIAN_POINT( '', ( 0.000000000000000, 3.46410161513775, -6.00000000000000 ) );
#383 = CARTESIAN_POINT( '', ( 0.000000000000000, -3.46410161513775, -6.00000000000000 ) );
#384 = VECTOR( '', #428, 1000.00000000000 );
#385 = CARTESIAN_POINT( '', ( 0.000000000000000, 6.92820323027551, 0.000000000000000 ) );
#386 = CARTESIAN_POINT( '', ( 0.000000000000000, 3.46410161513775, -6.00000000000000 ) );
#387 = VECTOR( '', #429, 1000.00000000000 );
#388 = CARTESIAN_POINT( '', ( 0.000000000000000, 6.92820323027551, 0.000000000000000 ) );
#389 = VECTOR( '', #430, 1000.00000000000 );
#390 = COLOUR_RGB( '', 0.689999997600000, 0.689999997600000, 0.689999997600000 );
#391 = CARTESIAN_POINT( '', ( 6.00000000000000, -3.46410161513775, -6.00000000000000 ) );
#392 = VECTOR( '', #431, 1000.00000000000 );
#393 = COLOUR_RGB( '', 0.689999997600000, 0.689999997600000, 0.689999997600000 );
#394 = CARTESIAN_POINT( '', ( 12.0000000000000, 0.000000000000000, -12.3114424037399 ) );
#395 = AXIS2_PLACEMENT_3D( '', #432, #433, #434 );
#396 = COLOUR_RGB( '', 0.689999997600000, 0.689999997600000, 0.689999997600000 );
#397 = COLOUR_RGB( '', 0.689999997600000, 0.689999997600000, 0.689999997600000 );
#398 = CARTESIAN_POINT( '', ( 6.00000000000000, 3.46410161513775, -6.00000000000000 ) );
#399 = VECTOR( '', #435, 1000.00000000000 );
#400 = CARTESIAN_POINT( '', ( 6.00000000000000, 6.92820323027551, 0.000000000000000 ) );
#401 = VECTOR( '', #436, 1000.00000000000 );
#402 = COLOUR_RGB( '', 0.689999997600000, 0.689999997600000, 0.689999997600000 );
#403 = CARTESIAN_POINT( '', ( 6.00000000000000, 3.46410161513775, 6.00000000000000 ) );
#404 = VECTOR( '', #437, 1000.00000000000 );
#405 = COLOUR_RGB( '', 0.689999997600000, 0.689999997600000, 0.689999997600000 );
#406 = COLOUR_RGB( '', 0.689999997600000, 0.689999997600000, 0.689999997600000 );
#407 = COLOUR_RGB( '', 0.689999997600000, 0.689999997600000, 0.689999997600000 );
#408 = CARTESIAN_POINT( '', ( 11.5002467198171, 0.000000000000000, 0.000000000000000 ) );
#409 = DIRECTION( '', ( 1.00000000000000, 0.000000000000000, -0.000000000000000 ) );
#410 = DIRECTION( '', ( -0.000000000000000, 0.000000000000000, -1.00000000000000 ) );
#411 = CARTESIAN_POINT( '', ( 0.499753280182863, 0.000000000000000, 0.000000000000000 ) );
#412 = DIRECTION( '', ( 1.00000000000000, 0.000000000000000, -0.000000000000000 ) );
#413 = DIRECTION( '', ( -0.000000000000000, 0.000000000000000, -1.00000000000000 ) );
#414 = DIRECTION( '', ( 0.000000000000000, -1.00000000000000, 0.000000000000000 ) );
#415 = DIRECTION( '', ( 0.000000000000000, -0.500000000000000, 0.866025403784439 ) );
#416 = DIRECTION( '', ( 0.000000000000000, 0.500000000000000, 0.866025403784439 ) );
#417 = DIRECTION( '', ( 0.000000000000000, 1.00000000000000, 0.000000000000000 ) );
#418 = DIRECTION( '', ( 0.000000000000000, 0.500000000000000, -0.866025403784439 ) );
#419 = DIRECTION( '', ( 0.000000000000000, -0.500000000000000, -0.866025403784439 ) );
#420 = DIRECTION( '', ( 0.000000000000000, -0.500000000000000, -0.866025403784439 ) );
#421 = DIRECTION( '', ( -1.00000000000000, -0.000000000000000, -0.000000000000000 ) );
#422 = DIRECTION( '', ( -1.00000000000000, -0.000000000000000, -0.000000000000000 ) );
#423 = CARTESIAN_POINT( '', ( -1.73472347597681E-15, 0.000000000000000, 0.000000000000000 ) );
#424 = DIRECTION( '', ( 1.00000000000000, 0.000000000000000, -0.000000000000000 ) );
#425 = DIRECTION( '', ( -0.000000000000000, 0.000000000000000, -1.00000000000000 ) );
#426 = DIRECTION( '', ( 0.000000000000000, -1.00000000000000, 0.000000000000000 ) );
#427 = DIRECTION( '', ( 0.000000000000000, 0.500000000000000, -0.866025403784439 ) );
#428 = DIRECTION( '', ( 0.000000000000000, 1.00000000000000, 0.000000000000000 ) );
#429 = DIRECTION( '', ( 0.000000000000000, 0.500000000000000, 0.866025403784439 ) );
#430 = DIRECTION( '', ( 0.000000000000000, -0.500000000000000, 0.866025403784439 ) );
#431 = DIRECTION( '', ( -1.00000000000000, -0.000000000000000, -0.000000000000000 ) );
#432 = CARTESIAN_POINT( '', ( 12.0000000000000, 0.000000000000000, 0.000000000000000 ) );
#433 = DIRECTION( '', ( 1.00000000000000, 0.000000000000000, -0.000000000000000 ) );
#434 = DIRECTION( '', ( -0.000000000000000, 0.000000000000000, -1.00000000000000 ) );
#435 = DIRECTION( '', ( -1.00000000000000, -0.000000000000000, -0.000000000000000 ) );
#436 = DIRECTION( '', ( -1.00000000000000, -0.000000000000000, -0.000000000000000 ) );
#437 = DIRECTION( '', ( -1.00000000000000, -0.000000000000000, -0.000000000000000 ) );
ENDSEC;
END-ISO-10303-21;
