ISO-10303-21;
HEADER;
FILE_DESCRIPTION( ( 'STEP AP214' ), '1' );
FILE_NAME( '//goodhand-server/Shared Folders/GoodHand Data/Kipp CAD/K0696/K0696.04X10.stp', '2020-12-09T11:53:15', ( '' ), ( '' ), ' ', 'PARTsolutions', ' ' );
FILE_SCHEMA( ( 'AUTOMOTIVE_DESIGN { 1 0 10303 214 1 1 1 1 }' ) );
ENDSEC;
DATA;
#1 = MECHANICAL_DESIGN_GEOMETRIC_PRESENTATION_REPRESENTATION( ' ', ( #10, #11, #12, #13, #14, #15 ), #6 );
#2 = PRODUCT_DEFINITION_CONTEXT( '', #16, 'design' );
#3 = APPLICATION_PROTOCOL_DEFINITION( 'international standard', 'automotive_design', 2001, #16 );
#4 = PRODUCT_CATEGORY_RELATIONSHIP( 'NONE', 'NONE', #17, #18 );
#5 = SHAPE_DEFINITION_REPRESENTATION( #19, #20 );
#6 =  ( GEOMETRIC_REPRESENTATION_CONTEXT( 3 )GLOBAL_UNCERTAINTY_ASSIGNED_CONTEXT( ( #23 ) )GLOBAL_UNIT_ASSIGNED_CONTEXT( ( #25, #26, #27 ) )REPRESENTATION_CONTEXT( 'NONE', 'WORKSPACE' ) );
#10 = STYLED_ITEM( '', ( #29 ), #30 );
#11 = STYLED_ITEM( '', ( #31 ), #32 );
#12 = STYLED_ITEM( '', ( #33 ), #34 );
#13 = STYLED_ITEM( '', ( #35 ), #36 );
#14 = STYLED_ITEM( '', ( #37 ), #38 );
#15 = STYLED_ITEM( '', ( #39 ), #40 );
#16 = APPLICATION_CONTEXT( 'core data for automotive mechanical design processes' );
#17 = PRODUCT_CATEGORY( 'part', 'NONE' );
#18 = PRODUCT_RELATED_PRODUCT_CATEGORY( 'detail', ' ', ( #41 ) );
#19 = PRODUCT_DEFINITION_SHAPE( 'NONE', 'NONE', #42 );
#20 = ADVANCED_BREP_SHAPE_REPRESENTATION( '_K0696.04X10', ( #43, #44 ), #6 );
#23 = UNCERTAINTY_MEASURE_WITH_UNIT( LENGTH_MEASURE( 0.00100000000000000 ), #25, '', '' );
#25 =  ( CONVERSION_BASED_UNIT( 'MILLIMETRE', #47 )LENGTH_UNIT(  )NAMED_UNIT( #50 ) );
#26 =  ( NAMED_UNIT( #52 )PLANE_ANGLE_UNIT(  )SI_UNIT( $, .RADIAN. ) );
#27 =  ( NAMED_UNIT( #52 )SI_UNIT( $, .STERADIAN. )SOLID_ANGLE_UNIT(  ) );
#29 = PRESENTATION_STYLE_ASSIGNMENT( ( #58 ) );
#30 = ADVANCED_FACE( '', ( #59 ), #60, .F. );
#31 = PRESENTATION_STYLE_ASSIGNMENT( ( #61 ) );
#32 = ADVANCED_FACE( '', ( #62 ), #63, .T. );
#33 = PRESENTATION_STYLE_ASSIGNMENT( ( #64 ) );
#34 = ADVANCED_FACE( '', ( #65 ), #66, .T. );
#35 = PRESENTATION_STYLE_ASSIGNMENT( ( #67 ) );
#36 = ADVANCED_FACE( '', ( #68 ), #69, .F. );
#37 = PRESENTATION_STYLE_ASSIGNMENT( ( #70 ) );
#38 = ADVANCED_FACE( '', ( #71 ), #72, .T. );
#39 = PRESENTATION_STYLE_ASSIGNMENT( ( #73 ) );
#40 = ADVANCED_FACE( '', ( #74 ), #75, .F. );
#41 = PRODUCT( '_K0696.04X10', '_K0696.04X10', 'PART-_K0696.04X10-DESC', ( #76 ) );
#42 = PRODUCT_DEFINITION( 'NONE', 'NONE', #77, #2 );
#43 = MANIFOLD_SOLID_BREP( '_K0696.04X10', #78 );
#44 = AXIS2_PLACEMENT_3D( '', #79, #80, #81 );
#47 = LENGTH_MEASURE_WITH_UNIT( LENGTH_MEASURE( 1.00000000000000 ), #82 );
#50 = DIMENSIONAL_EXPONENTS( 1.00000000000000, 0.000000000000000, 0.000000000000000, 0.000000000000000, 0.000000000000000, 0.000000000000000, 0.000000000000000 );
#52 = DIMENSIONAL_EXPONENTS( 0.000000000000000, 0.000000000000000, 0.000000000000000, 0.000000000000000, 0.000000000000000, 0.000000000000000, 0.000000000000000 );
#58 = SURFACE_STYLE_USAGE( .BOTH., #83 );
#59 = FACE_OUTER_BOUND( '', #84, .T. );
#60 = PLANE( '', #85 );
#61 = SURFACE_STYLE_USAGE( .BOTH., #86 );
#62 = FACE_OUTER_BOUND( '', #87, .T. );
#63 = CYLINDRICAL_SURFACE( '', #88, 2.00000000000000 );
#64 = SURFACE_STYLE_USAGE( .BOTH., #89 );
#65 = FACE_OUTER_BOUND( '', #90, .T. );
#66 = CYLINDRICAL_SURFACE( '', #91, 2.00000000000000 );
#67 = SURFACE_STYLE_USAGE( .BOTH., #92 );
#68 = FACE_OUTER_BOUND( '', #93, .T. );
#69 = PLANE( '', #94 );
#70 = SURFACE_STYLE_USAGE( .BOTH., #95 );
#71 = FACE_OUTER_BOUND( '', #96, .T. );
#72 = PLANE( '', #97 );
#73 = SURFACE_STYLE_USAGE( .BOTH., #98 );
#74 = FACE_OUTER_BOUND( '', #99, .T. );
#75 = PLANE( '', #100 );
#76 = PRODUCT_CONTEXT( '', #16, 'mechanical' );
#77 = PRODUCT_DEFINITION_FORMATION_WITH_SPECIFIED_SOURCE( ' ', 'NONE', #41, .NOT_KNOWN. );
#78 = CLOSED_SHELL( '', ( #30, #38, #34, #40, #32, #36 ) );
#79 = CARTESIAN_POINT( '', ( 0.000000000000000, 0.000000000000000, 0.000000000000000 ) );
#80 = DIRECTION( '', ( 0.000000000000000, 0.000000000000000, 1.00000000000000 ) );
#81 = DIRECTION( '', ( 1.00000000000000, 0.000000000000000, 0.000000000000000 ) );
#82 =  ( LENGTH_UNIT(  )NAMED_UNIT( #50 )SI_UNIT( .MILLI., .METRE. ) );
#83 = SURFACE_SIDE_STYLE( '', ( #102 ) );
#84 = EDGE_LOOP( '', ( #103, #104, #105, #106 ) );
#85 = AXIS2_PLACEMENT_3D( '', #107, #108, #109 );
#86 = SURFACE_SIDE_STYLE( '', ( #110 ) );
#87 = EDGE_LOOP( '', ( #111, #112, #113, #114 ) );
#88 = AXIS2_PLACEMENT_3D( '', #115, #116, #117 );
#89 = SURFACE_SIDE_STYLE( '', ( #118 ) );
#90 = EDGE_LOOP( '', ( #119, #120, #121, #122 ) );
#91 = AXIS2_PLACEMENT_3D( '', #123, #124, #125 );
#92 = SURFACE_SIDE_STYLE( '', ( #126 ) );
#93 = EDGE_LOOP( '', ( #127, #128, #129, #130 ) );
#94 = AXIS2_PLACEMENT_3D( '', #131, #132, #133 );
#95 = SURFACE_SIDE_STYLE( '', ( #134 ) );
#96 = EDGE_LOOP( '', ( #135, #136, #137, #138 ) );
#97 = AXIS2_PLACEMENT_3D( '', #139, #140, #141 );
#98 = SURFACE_SIDE_STYLE( '', ( #142 ) );
#99 = EDGE_LOOP( '', ( #143, #144, #145, #146 ) );
#100 = AXIS2_PLACEMENT_3D( '', #147, #148, #149 );
#102 = SURFACE_STYLE_FILL_AREA( #150 );
#103 = ORIENTED_EDGE( '', *, *, #151, .F. );
#104 = ORIENTED_EDGE( '', *, *, #152, .F. );
#105 = ORIENTED_EDGE( '', *, *, #153, .F. );
#106 = ORIENTED_EDGE( '', *, *, #154, .F. );
#107 = CARTESIAN_POINT( '', ( -3.00000000000000, -2.00000000000000, -2.16840434497101E-15 ) );
#108 = DIRECTION( '', ( 0.000000000000000, 1.00000000000000, 0.000000000000000 ) );
#109 = DIRECTION( '', ( 0.000000000000000, -0.000000000000000, 1.00000000000000 ) );
#110 = SURFACE_STYLE_FILL_AREA( #155 );
#111 = ORIENTED_EDGE( '', *, *, #153, .T. );
#112 = ORIENTED_EDGE( '', *, *, #156, .F. );
#113 = ORIENTED_EDGE( '', *, *, #157, .F. );
#114 = ORIENTED_EDGE( '', *, *, #158, .T. );
#115 = CARTESIAN_POINT( '', ( 3.00000000000000, 2.00000000000000, -2.16840434497101E-15 ) );
#116 = DIRECTION( '', ( -0.000000000000000, 1.00000000000000, 0.000000000000000 ) );
#117 = DIRECTION( '', ( 0.000000000000000, 0.000000000000000, -1.00000000000000 ) );
#118 = SURFACE_STYLE_FILL_AREA( #159 );
#119 = ORIENTED_EDGE( '', *, *, #151, .T. );
#120 = ORIENTED_EDGE( '', *, *, #160, .F. );
#121 = ORIENTED_EDGE( '', *, *, #161, .F. );
#122 = ORIENTED_EDGE( '', *, *, #162, .T. );
#123 = CARTESIAN_POINT( '', ( -3.00000000000000, 2.00000000000000, 2.16840434497101E-15 ) );
#124 = DIRECTION( '', ( -0.000000000000000, 1.00000000000000, 0.000000000000000 ) );
#125 = DIRECTION( '', ( 0.000000000000000, 0.000000000000000, -1.00000000000000 ) );
#126 = SURFACE_STYLE_FILL_AREA( #163 );
#127 = ORIENTED_EDGE( '', *, *, #152, .T. );
#128 = ORIENTED_EDGE( '', *, *, #162, .F. );
#129 = ORIENTED_EDGE( '', *, *, #164, .F. );
#130 = ORIENTED_EDGE( '', *, *, #156, .T. );
#131 = CARTESIAN_POINT( '', ( 3.00000000000000, 2.00000000000000, -2.00000000000000 ) );
#132 = DIRECTION( '', ( 0.000000000000000, -0.000000000000000, 1.00000000000000 ) );
#133 = DIRECTION( '', ( 1.00000000000000, 0.000000000000000, -0.000000000000000 ) );
#134 = SURFACE_STYLE_FILL_AREA( #165 );
#135 = ORIENTED_EDGE( '', *, *, #161, .T. );
#136 = ORIENTED_EDGE( '', *, *, #166, .T. );
#137 = ORIENTED_EDGE( '', *, *, #157, .T. );
#138 = ORIENTED_EDGE( '', *, *, #164, .T. );
#139 = CARTESIAN_POINT( '', ( -3.00000000000000, 2.00000000000000, -2.16840434497101E-15 ) );
#140 = DIRECTION( '', ( 0.000000000000000, 1.00000000000000, 0.000000000000000 ) );
#141 = DIRECTION( '', ( 0.000000000000000, -0.000000000000000, 1.00000000000000 ) );
#142 = SURFACE_STYLE_FILL_AREA( #167 );
#143 = ORIENTED_EDGE( '', *, *, #154, .T. );
#144 = ORIENTED_EDGE( '', *, *, #158, .F. );
#145 = ORIENTED_EDGE( '', *, *, #166, .F. );
#146 = ORIENTED_EDGE( '', *, *, #160, .T. );
#147 = CARTESIAN_POINT( '', ( -3.00000000000000, 2.00000000000000, 2.00000000000000 ) );
#148 = DIRECTION( '', ( 0.000000000000000, 0.000000000000000, -1.00000000000000 ) );
#149 = DIRECTION( '', ( -1.00000000000000, 0.000000000000000, 0.000000000000000 ) );
#150 = FILL_AREA_STYLE( '', ( #168 ) );
#151 = EDGE_CURVE( '', #169, #170, #171, .T. );
#152 = EDGE_CURVE( '', #172, #169, #173, .T. );
#153 = EDGE_CURVE( '', #174, #172, #175, .T. );
#154 = EDGE_CURVE( '', #170, #174, #176, .T. );
#155 = FILL_AREA_STYLE( '', ( #177 ) );
#156 = EDGE_CURVE( '', #178, #172, #179, .T. );
#157 = EDGE_CURVE( '', #180, #178, #181, .T. );
#158 = EDGE_CURVE( '', #180, #174, #182, .T. );
#159 = FILL_AREA_STYLE( '', ( #183 ) );
#160 = EDGE_CURVE( '', #184, #170, #185, .T. );
#161 = EDGE_CURVE( '', #186, #184, #187, .T. );
#162 = EDGE_CURVE( '', #186, #169, #188, .T. );
#163 = FILL_AREA_STYLE( '', ( #189 ) );
#164 = EDGE_CURVE( '', #178, #186, #190, .T. );
#165 = FILL_AREA_STYLE( '', ( #191 ) );
#166 = EDGE_CURVE( '', #184, #180, #192, .T. );
#167 = FILL_AREA_STYLE( '', ( #193 ) );
#168 = FILL_AREA_STYLE_COLOUR( '', #194 );
#169 = VERTEX_POINT( '', #195 );
#170 = VERTEX_POINT( '', #196 );
#171 = CIRCLE( '', #197, 2.00000000000000 );
#172 = VERTEX_POINT( '', #198 );
#173 = LINE( '', #199, #200 );
#174 = VERTEX_POINT( '', #201 );
#175 = CIRCLE( '', #202, 2.00000000000000 );
#176 = LINE( '', #203, #204 );
#177 = FILL_AREA_STYLE_COLOUR( '', #205 );
#178 = VERTEX_POINT( '', #206 );
#179 = LINE( '', #207, #208 );
#180 = VERTEX_POINT( '', #209 );
#181 = CIRCLE( '', #210, 2.00000000000000 );
#182 = LINE( '', #211, #212 );
#183 = FILL_AREA_STYLE_COLOUR( '', #213 );
#184 = VERTEX_POINT( '', #214 );
#185 = LINE( '', #215, #216 );
#186 = VERTEX_POINT( '', #217 );
#187 = CIRCLE( '', #218, 2.00000000000000 );
#188 = LINE( '', #219, #220 );
#189 = FILL_AREA_STYLE_COLOUR( '', #221 );
#190 = LINE( '', #222, #223 );
#191 = FILL_AREA_STYLE_COLOUR( '', #224 );
#192 = LINE( '', #225, #226 );
#193 = FILL_AREA_STYLE_COLOUR( '', #227 );
#194 = COLOUR_RGB( '', 0.689999997600000, 0.689999997600000, 0.689999997600000 );
#195 = CARTESIAN_POINT( '', ( -3.00000000000000, -2.00000000000000, -2.00000000000000 ) );
#196 = CARTESIAN_POINT( '', ( -3.00000000000000, -2.00000000000000, 2.00000000000000 ) );
#197 = AXIS2_PLACEMENT_3D( '', #228, #229, #230 );
#198 = CARTESIAN_POINT( '', ( 3.00000000000000, -2.00000000000000, -2.00000000000000 ) );
#199 = CARTESIAN_POINT( '', ( 3.00000000000000, -2.00000000000000, -2.00000000000000 ) );
#200 = VECTOR( '', #231, 1000.00000000000 );
#201 = CARTESIAN_POINT( '', ( 3.00000000000000, -2.00000000000000, 2.00000000000000 ) );
#202 = AXIS2_PLACEMENT_3D( '', #232, #233, #234 );
#203 = CARTESIAN_POINT( '', ( -3.00000000000000, -2.00000000000000, 2.00000000000000 ) );
#204 = VECTOR( '', #235, 1000.00000000000 );
#205 = COLOUR_RGB( '', 0.689999997600000, 0.689999997600000, 0.689999997600000 );
#206 = CARTESIAN_POINT( '', ( 3.00000000000000, 2.00000000000000, -2.00000000000000 ) );
#207 = CARTESIAN_POINT( '', ( 3.00000000000000, 2.00000000000000, -2.00000000000000 ) );
#208 = VECTOR( '', #236, 1000.00000000000 );
#209 = CARTESIAN_POINT( '', ( 3.00000000000000, 2.00000000000000, 2.00000000000000 ) );
#210 = AXIS2_PLACEMENT_3D( '', #237, #238, #239 );
#211 = CARTESIAN_POINT( '', ( 3.00000000000000, 2.00000000000000, 2.00000000000000 ) );
#212 = VECTOR( '', #240, 1000.00000000000 );
#213 = COLOUR_RGB( '', 0.689999997600000, 0.689999997600000, 0.689999997600000 );
#214 = CARTESIAN_POINT( '', ( -3.00000000000000, 2.00000000000000, 2.00000000000000 ) );
#215 = CARTESIAN_POINT( '', ( -3.00000000000000, 2.00000000000000, 2.00000000000000 ) );
#216 = VECTOR( '', #241, 1000.00000000000 );
#217 = CARTESIAN_POINT( '', ( -3.00000000000000, 2.00000000000000, -2.00000000000000 ) );
#218 = AXIS2_PLACEMENT_3D( '', #242, #243, #244 );
#219 = CARTESIAN_POINT( '', ( -3.00000000000000, 2.00000000000000, -2.00000000000000 ) );
#220 = VECTOR( '', #245, 1000.00000000000 );
#221 = COLOUR_RGB( '', 0.689999997600000, 0.689999997600000, 0.689999997600000 );
#222 = CARTESIAN_POINT( '', ( 3.00000000000000, 2.00000000000000, -2.00000000000000 ) );
#223 = VECTOR( '', #246, 1000.00000000000 );
#224 = COLOUR_RGB( '', 0.689999997600000, 0.689999997600000, 0.689999997600000 );
#225 = CARTESIAN_POINT( '', ( -3.00000000000000, 2.00000000000000, 2.00000000000000 ) );
#226 = VECTOR( '', #247, 1000.00000000000 );
#227 = COLOUR_RGB( '', 0.689999997600000, 0.689999997600000, 0.689999997600000 );
#228 = CARTESIAN_POINT( '', ( -3.00000000000000, -2.00000000000000, 2.16840434497101E-15 ) );
#229 = DIRECTION( '', ( -0.000000000000000, 1.00000000000000, 0.000000000000000 ) );
#230 = DIRECTION( '', ( 1.00000000000000, 0.000000000000000, 0.000000000000000 ) );
#231 = DIRECTION( '', ( -1.00000000000000, 0.000000000000000, 0.000000000000000 ) );
#232 = CARTESIAN_POINT( '', ( 3.00000000000000, -2.00000000000000, -2.16840434497101E-15 ) );
#233 = DIRECTION( '', ( -0.000000000000000, 1.00000000000000, 0.000000000000000 ) );
#234 = DIRECTION( '', ( 1.00000000000000, 0.000000000000000, 0.000000000000000 ) );
#235 = DIRECTION( '', ( 1.00000000000000, 0.000000000000000, 0.000000000000000 ) );
#236 = DIRECTION( '', ( -0.000000000000000, -1.00000000000000, -0.000000000000000 ) );
#237 = CARTESIAN_POINT( '', ( 3.00000000000000, 2.00000000000000, 6.50521303491303E-16 ) );
#238 = DIRECTION( '', ( -0.000000000000000, 1.00000000000000, 0.000000000000000 ) );
#239 = DIRECTION( '', ( 1.00000000000000, 0.000000000000000, 0.000000000000000 ) );
#240 = DIRECTION( '', ( -0.000000000000000, -1.00000000000000, -0.000000000000000 ) );
#241 = DIRECTION( '', ( -0.000000000000000, -1.00000000000000, -0.000000000000000 ) );
#242 = CARTESIAN_POINT( '', ( -3.00000000000000, 2.00000000000000, -2.16840434497101E-15 ) );
#243 = DIRECTION( '', ( -0.000000000000000, 1.00000000000000, 0.000000000000000 ) );
#244 = DIRECTION( '', ( 1.00000000000000, 0.000000000000000, 0.000000000000000 ) );
#245 = DIRECTION( '', ( -0.000000000000000, -1.00000000000000, -0.000000000000000 ) );
#246 = DIRECTION( '', ( -1.00000000000000, 0.000000000000000, 0.000000000000000 ) );
#247 = DIRECTION( '', ( 1.00000000000000, 0.000000000000000, 0.000000000000000 ) );
ENDSEC;
END-ISO-10303-21;
