ISO-10303-21;
HEADER;
FILE_DESCRIPTION( ( 'STEP AP214' ), '1' );
FILE_NAME( '//goodhand-server/Shared Folders/GoodHand Data/Kipp CAD/K0334/K0335.203_0.stp', '2020-12-03T09:01:17', ( '' ), ( '' ), ' ', 'PARTsolutions', ' ' );
FILE_SCHEMA( ( 'AUTOMOTIVE_DESIGN { 1 0 10303 214 1 1 1 1 }' ) );
ENDSEC;
DATA;
#1 = MECHANICAL_DESIGN_GEOMETRIC_PRESENTATION_REPRESENTATION( ' ', ( #10, #11, #12, #13, #14, #15, #16, #17, #18 ), #6 );
#2 = PRODUCT_DEFINITION_CONTEXT( '', #19, 'design' );
#3 = APPLICATION_PROTOCOL_DEFINITION( 'international standard', 'automotive_design', 2001, #19 );
#4 = PRODUCT_CATEGORY_RELATIONSHIP( 'NONE', 'NONE', #20, #21 );
#5 = SHAPE_DEFINITION_REPRESENTATION( #22, #23 );
#6 =  ( GEOMETRIC_REPRESENTATION_CONTEXT( 3 )GLOBAL_UNCERTAINTY_ASSIGNED_CONTEXT( ( #26 ) )GLOBAL_UNIT_ASSIGNED_CONTEXT( ( #28, #29, #30 ) )REPRESENTATION_CONTEXT( 'NONE', 'WORKSPACE' ) );
#10 = STYLED_ITEM( '', ( #32 ), #33 );
#11 = STYLED_ITEM( '', ( #34 ), #35 );
#12 = STYLED_ITEM( '', ( #36 ), #37 );
#13 = STYLED_ITEM( '', ( #38 ), #39 );
#14 = STYLED_ITEM( '', ( #40 ), #41 );
#15 = STYLED_ITEM( '', ( #42 ), #43 );
#16 = STYLED_ITEM( '', ( #44 ), #45 );
#17 = STYLED_ITEM( '', ( #46 ), #47 );
#18 = STYLED_ITEM( '', ( #48 ), #49 );
#19 = APPLICATION_CONTEXT( 'core data for automotive mechanical design processes' );
#20 = PRODUCT_CATEGORY( 'part', 'NONE' );
#21 = PRODUCT_RELATED_PRODUCT_CATEGORY( 'detail', ' ', ( #50 ) );
#22 = PRODUCT_DEFINITION_SHAPE( 'NONE', 'NONE', #51 );
#23 = ADVANCED_BREP_SHAPE_REPRESENTATION( '_K0335.203_0', ( #52, #53 ), #6 );
#26 = UNCERTAINTY_MEASURE_WITH_UNIT( LENGTH_MEASURE( 0.00100000000000000 ), #28, '', '' );
#28 =  ( CONVERSION_BASED_UNIT( 'MILLIMETRE', #56 )LENGTH_UNIT(  )NAMED_UNIT( #59 ) );
#29 =  ( NAMED_UNIT( #61 )PLANE_ANGLE_UNIT(  )SI_UNIT( $, .RADIAN. ) );
#30 =  ( NAMED_UNIT( #61 )SI_UNIT( $, .STERADIAN. )SOLID_ANGLE_UNIT(  ) );
#32 = PRESENTATION_STYLE_ASSIGNMENT( ( #67 ) );
#33 = ADVANCED_FACE( '', ( #68 ), #69, .F. );
#34 = PRESENTATION_STYLE_ASSIGNMENT( ( #70 ) );
#35 = ADVANCED_FACE( '', ( #71 ), #72, .F. );
#36 = PRESENTATION_STYLE_ASSIGNMENT( ( #73 ) );
#37 = ADVANCED_FACE( '', ( #74, #75 ), #76, .T. );
#38 = PRESENTATION_STYLE_ASSIGNMENT( ( #77 ) );
#39 = ADVANCED_FACE( '', ( #78, #79 ), #80, .T. );
#40 = PRESENTATION_STYLE_ASSIGNMENT( ( #81 ) );
#41 = ADVANCED_FACE( '', ( #82, #83 ), #84, .T. );
#42 = PRESENTATION_STYLE_ASSIGNMENT( ( #85 ) );
#43 = ADVANCED_FACE( '', ( #86, #87 ), #88, .T. );
#44 = PRESENTATION_STYLE_ASSIGNMENT( ( #89 ) );
#45 = ADVANCED_FACE( '', ( #90, #91 ), #92, .F. );
#46 = PRESENTATION_STYLE_ASSIGNMENT( ( #93 ) );
#47 = ADVANCED_FACE( '', ( #94, #95 ), #96, .F. );
#48 = PRESENTATION_STYLE_ASSIGNMENT( ( #97 ) );
#49 = ADVANCED_FACE( '', ( #98, #99 ), #100, .F. );
#50 = PRODUCT( '_K0335.203_0', '_K0335.203_0', 'PART-_K0335.203_0-DESC', ( #101 ) );
#51 = PRODUCT_DEFINITION( 'NONE', 'NONE', #102, #2 );
#52 = BREP_WITH_VOIDS( '_K0335.203_0', #103, ( #104 ) );
#53 = AXIS2_PLACEMENT_3D( '', #105, #106, #107 );
#56 = LENGTH_MEASURE_WITH_UNIT( LENGTH_MEASURE( 1.00000000000000 ), #108 );
#59 = DIMENSIONAL_EXPONENTS( 1.00000000000000, 0.000000000000000, 0.000000000000000, 0.000000000000000, 0.000000000000000, 0.000000000000000, 0.000000000000000 );
#61 = DIMENSIONAL_EXPONENTS( 0.000000000000000, 0.000000000000000, 0.000000000000000, 0.000000000000000, 0.000000000000000, 0.000000000000000, 0.000000000000000 );
#67 = SURFACE_STYLE_USAGE( .BOTH., #109 );
#68 = FACE_OUTER_BOUND( '', #110, .T. );
#69 = PLANE( '', #111 );
#70 = SURFACE_STYLE_USAGE( .BOTH., #112 );
#71 = FACE_OUTER_BOUND( '', #113, .T. );
#72 = PLANE( '', #114 );
#73 = SURFACE_STYLE_USAGE( .BOTH., #115 );
#74 = FACE_BOUND( '', #116, .T. );
#75 = FACE_OUTER_BOUND( '', #117, .T. );
#76 = SPHERICAL_SURFACE( '', #118, 1.00000000000000 );
#77 = SURFACE_STYLE_USAGE( .BOTH., #119 );
#78 = FACE_OUTER_BOUND( '', #120, .T. );
#79 = FACE_OUTER_BOUND( '', #121, .T. );
#80 = CYLINDRICAL_SURFACE( '', #122, 1.50000000000000 );
#81 = SURFACE_STYLE_USAGE( .BOTH., #123 );
#82 = FACE_OUTER_BOUND( '', #124, .T. );
#83 = FACE_BOUND( '', #125, .T. );
#84 = CONICAL_SURFACE( '', #126, 1.21132486540000, 0.523598775600000 );
#85 = SURFACE_STYLE_USAGE( .BOTH., #127 );
#86 = FACE_BOUND( '', #128, .T. );
#87 = FACE_OUTER_BOUND( '', #129, .T. );
#88 = SPHERICAL_SURFACE( '', #130, 1.00000000000000 );
#89 = SURFACE_STYLE_USAGE( .BOTH., #131 );
#90 = FACE_OUTER_BOUND( '', #132, .T. );
#91 = FACE_OUTER_BOUND( '', #133, .T. );
#92 = CYLINDRICAL_SURFACE( '', #134, 0.999000000000000 );
#93 = SURFACE_STYLE_USAGE( .BOTH., #135 );
#94 = FACE_BOUND( '', #136, .T. );
#95 = FACE_OUTER_BOUND( '', #137, .T. );
#96 = PLANE( '', #138 );
#97 = SURFACE_STYLE_USAGE( .BOTH., #139 );
#98 = FACE_OUTER_BOUND( '', #140, .T. );
#99 = FACE_OUTER_BOUND( '', #141, .T. );
#100 = CYLINDRICAL_SURFACE( '', #142, 0.999000000000000 );
#101 = PRODUCT_CONTEXT( '', #19, 'mechanical' );
#102 = PRODUCT_DEFINITION_FORMATION_WITH_SPECIFIED_SOURCE( ' ', 'NONE', #50, .NOT_KNOWN. );
#103 = CLOSED_SHELL( '', ( #49, #33, #47, #39, #41, #43 ) );
#104 = ORIENTED_CLOSED_SHELL( '', *, #143, .T. );
#105 = CARTESIAN_POINT( '', ( 0.000000000000000, 0.000000000000000, 0.000000000000000 ) );
#106 = DIRECTION( '', ( 0.000000000000000, 0.000000000000000, 1.00000000000000 ) );
#107 = DIRECTION( '', ( 1.00000000000000, 0.000000000000000, 0.000000000000000 ) );
#108 =  ( LENGTH_UNIT(  )NAMED_UNIT( #59 )SI_UNIT( .MILLI., .METRE. ) );
#109 = SURFACE_SIDE_STYLE( '', ( #145 ) );
#110 = EDGE_LOOP( '', ( #146 ) );
#111 = AXIS2_PLACEMENT_3D( '', #147, #148, #149 );
#112 = SURFACE_SIDE_STYLE( '', ( #150 ) );
#113 = EDGE_LOOP( '', ( #151 ) );
#114 = AXIS2_PLACEMENT_3D( '', #152, #153, #154 );
#115 = SURFACE_SIDE_STYLE( '', ( #155 ) );
#116 = VERTEX_LOOP( '', #156 );
#117 = EDGE_LOOP( '', ( #157 ) );
#118 = AXIS2_PLACEMENT_3D( '', #158, #159, #160 );
#119 = SURFACE_SIDE_STYLE( '', ( #161 ) );
#120 = EDGE_LOOP( '', ( #162 ) );
#121 = EDGE_LOOP( '', ( #163 ) );
#122 = AXIS2_PLACEMENT_3D( '', #164, #165, #166 );
#123 = SURFACE_SIDE_STYLE( '', ( #167 ) );
#124 = EDGE_LOOP( '', ( #168 ) );
#125 = EDGE_LOOP( '', ( #169 ) );
#126 = AXIS2_PLACEMENT_3D( '', #170, #171, #172 );
#127 = SURFACE_SIDE_STYLE( '', ( #173 ) );
#128 = VERTEX_LOOP( '', #174 );
#129 = EDGE_LOOP( '', ( #175 ) );
#130 = AXIS2_PLACEMENT_3D( '', #176, #177, #178 );
#131 = SURFACE_SIDE_STYLE( '', ( #179 ) );
#132 = EDGE_LOOP( '', ( #180 ) );
#133 = EDGE_LOOP( '', ( #181 ) );
#134 = AXIS2_PLACEMENT_3D( '', #182, #183, #184 );
#135 = SURFACE_SIDE_STYLE( '', ( #185 ) );
#136 = EDGE_LOOP( '', ( #186 ) );
#137 = EDGE_LOOP( '', ( #187 ) );
#138 = AXIS2_PLACEMENT_3D( '', #188, #189, #190 );
#139 = SURFACE_SIDE_STYLE( '', ( #191 ) );
#140 = EDGE_LOOP( '', ( #192 ) );
#141 = EDGE_LOOP( '', ( #193 ) );
#142 = AXIS2_PLACEMENT_3D( '', #194, #195, #196 );
#143 = CLOSED_SHELL( '', ( #45, #37, #35 ) );
#145 = SURFACE_STYLE_FILL_AREA( #197 );
#146 = ORIENTED_EDGE( '', *, *, #198, .F. );
#147 = CARTESIAN_POINT( '', ( 0.000000000000000, 0.000000000000000, 0.000000000000000 ) );
#148 = DIRECTION( '', ( 1.00000000000000, 0.000000000000000, -0.000000000000000 ) );
#149 = DIRECTION( '', ( -0.000000000000000, 0.000000000000000, -1.00000000000000 ) );
#150 = SURFACE_STYLE_FILL_AREA( #199 );
#151 = ORIENTED_EDGE( '', *, *, #200, .T. );
#152 = CARTESIAN_POINT( '', ( 3.50000000000000, 0.999000000000000, 0.000000000000000 ) );
#153 = DIRECTION( '', ( -1.00000000000000, 0.000000000000000, 0.000000000000000 ) );
#154 = DIRECTION( '', ( 0.000000000000000, 0.000000000000000, 1.00000000000000 ) );
#155 = SURFACE_STYLE_FILL_AREA( #201 );
#156 = VERTEX_POINT( '', #202 );
#157 = ORIENTED_EDGE( '', *, *, #203, .F. );
#158 = CARTESIAN_POINT( '', ( 6.00000000000000, -5.42101086242752E-16, 0.000000000000000 ) );
#159 = DIRECTION( '', ( 1.00000000000000, 0.000000000000000, 0.000000000000000 ) );
#160 = DIRECTION( '', ( 0.000000000000000, 1.00000000000000, 0.000000000000000 ) );
#161 = SURFACE_STYLE_FILL_AREA( #204 );
#162 = ORIENTED_EDGE( '', *, *, #205, .F. );
#163 = ORIENTED_EDGE( '', *, *, #206, .T. );
#164 = CARTESIAN_POINT( '', ( 3.50000000000000, 0.000000000000000, 0.000000000000000 ) );
#165 = DIRECTION( '', ( -1.00000000000000, -0.000000000000000, 0.000000000000000 ) );
#166 = DIRECTION( '', ( -0.000000000000000, 0.000000000000000, -1.00000000000000 ) );
#167 = SURFACE_STYLE_FILL_AREA( #207 );
#168 = ORIENTED_EDGE( '', *, *, #206, .F. );
#169 = ORIENTED_EDGE( '', *, *, #198, .T. );
#170 = CARTESIAN_POINT( '', ( 0.000000000000000, 0.000000000000000, 0.000000000000000 ) );
#171 = DIRECTION( '', ( 1.00000000000000, -0.000000000000000, -0.000000000000000 ) );
#172 = DIRECTION( '', ( -0.000000000000000, 0.000000000000000, -1.00000000000000 ) );
#173 = SURFACE_STYLE_FILL_AREA( #208 );
#174 = VERTEX_POINT( '', #209 );
#175 = ORIENTED_EDGE( '', *, *, #210, .F. );
#176 = CARTESIAN_POINT( '', ( 6.00000000000000, -5.42101086242752E-16, 0.000000000000000 ) );
#177 = DIRECTION( '', ( 1.00000000000000, 0.000000000000000, 0.000000000000000 ) );
#178 = DIRECTION( '', ( 0.000000000000000, 1.00000000000000, 0.000000000000000 ) );
#179 = SURFACE_STYLE_FILL_AREA( #211 );
#180 = ORIENTED_EDGE( '', *, *, #200, .F. );
#181 = ORIENTED_EDGE( '', *, *, #203, .T. );
#182 = CARTESIAN_POINT( '', ( 3.50000000000000, 0.000000000000000, 0.000000000000000 ) );
#183 = DIRECTION( '', ( -1.00000000000000, -0.000000000000000, 0.000000000000000 ) );
#184 = DIRECTION( '', ( -0.000000000000000, 0.000000000000000, -1.00000000000000 ) );
#185 = SURFACE_STYLE_FILL_AREA( #212 );
#186 = ORIENTED_EDGE( '', *, *, #213, .F. );
#187 = ORIENTED_EDGE( '', *, *, #205, .T. );
#188 = CARTESIAN_POINT( '', ( 7.00000000000000, 1.50000000000000, 0.000000000000000 ) );
#189 = DIRECTION( '', ( -1.00000000000000, 0.000000000000000, 0.000000000000000 ) );
#190 = DIRECTION( '', ( 0.000000000000000, 0.000000000000000, 1.00000000000000 ) );
#191 = SURFACE_STYLE_FILL_AREA( #214 );
#192 = ORIENTED_EDGE( '', *, *, #210, .T. );
#193 = ORIENTED_EDGE( '', *, *, #213, .T. );
#194 = CARTESIAN_POINT( '', ( 3.50000000000000, 0.000000000000000, 0.000000000000000 ) );
#195 = DIRECTION( '', ( -1.00000000000000, -0.000000000000000, 0.000000000000000 ) );
#196 = DIRECTION( '', ( -0.000000000000000, 0.000000000000000, -1.00000000000000 ) );
#197 = FILL_AREA_STYLE( '', ( #215 ) );
#198 = EDGE_CURVE( '', #216, #216, #217, .T. );
#199 = FILL_AREA_STYLE( '', ( #218 ) );
#200 = EDGE_CURVE( '', #219, #219, #220, .T. );
#201 = FILL_AREA_STYLE( '', ( #221 ) );
#202 = CARTESIAN_POINT( '', ( 5.00000000000000, -4.80868746285385E-16, 0.000000000000000 ) );
#203 = EDGE_CURVE( '', #222, #222, #223, .T. );
#204 = FILL_AREA_STYLE( '', ( #224 ) );
#205 = EDGE_CURVE( '', #225, #225, #226, .T. );
#206 = EDGE_CURVE( '', #227, #227, #228, .T. );
#207 = FILL_AREA_STYLE( '', ( #229 ) );
#208 = FILL_AREA_STYLE( '', ( #230 ) );
#209 = CARTESIAN_POINT( '', ( 7.00000000000000, -4.80868746285385E-16, 0.000000000000000 ) );
#210 = EDGE_CURVE( '', #231, #231, #232, .T. );
#211 = FILL_AREA_STYLE( '', ( #233 ) );
#212 = FILL_AREA_STYLE( '', ( #234 ) );
#213 = EDGE_CURVE( '', #235, #235, #236, .T. );
#214 = FILL_AREA_STYLE( '', ( #237 ) );
#215 = FILL_AREA_STYLE_COLOUR( '', #238 );
#216 = VERTEX_POINT( '', #239 );
#217 = CIRCLE( '', #240, 1.21132486540000 );
#218 = FILL_AREA_STYLE_COLOUR( '', #241 );
#219 = VERTEX_POINT( '', #242 );
#220 = CIRCLE( '', #243, 0.999000000000000 );
#221 = FILL_AREA_STYLE_COLOUR( '', #244 );
#222 = VERTEX_POINT( '', #245 );
#223 = CIRCLE( '', #246, 0.999000000000000 );
#224 = FILL_AREA_STYLE_COLOUR( '', #247 );
#225 = VERTEX_POINT( '', #248 );
#226 = CIRCLE( '', #249, 1.50000000000000 );
#227 = VERTEX_POINT( '', #250 );
#228 = CIRCLE( '', #251, 1.50000000000000 );
#229 = FILL_AREA_STYLE_COLOUR( '', #252 );
#230 = FILL_AREA_STYLE_COLOUR( '', #253 );
#231 = VERTEX_POINT( '', #254 );
#232 = CIRCLE( '', #255, 0.999000000000000 );
#233 = FILL_AREA_STYLE_COLOUR( '', #256 );
#234 = FILL_AREA_STYLE_COLOUR( '', #257 );
#235 = VERTEX_POINT( '', #258 );
#236 = CIRCLE( '', #259, 0.999000000000000 );
#237 = FILL_AREA_STYLE_COLOUR( '', #260 );
#238 = COLOUR_RGB( '', 0.689999997600000, 0.689999997600000, 0.689999997600000 );
#239 = CARTESIAN_POINT( '', ( 0.000000000000000, 0.000000000000000, -1.21132486540519 ) );
#240 = AXIS2_PLACEMENT_3D( '', #261, #262, #263 );
#241 = COLOUR_RGB( '', 0.689999997600000, 0.689999997600000, 0.689999997600000 );
#242 = CARTESIAN_POINT( '', ( 3.50000000000000, 0.000000000000000, -0.999000000000000 ) );
#243 = AXIS2_PLACEMENT_3D( '', #264, #265, #266 );
#244 = COLOUR_RGB( '', 0.689999997600000, 0.689999997600000, 0.689999997600000 );
#245 = CARTESIAN_POINT( '', ( 5.95528982218781, 0.000000000000000, -0.999000000000001 ) );
#246 = AXIS2_PLACEMENT_3D( '', #267, #268, #269 );
#247 = COLOUR_RGB( '', 0.689999997600000, 0.689999997600000, 0.689999997600000 );
#248 = CARTESIAN_POINT( '', ( 7.00000000000000, 0.000000000000000, -1.50000000000000 ) );
#249 = AXIS2_PLACEMENT_3D( '', #270, #271, #272 );
#250 = CARTESIAN_POINT( '', ( 0.500000000000000, 0.000000000000000, -1.50000000000000 ) );
#251 = AXIS2_PLACEMENT_3D( '', #273, #274, #275 );
#252 = COLOUR_RGB( '', 0.689999997600000, 0.689999997600000, 0.689999997600000 );
#253 = COLOUR_RGB( '', 0.689999997600000, 0.689999997600000, 0.689999997600000 );
#254 = CARTESIAN_POINT( '', ( 6.04471017781219, 0.000000000000000, 0.999000000000001 ) );
#255 = AXIS2_PLACEMENT_3D( '', #276, #277, #278 );
#256 = COLOUR_RGB( '', 0.689999997600000, 0.689999997600000, 0.689999997600000 );
#257 = COLOUR_RGB( '', 0.689999997600000, 0.689999997600000, 0.689999997600000 );
#258 = CARTESIAN_POINT( '', ( 7.00000000000000, 0.000000000000000, -0.999000000000002 ) );
#259 = AXIS2_PLACEMENT_3D( '', #279, #280, #281 );
#260 = COLOUR_RGB( '', 0.689999997600000, 0.689999997600000, 0.689999997600000 );
#261 = CARTESIAN_POINT( '', ( 0.000000000000000, 0.000000000000000, 0.000000000000000 ) );
#262 = DIRECTION( '', ( 1.00000000000000, 0.000000000000000, -0.000000000000000 ) );
#263 = DIRECTION( '', ( -0.000000000000000, 0.000000000000000, -1.00000000000000 ) );
#264 = CARTESIAN_POINT( '', ( 3.50000000000000, 0.000000000000000, 0.000000000000000 ) );
#265 = DIRECTION( '', ( 1.00000000000000, 0.000000000000000, -0.000000000000000 ) );
#266 = DIRECTION( '', ( -0.000000000000000, 0.000000000000000, -1.00000000000000 ) );
#267 = CARTESIAN_POINT( '', ( 5.95528982218781, 0.000000000000000, 0.000000000000000 ) );
#268 = DIRECTION( '', ( 1.00000000000000, 0.000000000000000, -0.000000000000000 ) );
#269 = DIRECTION( '', ( -0.000000000000000, 0.000000000000000, -1.00000000000000 ) );
#270 = CARTESIAN_POINT( '', ( 7.00000000000000, 0.000000000000000, 0.000000000000000 ) );
#271 = DIRECTION( '', ( 1.00000000000000, 0.000000000000000, -0.000000000000000 ) );
#272 = DIRECTION( '', ( -0.000000000000000, 0.000000000000000, -1.00000000000000 ) );
#273 = CARTESIAN_POINT( '', ( 0.500000000000000, 0.000000000000000, 0.000000000000000 ) );
#274 = DIRECTION( '', ( 1.00000000000000, 0.000000000000000, -0.000000000000000 ) );
#275 = DIRECTION( '', ( -0.000000000000000, 0.000000000000000, -1.00000000000000 ) );
#276 = CARTESIAN_POINT( '', ( 6.04471017781219, 0.000000000000000, 0.000000000000000 ) );
#277 = DIRECTION( '', ( -1.00000000000000, 0.000000000000000, 0.000000000000000 ) );
#278 = DIRECTION( '', ( 0.000000000000000, 0.000000000000000, 1.00000000000000 ) );
#279 = CARTESIAN_POINT( '', ( 7.00000000000000, 0.000000000000000, 0.000000000000000 ) );
#280 = DIRECTION( '', ( 1.00000000000000, 0.000000000000000, -0.000000000000000 ) );
#281 = DIRECTION( '', ( -0.000000000000000, 0.000000000000000, -1.00000000000000 ) );
ENDSEC;
END-ISO-10303-21;
