ISO-10303-21;
HEADER;
FILE_DESCRIPTION( ( 'STEP AP214' ), '1' );
FILE_NAME( '//goodhand-server/Shared Folders/GoodHand Data/Kipp CAD/K0391/K0391.06X50.stp', '2020-12-07T10:16:40', ( '' ), ( '' ), ' ', 'PARTsolutions', ' ' );
FILE_SCHEMA( ( 'AUTOMOTIVE_DESIGN { 1 0 10303 214 1 1 1 1 }' ) );
ENDSEC;
DATA;
#1 = MECHANICAL_DESIGN_GEOMETRIC_PRESENTATION_REPRESENTATION( ' ', ( #10, #11, #12, #13, #14, #15, #16, #17, #18, #19, #20, #21, #22 ), #6 );
#2 = PRODUCT_DEFINITION_CONTEXT( '', #23, 'design' );
#3 = APPLICATION_PROTOCOL_DEFINITION( 'international standard', 'automotive_design', 2001, #23 );
#4 = PRODUCT_CATEGORY_RELATIONSHIP( 'NONE', 'NONE', #24, #25 );
#5 = SHAPE_DEFINITION_REPRESENTATION( #26, #27 );
#6 =  ( GEOMETRIC_REPRESENTATION_CONTEXT( 3 )GLOBAL_UNCERTAINTY_ASSIGNED_CONTEXT( ( #30 ) )GLOBAL_UNIT_ASSIGNED_CONTEXT( ( #32, #33, #34 ) )REPRESENTATION_CONTEXT( 'NONE', 'WORKSPACE' ) );
#10 = STYLED_ITEM( '', ( #36 ), #37 );
#11 = STYLED_ITEM( '', ( #38 ), #39 );
#12 = STYLED_ITEM( '', ( #40 ), #41 );
#13 = STYLED_ITEM( '', ( #42 ), #43 );
#14 = STYLED_ITEM( '', ( #44 ), #45 );
#15 = STYLED_ITEM( '', ( #46 ), #47 );
#16 = STYLED_ITEM( '', ( #48 ), #49 );
#17 = STYLED_ITEM( '', ( #50 ), #51 );
#18 = STYLED_ITEM( '', ( #52 ), #53 );
#19 = STYLED_ITEM( '', ( #54 ), #55 );
#20 = STYLED_ITEM( '', ( #56 ), #57 );
#21 = STYLED_ITEM( '', ( #58 ), #59 );
#22 = STYLED_ITEM( '', ( #60 ), #61 );
#23 = APPLICATION_CONTEXT( 'core data for automotive mechanical design processes' );
#24 = PRODUCT_CATEGORY( 'part', 'NONE' );
#25 = PRODUCT_RELATED_PRODUCT_CATEGORY( 'detail', ' ', ( #62 ) );
#26 = PRODUCT_DEFINITION_SHAPE( 'NONE', 'NONE', #63 );
#27 = ADVANCED_BREP_SHAPE_REPRESENTATION( '_K0391.06X50', ( #64, #65 ), #6 );
#30 = UNCERTAINTY_MEASURE_WITH_UNIT( LENGTH_MEASURE( 0.00100000000000000 ), #32, '', '' );
#32 =  ( CONVERSION_BASED_UNIT( 'MILLIMETRE', #68 )LENGTH_UNIT(  )NAMED_UNIT( #71 ) );
#33 =  ( NAMED_UNIT( #73 )PLANE_ANGLE_UNIT(  )SI_UNIT( $, .RADIAN. ) );
#34 =  ( NAMED_UNIT( #73 )SI_UNIT( $, .STERADIAN. )SOLID_ANGLE_UNIT(  ) );
#36 = PRESENTATION_STYLE_ASSIGNMENT( ( #79 ) );
#37 = ADVANCED_FACE( '', ( #80 ), #81, .T. );
#38 = PRESENTATION_STYLE_ASSIGNMENT( ( #82 ) );
#39 = ADVANCED_FACE( '', ( #83 ), #84, .T. );
#40 = PRESENTATION_STYLE_ASSIGNMENT( ( #85 ) );
#41 = ADVANCED_FACE( '', ( #86, #87 ), #88, .T. );
#42 = PRESENTATION_STYLE_ASSIGNMENT( ( #89 ) );
#43 = ADVANCED_FACE( '', ( #90, #91 ), #92, .T. );
#44 = PRESENTATION_STYLE_ASSIGNMENT( ( #93 ) );
#45 = ADVANCED_FACE( '', ( #94 ), #95, .T. );
#46 = PRESENTATION_STYLE_ASSIGNMENT( ( #96 ) );
#47 = ADVANCED_FACE( '', ( #97 ), #98, .T. );
#48 = PRESENTATION_STYLE_ASSIGNMENT( ( #99 ) );
#49 = ADVANCED_FACE( '', ( #100, #101 ), #102, .T. );
#50 = PRESENTATION_STYLE_ASSIGNMENT( ( #103 ) );
#51 = ADVANCED_FACE( '', ( #104 ), #105, .T. );
#52 = PRESENTATION_STYLE_ASSIGNMENT( ( #106 ) );
#53 = ADVANCED_FACE( '', ( #107 ), #108, .T. );
#54 = PRESENTATION_STYLE_ASSIGNMENT( ( #109 ) );
#55 = ADVANCED_FACE( '', ( #110, #111 ), #112, .F. );
#56 = PRESENTATION_STYLE_ASSIGNMENT( ( #113 ) );
#57 = ADVANCED_FACE( '', ( #114, #115 ), #116, .T. );
#58 = PRESENTATION_STYLE_ASSIGNMENT( ( #117 ) );
#59 = ADVANCED_FACE( '', ( #118 ), #119, .F. );
#60 = PRESENTATION_STYLE_ASSIGNMENT( ( #120 ) );
#61 = ADVANCED_FACE( '', ( #121, #122 ), #123, .T. );
#62 = PRODUCT( '_K0391.06X50', '_K0391.06X50', 'PART-_K0391.06X50-DESC', ( #124 ) );
#63 = PRODUCT_DEFINITION( 'NONE', 'NONE', #125, #2 );
#64 = MANIFOLD_SOLID_BREP( '_K0391.06X50', #126 );
#65 = AXIS2_PLACEMENT_3D( '', #127, #128, #129 );
#68 = LENGTH_MEASURE_WITH_UNIT( LENGTH_MEASURE( 1.00000000000000 ), #130 );
#71 = DIMENSIONAL_EXPONENTS( 1.00000000000000, 0.000000000000000, 0.000000000000000, 0.000000000000000, 0.000000000000000, 0.000000000000000, 0.000000000000000 );
#73 = DIMENSIONAL_EXPONENTS( 0.000000000000000, 0.000000000000000, 0.000000000000000, 0.000000000000000, 0.000000000000000, 0.000000000000000, 0.000000000000000 );
#79 = SURFACE_STYLE_USAGE( .BOTH., #131 );
#80 = FACE_OUTER_BOUND( '', #132, .T. );
#81 = PLANE( '', #133 );
#82 = SURFACE_STYLE_USAGE( .BOTH., #134 );
#83 = FACE_OUTER_BOUND( '', #135, .T. );
#84 = PLANE( '', #136 );
#85 = SURFACE_STYLE_USAGE( .BOTH., #137 );
#86 = FACE_OUTER_BOUND( '', #138, .T. );
#87 = FACE_OUTER_BOUND( '', #139, .T. );
#88 = CYLINDRICAL_SURFACE( '', #140, 1.75000000000000 );
#89 = SURFACE_STYLE_USAGE( .BOTH., #141 );
#90 = FACE_BOUND( '', #142, .T. );
#91 = FACE_OUTER_BOUND( '', #143, .T. );
#92 = CONICAL_SURFACE( '', #144, 3.00000000000000, 0.805803494100000 );
#93 = SURFACE_STYLE_USAGE( .BOTH., #145 );
#94 = FACE_OUTER_BOUND( '', #146, .T. );
#95 = PLANE( '', #147 );
#96 = SURFACE_STYLE_USAGE( .BOTH., #148 );
#97 = FACE_OUTER_BOUND( '', #149, .T. );
#98 = PLANE( '', #150 );
#99 = SURFACE_STYLE_USAGE( .BOTH., #151 );
#100 = FACE_BOUND( '', #152, .T. );
#101 = FACE_OUTER_BOUND( '', #153, .T. );
#102 = SPHERICAL_SURFACE( '', #154, 2.25000000000000 );
#103 = SURFACE_STYLE_USAGE( .BOTH., #155 );
#104 = FACE_OUTER_BOUND( '', #156, .T. );
#105 = PLANE( '', #157 );
#106 = SURFACE_STYLE_USAGE( .BOTH., #158 );
#107 = FACE_OUTER_BOUND( '', #159, .T. );
#108 = PLANE( '', #160 );
#109 = SURFACE_STYLE_USAGE( .BOTH., #161 );
#110 = FACE_OUTER_BOUND( '', #162, .T. );
#111 = FACE_BOUND( '', #163, .T. );
#112 = PLANE( '', #164 );
#113 = SURFACE_STYLE_USAGE( .BOTH., #165 );
#114 = FACE_OUTER_BOUND( '', #166, .T. );
#115 = FACE_OUTER_BOUND( '', #167, .T. );
#116 = CYLINDRICAL_SURFACE( '', #168, 3.00000000000000 );
#117 = SURFACE_STYLE_USAGE( .BOTH., #169 );
#118 = FACE_OUTER_BOUND( '', #170, .T. );
#119 = PLANE( '', #171 );
#120 = SURFACE_STYLE_USAGE( .BOTH., #172 );
#121 = FACE_OUTER_BOUND( '', #173, .T. );
#122 = FACE_BOUND( '', #174, .T. );
#123 = CONICAL_SURFACE( '', #175, 2.38650000000000, 0.785398163400000 );
#124 = PRODUCT_CONTEXT( '', #23, 'mechanical' );
#125 = PRODUCT_DEFINITION_FORMATION_WITH_SPECIFIED_SOURCE( ' ', 'NONE', #62, .NOT_KNOWN. );
#126 = CLOSED_SHELL( '', ( #61, #55, #53, #47, #39, #49, #41, #43, #57, #37, #51, #45, #59 ) );
#127 = CARTESIAN_POINT( '', ( 0.000000000000000, 0.000000000000000, 0.000000000000000 ) );
#128 = DIRECTION( '', ( 0.000000000000000, 0.000000000000000, 1.00000000000000 ) );
#129 = DIRECTION( '', ( 1.00000000000000, 0.000000000000000, 0.000000000000000 ) );
#130 =  ( LENGTH_UNIT(  )NAMED_UNIT( #71 )SI_UNIT( .MILLI., .METRE. ) );
#131 = SURFACE_SIDE_STYLE( '', ( #177 ) );
#132 = EDGE_LOOP( '', ( #178, #179, #180, #181 ) );
#133 = AXIS2_PLACEMENT_3D( '', #182, #183, #184 );
#134 = SURFACE_SIDE_STYLE( '', ( #185 ) );
#135 = EDGE_LOOP( '', ( #186, #187, #188, #189 ) );
#136 = AXIS2_PLACEMENT_3D( '', #190, #191, #192 );
#137 = SURFACE_SIDE_STYLE( '', ( #193 ) );
#138 = EDGE_LOOP( '', ( #194 ) );
#139 = EDGE_LOOP( '', ( #195 ) );
#140 = AXIS2_PLACEMENT_3D( '', #196, #197, #198 );
#141 = SURFACE_SIDE_STYLE( '', ( #199 ) );
#142 = EDGE_LOOP( '', ( #200 ) );
#143 = EDGE_LOOP( '', ( #201 ) );
#144 = AXIS2_PLACEMENT_3D( '', #202, #203, #204 );
#145 = SURFACE_SIDE_STYLE( '', ( #205 ) );
#146 = EDGE_LOOP( '', ( #206, #207, #208, #209 ) );
#147 = AXIS2_PLACEMENT_3D( '', #210, #211, #212 );
#148 = SURFACE_SIDE_STYLE( '', ( #213 ) );
#149 = EDGE_LOOP( '', ( #214, #215, #216, #217 ) );
#150 = AXIS2_PLACEMENT_3D( '', #218, #219, #220 );
#151 = SURFACE_SIDE_STYLE( '', ( #221 ) );
#152 = VERTEX_LOOP( '', #222 );
#153 = EDGE_LOOP( '', ( #223 ) );
#154 = AXIS2_PLACEMENT_3D( '', #224, #225, #226 );
#155 = SURFACE_SIDE_STYLE( '', ( #227 ) );
#156 = EDGE_LOOP( '', ( #228, #229, #230, #231 ) );
#157 = AXIS2_PLACEMENT_3D( '', #232, #233, #234 );
#158 = SURFACE_SIDE_STYLE( '', ( #235 ) );
#159 = EDGE_LOOP( '', ( #236, #237, #238, #239 ) );
#160 = AXIS2_PLACEMENT_3D( '', #240, #241, #242 );
#161 = SURFACE_SIDE_STYLE( '', ( #243 ) );
#162 = EDGE_LOOP( '', ( #244 ) );
#163 = EDGE_LOOP( '', ( #245, #246, #247, #248, #249, #250 ) );
#164 = AXIS2_PLACEMENT_3D( '', #251, #252, #253 );
#165 = SURFACE_SIDE_STYLE( '', ( #254 ) );
#166 = EDGE_LOOP( '', ( #255 ) );
#167 = EDGE_LOOP( '', ( #256 ) );
#168 = AXIS2_PLACEMENT_3D( '', #257, #258, #259 );
#169 = SURFACE_SIDE_STYLE( '', ( #260 ) );
#170 = EDGE_LOOP( '', ( #261, #262, #263, #264, #265, #266 ) );
#171 = AXIS2_PLACEMENT_3D( '', #267, #268, #269 );
#172 = SURFACE_SIDE_STYLE( '', ( #270 ) );
#173 = EDGE_LOOP( '', ( #271 ) );
#174 = EDGE_LOOP( '', ( #272 ) );
#175 = AXIS2_PLACEMENT_3D( '', #273, #274, #275 );
#177 = SURFACE_STYLE_FILL_AREA( #276 );
#178 = ORIENTED_EDGE( '', *, *, #277, .F. );
#179 = ORIENTED_EDGE( '', *, *, #278, .F. );
#180 = ORIENTED_EDGE( '', *, *, #279, .T. );
#181 = ORIENTED_EDGE( '', *, *, #280, .T. );
#182 = CARTESIAN_POINT( '', ( 3.00000000000000, -0.866025403784439, -1.50000000000000 ) );
#183 = DIRECTION( '', ( 0.000000000000000, 0.000000000000000, 1.00000000000000 ) );
#184 = DIRECTION( '', ( 1.00000000000000, 0.000000000000000, -0.000000000000000 ) );
#185 = SURFACE_STYLE_FILL_AREA( #281 );
#186 = ORIENTED_EDGE( '', *, *, #282, .F. );
#187 = ORIENTED_EDGE( '', *, *, #283, .F. );
#188 = ORIENTED_EDGE( '', *, *, #284, .T. );
#189 = ORIENTED_EDGE( '', *, *, #285, .T. );
#190 = CARTESIAN_POINT( '', ( 3.00000000000000, 0.866025403784439, 1.50000000000000 ) );
#191 = DIRECTION( '', ( 0.000000000000000, 0.000000000000000, -1.00000000000000 ) );
#192 = DIRECTION( '', ( -1.00000000000000, 0.000000000000000, 0.000000000000000 ) );
#193 = SURFACE_STYLE_FILL_AREA( #286 );
#194 = ORIENTED_EDGE( '', *, *, #287, .F. );
#195 = ORIENTED_EDGE( '', *, *, #288, .T. );
#196 = CARTESIAN_POINT( '', ( 50.0000000000000, 0.000000000000000, 0.000000000000000 ) );
#197 = DIRECTION( '', ( -1.00000000000000, -0.000000000000000, 0.000000000000000 ) );
#198 = DIRECTION( '', ( -0.000000000000000, 0.000000000000000, -1.00000000000000 ) );
#199 = SURFACE_STYLE_FILL_AREA( #289 );
#200 = ORIENTED_EDGE( '', *, *, #288, .F. );
#201 = ORIENTED_EDGE( '', *, *, #290, .T. );
#202 = CARTESIAN_POINT( '', ( 44.5000000000000, 0.000000000000000, 0.000000000000000 ) );
#203 = DIRECTION( '', ( -1.00000000000000, 0.000000000000000, -0.000000000000000 ) );
#204 = DIRECTION( '', ( 0.000000000000000, 0.000000000000000, 1.00000000000000 ) );
#205 = SURFACE_STYLE_FILL_AREA( #291 );
#206 = ORIENTED_EDGE( '', *, *, #292, .F. );
#207 = ORIENTED_EDGE( '', *, *, #293, .F. );
#208 = ORIENTED_EDGE( '', *, *, #294, .T. );
#209 = ORIENTED_EDGE( '', *, *, #283, .T. );
#210 = CARTESIAN_POINT( '', ( 3.00000000000000, 1.73205080756888, 0.000000000000000 ) );
#211 = DIRECTION( '', ( 0.000000000000000, -0.866025403784439, -0.500000000000000 ) );
#212 = DIRECTION( '', ( 0.000000000000000, 0.500000000000000, -0.866025403784439 ) );
#213 = SURFACE_STYLE_FILL_AREA( #295 );
#214 = ORIENTED_EDGE( '', *, *, #296, .F. );
#215 = ORIENTED_EDGE( '', *, *, #297, .F. );
#216 = ORIENTED_EDGE( '', *, *, #298, .T. );
#217 = ORIENTED_EDGE( '', *, *, #278, .T. );
#218 = CARTESIAN_POINT( '', ( 3.00000000000000, -1.73205080756888, 0.000000000000000 ) );
#219 = DIRECTION( '', ( -0.000000000000000, 0.866025403784439, 0.500000000000000 ) );
#220 = DIRECTION( '', ( 0.000000000000000, -0.500000000000000, 0.866025403784439 ) );
#221 = SURFACE_STYLE_FILL_AREA( #299 );
#222 = VERTEX_POINT( '', #300 );
#223 = ORIENTED_EDGE( '', *, *, #287, .T. );
#224 = CARTESIAN_POINT( '', ( 47.7500000000000, -6.50521303491303E-16, 0.000000000000000 ) );
#225 = DIRECTION( '', ( 1.00000000000000, 0.000000000000000, 0.000000000000000 ) );
#226 = DIRECTION( '', ( 0.000000000000000, 1.00000000000000, 0.000000000000000 ) );
#227 = SURFACE_STYLE_FILL_AREA( #301 );
#228 = ORIENTED_EDGE( '', *, *, #302, .F. );
#229 = ORIENTED_EDGE( '', *, *, #280, .F. );
#230 = ORIENTED_EDGE( '', *, *, #303, .T. );
#231 = ORIENTED_EDGE( '', *, *, #293, .T. );
#232 = CARTESIAN_POINT( '', ( 3.00000000000000, 0.866025403784439, -1.50000000000000 ) );
#233 = DIRECTION( '', ( 0.000000000000000, -0.866025403784439, 0.500000000000000 ) );
#234 = DIRECTION( '', ( 0.000000000000000, -0.500000000000000, -0.866025403784439 ) );
#235 = SURFACE_STYLE_FILL_AREA( #304 );
#236 = ORIENTED_EDGE( '', *, *, #305, .F. );
#237 = ORIENTED_EDGE( '', *, *, #285, .F. );
#238 = ORIENTED_EDGE( '', *, *, #306, .T. );
#239 = ORIENTED_EDGE( '', *, *, #297, .T. );
#240 = CARTESIAN_POINT( '', ( 3.00000000000000, -0.866025403784439, 1.50000000000000 ) );
#241 = DIRECTION( '', ( 0.000000000000000, 0.866025403784439, -0.500000000000000 ) );
#242 = DIRECTION( '', ( 0.000000000000000, 0.500000000000000, 0.866025403784439 ) );
#243 = SURFACE_STYLE_FILL_AREA( #307 );
#244 = ORIENTED_EDGE( '', *, *, #308, .F. );
#245 = ORIENTED_EDGE( '', *, *, #282, .T. );
#246 = ORIENTED_EDGE( '', *, *, #305, .T. );
#247 = ORIENTED_EDGE( '', *, *, #296, .T. );
#248 = ORIENTED_EDGE( '', *, *, #277, .T. );
#249 = ORIENTED_EDGE( '', *, *, #302, .T. );
#250 = ORIENTED_EDGE( '', *, *, #292, .T. );
#251 = CARTESIAN_POINT( '', ( 0.000000000000000, 0.000000000000000, 0.000000000000000 ) );
#252 = DIRECTION( '', ( 1.00000000000000, 0.000000000000000, -0.000000000000000 ) );
#253 = DIRECTION( '', ( -0.000000000000000, 0.000000000000000, -1.00000000000000 ) );
#254 = SURFACE_STYLE_FILL_AREA( #309 );
#255 = ORIENTED_EDGE( '', *, *, #290, .F. );
#256 = ORIENTED_EDGE( '', *, *, #310, .T. );
#257 = CARTESIAN_POINT( '', ( 50.0000000000000, 0.000000000000000, 0.000000000000000 ) );
#258 = DIRECTION( '', ( -1.00000000000000, -0.000000000000000, 0.000000000000000 ) );
#259 = DIRECTION( '', ( -0.000000000000000, 0.000000000000000, -1.00000000000000 ) );
#260 = SURFACE_STYLE_FILL_AREA( #311 );
#261 = ORIENTED_EDGE( '', *, *, #284, .F. );
#262 = ORIENTED_EDGE( '', *, *, #294, .F. );
#263 = ORIENTED_EDGE( '', *, *, #303, .F. );
#264 = ORIENTED_EDGE( '', *, *, #279, .F. );
#265 = ORIENTED_EDGE( '', *, *, #298, .F. );
#266 = ORIENTED_EDGE( '', *, *, #306, .F. );
#267 = CARTESIAN_POINT( '', ( 3.00000000000000, 0.000000000000000, 0.000000000000000 ) );
#268 = DIRECTION( '', ( 1.00000000000000, 0.000000000000000, 0.000000000000000 ) );
#269 = DIRECTION( '', ( 0.000000000000000, 0.000000000000000, -1.00000000000000 ) );
#270 = SURFACE_STYLE_FILL_AREA( #312 );
#271 = ORIENTED_EDGE( '', *, *, #310, .F. );
#272 = ORIENTED_EDGE( '', *, *, #308, .T. );
#273 = CARTESIAN_POINT( '', ( 0.000000000000000, 0.000000000000000, 0.000000000000000 ) );
#274 = DIRECTION( '', ( 1.00000000000000, -0.000000000000000, -0.000000000000000 ) );
#275 = DIRECTION( '', ( -0.000000000000000, 0.000000000000000, -1.00000000000000 ) );
#276 = FILL_AREA_STYLE( '', ( #313 ) );
#277 = EDGE_CURVE( '', #314, #315, #316, .T. );
#278 = EDGE_CURVE( '', #317, #314, #318, .T. );
#279 = EDGE_CURVE( '', #317, #319, #320, .T. );
#280 = EDGE_CURVE( '', #319, #315, #321, .T. );
#281 = FILL_AREA_STYLE( '', ( #322 ) );
#282 = EDGE_CURVE( '', #323, #324, #325, .T. );
#283 = EDGE_CURVE( '', #326, #323, #327, .T. );
#284 = EDGE_CURVE( '', #326, #328, #329, .T. );
#285 = EDGE_CURVE( '', #328, #324, #330, .T. );
#286 = FILL_AREA_STYLE( '', ( #331 ) );
#287 = EDGE_CURVE( '', #332, #332, #333, .T. );
#288 = EDGE_CURVE( '', #334, #334, #335, .T. );
#289 = FILL_AREA_STYLE( '', ( #336 ) );
#290 = EDGE_CURVE( '', #337, #337, #338, .T. );
#291 = FILL_AREA_STYLE( '', ( #339 ) );
#292 = EDGE_CURVE( '', #340, #323, #341, .T. );
#293 = EDGE_CURVE( '', #342, #340, #343, .T. );
#294 = EDGE_CURVE( '', #342, #326, #344, .T. );
#295 = FILL_AREA_STYLE( '', ( #345 ) );
#296 = EDGE_CURVE( '', #346, #314, #347, .T. );
#297 = EDGE_CURVE( '', #348, #346, #349, .T. );
#298 = EDGE_CURVE( '', #348, #317, #350, .T. );
#299 = FILL_AREA_STYLE( '', ( #351 ) );
#300 = CARTESIAN_POINT( '', ( 50.0000000000000, -5.12748538587225E-16, 0.000000000000000 ) );
#301 = FILL_AREA_STYLE( '', ( #352 ) );
#302 = EDGE_CURVE( '', #315, #340, #353, .T. );
#303 = EDGE_CURVE( '', #319, #342, #354, .T. );
#304 = FILL_AREA_STYLE( '', ( #355 ) );
#305 = EDGE_CURVE( '', #324, #346, #356, .T. );
#306 = EDGE_CURVE( '', #328, #348, #357, .T. );
#307 = FILL_AREA_STYLE( '', ( #358 ) );
#308 = EDGE_CURVE( '', #359, #359, #360, .T. );
#309 = FILL_AREA_STYLE( '', ( #361 ) );
#310 = EDGE_CURVE( '', #362, #362, #363, .T. );
#311 = FILL_AREA_STYLE( '', ( #364 ) );
#312 = FILL_AREA_STYLE( '', ( #365 ) );
#313 = FILL_AREA_STYLE_COLOUR( '', #366 );
#314 = VERTEX_POINT( '', #367 );
#315 = VERTEX_POINT( '', #368 );
#316 = LINE( '', #369, #370 );
#317 = VERTEX_POINT( '', #371 );
#318 = LINE( '', #372, #373 );
#319 = VERTEX_POINT( '', #374 );
#320 = LINE( '', #375, #376 );
#321 = LINE( '', #377, #378 );
#322 = FILL_AREA_STYLE_COLOUR( '', #379 );
#323 = VERTEX_POINT( '', #380 );
#324 = VERTEX_POINT( '', #381 );
#325 = LINE( '', #382, #383 );
#326 = VERTEX_POINT( '', #384 );
#327 = LINE( '', #385, #386 );
#328 = VERTEX_POINT( '', #387 );
#329 = LINE( '', #388, #389 );
#330 = LINE( '', #390, #391 );
#331 = FILL_AREA_STYLE_COLOUR( '', #392 );
#332 = VERTEX_POINT( '', #393 );
#333 = CIRCLE( '', #394, 1.75000000000000 );
#334 = VERTEX_POINT( '', #395 );
#335 = CIRCLE( '', #396, 1.75000000000000 );
#336 = FILL_AREA_STYLE_COLOUR( '', #397 );
#337 = VERTEX_POINT( '', #398 );
#338 = CIRCLE( '', #399, 3.00000000000000 );
#339 = FILL_AREA_STYLE_COLOUR( '', #400 );
#340 = VERTEX_POINT( '', #401 );
#341 = LINE( '', #402, #403 );
#342 = VERTEX_POINT( '', #404 );
#343 = LINE( '', #405, #406 );
#344 = LINE( '', #407, #408 );
#345 = FILL_AREA_STYLE_COLOUR( '', #409 );
#346 = VERTEX_POINT( '', #410 );
#347 = LINE( '', #411, #412 );
#348 = VERTEX_POINT( '', #413 );
#349 = LINE( '', #414, #415 );
#350 = LINE( '', #416, #417 );
#351 = FILL_AREA_STYLE_COLOUR( '', #418 );
#352 = FILL_AREA_STYLE_COLOUR( '', #419 );
#353 = LINE( '', #420, #421 );
#354 = LINE( '', #422, #423 );
#355 = FILL_AREA_STYLE_COLOUR( '', #424 );
#356 = LINE( '', #425, #426 );
#357 = LINE( '', #427, #428 );
#358 = FILL_AREA_STYLE_COLOUR( '', #429 );
#359 = VERTEX_POINT( '', #430 );
#360 = CIRCLE( '', #431, 2.38650000000000 );
#361 = FILL_AREA_STYLE_COLOUR( '', #432 );
#362 = VERTEX_POINT( '', #433 );
#363 = CIRCLE( '', #434, 3.00000000000000 );
#364 = FILL_AREA_STYLE_COLOUR( '', #435 );
#365 = FILL_AREA_STYLE_COLOUR( '', #436 );
#366 = COLOUR_RGB( '', 0.689999997600000, 0.689999997600000, 0.689999997600000 );
#367 = CARTESIAN_POINT( '', ( 0.000000000000000, -0.866025403784439, -1.50000000000000 ) );
#368 = CARTESIAN_POINT( '', ( 0.000000000000000, 0.866025403784438, -1.50000000000000 ) );
#369 = CARTESIAN_POINT( '', ( 0.000000000000000, -0.866025403784439, -1.50000000000000 ) );
#370 = VECTOR( '', #437, 1000.00000000000 );
#371 = CARTESIAN_POINT( '', ( 3.00000000000000, -0.866025403784439, -1.50000000000000 ) );
#372 = CARTESIAN_POINT( '', ( 3.00000000000000, -0.866025403784439, -1.50000000000000 ) );
#373 = VECTOR( '', #438, 1000.00000000000 );
#374 = CARTESIAN_POINT( '', ( 3.00000000000000, 0.866025403784438, -1.50000000000000 ) );
#375 = CARTESIAN_POINT( '', ( 3.00000000000000, -0.866025403784439, -1.50000000000000 ) );
#376 = VECTOR( '', #439, 1000.00000000000 );
#377 = CARTESIAN_POINT( '', ( 3.00000000000000, 0.866025403784438, -1.50000000000000 ) );
#378 = VECTOR( '', #440, 1000.00000000000 );
#379 = COLOUR_RGB( '', 0.689999997600000, 0.689999997600000, 0.689999997600000 );
#380 = CARTESIAN_POINT( '', ( 0.000000000000000, 0.866025403784439, 1.50000000000000 ) );
#381 = CARTESIAN_POINT( '', ( 0.000000000000000, -0.866025403784439, 1.50000000000000 ) );
#382 = CARTESIAN_POINT( '', ( 0.000000000000000, 0.866025403784439, 1.50000000000000 ) );
#383 = VECTOR( '', #441, 1000.00000000000 );
#384 = CARTESIAN_POINT( '', ( 3.00000000000000, 0.866025403784439, 1.50000000000000 ) );
#385 = CARTESIAN_POINT( '', ( 3.00000000000000, 0.866025403784439, 1.50000000000000 ) );
#386 = VECTOR( '', #442, 1000.00000000000 );
#387 = CARTESIAN_POINT( '', ( 3.00000000000000, -0.866025403784439, 1.50000000000000 ) );
#388 = CARTESIAN_POINT( '', ( 3.00000000000000, 0.866025403784439, 1.50000000000000 ) );
#389 = VECTOR( '', #443, 1000.00000000000 );
#390 = CARTESIAN_POINT( '', ( 3.00000000000000, -0.866025403784439, 1.50000000000000 ) );
#391 = VECTOR( '', #444, 1000.00000000000 );
#392 = COLOUR_RGB( '', 0.689999997600000, 0.689999997600000, 0.689999997600000 );
#393 = CARTESIAN_POINT( '', ( 46.3357864376269, 0.000000000000000, -1.75000000000000 ) );
#394 = AXIS2_PLACEMENT_3D( '', #445, #446, #447 );
#395 = CARTESIAN_POINT( '', ( 45.7000000000000, 0.000000000000000, -1.75000000000000 ) );
#396 = AXIS2_PLACEMENT_3D( '', #448, #449, #450 );
#397 = COLOUR_RGB( '', 0.689999997600000, 0.689999997600000, 0.689999997600000 );
#398 = CARTESIAN_POINT( '', ( 44.5000000000000, 0.000000000000000, -3.00000000000000 ) );
#399 = AXIS2_PLACEMENT_3D( '', #451, #452, #453 );
#400 = COLOUR_RGB( '', 0.689999997600000, 0.689999997600000, 0.689999997600000 );
#401 = CARTESIAN_POINT( '', ( 0.000000000000000, 1.73205080756888, 0.000000000000000 ) );
#402 = CARTESIAN_POINT( '', ( 0.000000000000000, 1.73205080756888, 0.000000000000000 ) );
#403 = VECTOR( '', #454, 1000.00000000000 );
#404 = CARTESIAN_POINT( '', ( 3.00000000000000, 1.73205080756888, 0.000000000000000 ) );
#405 = CARTESIAN_POINT( '', ( 3.00000000000000, 1.73205080756888, 0.000000000000000 ) );
#406 = VECTOR( '', #455, 1000.00000000000 );
#407 = CARTESIAN_POINT( '', ( 3.00000000000000, 1.73205080756888, 0.000000000000000 ) );
#408 = VECTOR( '', #456, 1000.00000000000 );
#409 = COLOUR_RGB( '', 0.689999997600000, 0.689999997600000, 0.689999997600000 );
#410 = CARTESIAN_POINT( '', ( 0.000000000000000, -1.73205080756888, 0.000000000000000 ) );
#411 = CARTESIAN_POINT( '', ( 0.000000000000000, -1.73205080756888, 0.000000000000000 ) );
#412 = VECTOR( '', #457, 1000.00000000000 );
#413 = CARTESIAN_POINT( '', ( 3.00000000000000, -1.73205080756888, 0.000000000000000 ) );
#414 = CARTESIAN_POINT( '', ( 3.00000000000000, -1.73205080756888, 0.000000000000000 ) );
#415 = VECTOR( '', #458, 1000.00000000000 );
#416 = CARTESIAN_POINT( '', ( 3.00000000000000, -1.73205080756888, 0.000000000000000 ) );
#417 = VECTOR( '', #459, 1000.00000000000 );
#418 = COLOUR_RGB( '', 0.689999997600000, 0.689999997600000, 0.689999997600000 );
#419 = COLOUR_RGB( '', 0.689999997600000, 0.689999997600000, 0.689999997600000 );
#420 = CARTESIAN_POINT( '', ( 0.000000000000000, 0.866025403784439, -1.50000000000000 ) );
#421 = VECTOR( '', #460, 1000.00000000000 );
#422 = CARTESIAN_POINT( '', ( 3.00000000000000, 0.866025403784439, -1.50000000000000 ) );
#423 = VECTOR( '', #461, 1000.00000000000 );
#424 = COLOUR_RGB( '', 0.689999997600000, 0.689999997600000, 0.689999997600000 );
#425 = CARTESIAN_POINT( '', ( 0.000000000000000, -0.866025403784439, 1.50000000000000 ) );
#426 = VECTOR( '', #462, 1000.00000000000 );
#427 = CARTESIAN_POINT( '', ( 3.00000000000000, -0.866025403784439, 1.50000000000000 ) );
#428 = VECTOR( '', #463, 1000.00000000000 );
#429 = COLOUR_RGB( '', 0.689999997600000, 0.689999997600000, 0.689999997600000 );
#430 = CARTESIAN_POINT( '', ( 0.000000000000000, 0.000000000000000, -2.38650000000000 ) );
#431 = AXIS2_PLACEMENT_3D( '', #464, #465, #466 );
#432 = COLOUR_RGB( '', 0.689999997600000, 0.689999997600000, 0.689999997600000 );
#433 = CARTESIAN_POINT( '', ( 0.613500000000003, 0.000000000000000, -3.00000000000000 ) );
#434 = AXIS2_PLACEMENT_3D( '', #467, #468, #469 );
#435 = COLOUR_RGB( '', 0.689999997600000, 0.689999997600000, 0.689999997600000 );
#436 = COLOUR_RGB( '', 0.689999997600000, 0.689999997600000, 0.689999997600000 );
#437 = DIRECTION( '', ( 0.000000000000000, 1.00000000000000, 0.000000000000000 ) );
#438 = DIRECTION( '', ( -1.00000000000000, -0.000000000000000, -0.000000000000000 ) );
#439 = DIRECTION( '', ( 0.000000000000000, 1.00000000000000, 0.000000000000000 ) );
#440 = DIRECTION( '', ( -1.00000000000000, -0.000000000000000, -0.000000000000000 ) );
#441 = DIRECTION( '', ( 0.000000000000000, -1.00000000000000, 0.000000000000000 ) );
#442 = DIRECTION( '', ( -1.00000000000000, -0.000000000000000, -0.000000000000000 ) );
#443 = DIRECTION( '', ( 0.000000000000000, -1.00000000000000, 0.000000000000000 ) );
#444 = DIRECTION( '', ( -1.00000000000000, -0.000000000000000, -0.000000000000000 ) );
#445 = CARTESIAN_POINT( '', ( 46.3357864376269, 0.000000000000000, 0.000000000000000 ) );
#446 = DIRECTION( '', ( 1.00000000000000, 0.000000000000000, -0.000000000000000 ) );
#447 = DIRECTION( '', ( -0.000000000000000, 0.000000000000000, -1.00000000000000 ) );
#448 = CARTESIAN_POINT( '', ( 45.7000000000000, 0.000000000000000, 0.000000000000000 ) );
#449 = DIRECTION( '', ( 1.00000000000000, 0.000000000000000, -0.000000000000000 ) );
#450 = DIRECTION( '', ( -0.000000000000000, 0.000000000000000, -1.00000000000000 ) );
#451 = CARTESIAN_POINT( '', ( 44.5000000000000, 0.000000000000000, 0.000000000000000 ) );
#452 = DIRECTION( '', ( 1.00000000000000, 0.000000000000000, -0.000000000000000 ) );
#453 = DIRECTION( '', ( -0.000000000000000, 0.000000000000000, -1.00000000000000 ) );
#454 = DIRECTION( '', ( 0.000000000000000, -0.500000000000000, 0.866025403784439 ) );
#455 = DIRECTION( '', ( -1.00000000000000, -0.000000000000000, -0.000000000000000 ) );
#456 = DIRECTION( '', ( 0.000000000000000, -0.500000000000000, 0.866025403784439 ) );
#457 = DIRECTION( '', ( 0.000000000000000, 0.500000000000000, -0.866025403784439 ) );
#458 = DIRECTION( '', ( -1.00000000000000, -0.000000000000000, -0.000000000000000 ) );
#459 = DIRECTION( '', ( 0.000000000000000, 0.500000000000000, -0.866025403784439 ) );
#460 = DIRECTION( '', ( 0.000000000000000, 0.500000000000000, 0.866025403784439 ) );
#461 = DIRECTION( '', ( 0.000000000000000, 0.500000000000000, 0.866025403784439 ) );
#462 = DIRECTION( '', ( 0.000000000000000, -0.500000000000000, -0.866025403784439 ) );
#463 = DIRECTION( '', ( 0.000000000000000, -0.500000000000000, -0.866025403784439 ) );
#464 = CARTESIAN_POINT( '', ( 0.000000000000000, 0.000000000000000, 0.000000000000000 ) );
#465 = DIRECTION( '', ( 1.00000000000000, 0.000000000000000, -0.000000000000000 ) );
#466 = DIRECTION( '', ( -0.000000000000000, 0.000000000000000, -1.00000000000000 ) );
#467 = CARTESIAN_POINT( '', ( 0.613500000000003, 0.000000000000000, 0.000000000000000 ) );
#468 = DIRECTION( '', ( 1.00000000000000, 0.000000000000000, -0.000000000000000 ) );
#469 = DIRECTION( '', ( -0.000000000000000, 0.000000000000000, -1.00000000000000 ) );
ENDSEC;
END-ISO-10303-21;
