ISO-10303-21;
HEADER;
FILE_DESCRIPTION( ( 'STEP AP214' ), '1' );
FILE_NAME( '//goodhand-server/Shared Folders/GoodHand Data/Kipp CAD/K0367/K0367.2500.stp', '2020-12-03T15:16:16', ( '' ), ( '' ), ' ', 'PARTsolutions', ' ' );
FILE_SCHEMA( ( 'AUTOMOTIVE_DESIGN { 1 0 10303 214 1 1 1 1 }' ) );
ENDSEC;
DATA;
#1 = MECHANICAL_DESIGN_GEOMETRIC_PRESENTATION_REPRESENTATION( ' ', ( #10, #11, #12, #13, #14, #15, #16, #17, #18, #19, #20, #21, #22 ), #6 );
#2 = PRODUCT_DEFINITION_CONTEXT( '', #23, 'design' );
#3 = APPLICATION_PROTOCOL_DEFINITION( 'international standard', 'automotive_design', 2001, #23 );
#4 = PRODUCT_CATEGORY_RELATIONSHIP( 'NONE', 'NONE', #24, #25 );
#5 = SHAPE_DEFINITION_REPRESENTATION( #26, #27 );
#6 =  ( GEOMETRIC_REPRESENTATION_CONTEXT( 3 )GLOBAL_UNCERTAINTY_ASSIGNED_CONTEXT( ( #30 ) )GLOBAL_UNIT_ASSIGNED_CONTEXT( ( #32, #33, #34 ) )REPRESENTATION_CONTEXT( 'NONE', 'WORKSPACE' ) );
#10 = STYLED_ITEM( '', ( #36 ), #37 );
#11 = STYLED_ITEM( '', ( #38 ), #39 );
#12 = STYLED_ITEM( '', ( #40 ), #41 );
#13 = STYLED_ITEM( '', ( #42 ), #43 );
#14 = STYLED_ITEM( '', ( #44 ), #45 );
#15 = STYLED_ITEM( '', ( #46 ), #47 );
#16 = STYLED_ITEM( '', ( #48 ), #49 );
#17 = STYLED_ITEM( '', ( #50 ), #51 );
#18 = STYLED_ITEM( '', ( #52 ), #53 );
#19 = STYLED_ITEM( '', ( #54 ), #55 );
#20 = STYLED_ITEM( '', ( #56 ), #57 );
#21 = STYLED_ITEM( '', ( #58 ), #59 );
#22 = STYLED_ITEM( '', ( #60 ), #61 );
#23 = APPLICATION_CONTEXT( 'core data for automotive mechanical design processes' );
#24 = PRODUCT_CATEGORY( 'part', 'NONE' );
#25 = PRODUCT_RELATED_PRODUCT_CATEGORY( 'detail', ' ', ( #62 ) );
#26 = PRODUCT_DEFINITION_SHAPE( 'NONE', 'NONE', #63 );
#27 = ADVANCED_BREP_SHAPE_REPRESENTATION( '_K0367.2500', ( #64, #65 ), #6 );
#30 = UNCERTAINTY_MEASURE_WITH_UNIT( LENGTH_MEASURE( 0.00100000000000000 ), #32, '', '' );
#32 =  ( CONVERSION_BASED_UNIT( 'MILLIMETRE', #68 )LENGTH_UNIT(  )NAMED_UNIT( #71 ) );
#33 =  ( NAMED_UNIT( #73 )PLANE_ANGLE_UNIT(  )SI_UNIT( $, .RADIAN. ) );
#34 =  ( NAMED_UNIT( #73 )SI_UNIT( $, .STERADIAN. )SOLID_ANGLE_UNIT(  ) );
#36 = PRESENTATION_STYLE_ASSIGNMENT( ( #79 ) );
#37 = ADVANCED_FACE( '', ( #80, #81, #82 ), #83, .T. );
#38 = PRESENTATION_STYLE_ASSIGNMENT( ( #84 ) );
#39 = ADVANCED_FACE( '', ( #85, #86 ), #87, .T. );
#40 = PRESENTATION_STYLE_ASSIGNMENT( ( #88 ) );
#41 = ADVANCED_FACE( '', ( #89, #90 ), #91, .T. );
#42 = PRESENTATION_STYLE_ASSIGNMENT( ( #92 ) );
#43 = ADVANCED_FACE( '', ( #93, #94 ), #95, .F. );
#44 = PRESENTATION_STYLE_ASSIGNMENT( ( #96 ) );
#45 = ADVANCED_FACE( '', ( #97, #98 ), #99, .T. );
#46 = PRESENTATION_STYLE_ASSIGNMENT( ( #100 ) );
#47 = ADVANCED_FACE( '', ( #101, #102, #103 ), #104, .T. );
#48 = PRESENTATION_STYLE_ASSIGNMENT( ( #105 ) );
#49 = ADVANCED_FACE( '', ( #106, #107, #108 ), #109, .T. );
#50 = PRESENTATION_STYLE_ASSIGNMENT( ( #110 ) );
#51 = ADVANCED_FACE( '', ( #111, #112 ), #113, .T. );
#52 = PRESENTATION_STYLE_ASSIGNMENT( ( #114 ) );
#53 = ADVANCED_FACE( '', ( #115, #116 ), #117, .T. );
#54 = PRESENTATION_STYLE_ASSIGNMENT( ( #118 ) );
#55 = ADVANCED_FACE( '', ( #119, #120 ), #121, .T. );
#56 = PRESENTATION_STYLE_ASSIGNMENT( ( #122 ) );
#57 = ADVANCED_FACE( '', ( #123, #124 ), #125, .T. );
#58 = PRESENTATION_STYLE_ASSIGNMENT( ( #126 ) );
#59 = ADVANCED_FACE( '', ( #127, #128, #129 ), #130, .F. );
#60 = PRESENTATION_STYLE_ASSIGNMENT( ( #131 ) );
#61 = ADVANCED_FACE( '', ( #132, #133 ), #134, .T. );
#62 = PRODUCT( '_K0367.2500', '_K0367.2500', 'PART-_K0367.2500-DESC', ( #135 ) );
#63 = PRODUCT_DEFINITION( 'NONE', 'NONE', #136, #2 );
#64 = MANIFOLD_SOLID_BREP( '_K0367.2500', #137 );
#65 = AXIS2_PLACEMENT_3D( '', #138, #139, #140 );
#68 = LENGTH_MEASURE_WITH_UNIT( LENGTH_MEASURE( 1.00000000000000 ), #141 );
#71 = DIMENSIONAL_EXPONENTS( 1.00000000000000, 0.000000000000000, 0.000000000000000, 0.000000000000000, 0.000000000000000, 0.000000000000000, 0.000000000000000 );
#73 = DIMENSIONAL_EXPONENTS( 0.000000000000000, 0.000000000000000, 0.000000000000000, 0.000000000000000, 0.000000000000000, 0.000000000000000, 0.000000000000000 );
#79 = SURFACE_STYLE_USAGE( .BOTH., #142 );
#80 = FACE_BOUND( '', #143, .T. );
#81 = FACE_OUTER_BOUND( '', #144, .T. );
#82 = FACE_OUTER_BOUND( '', #145, .T. );
#83 = TOROIDAL_SURFACE( '', #146, 4.20000000000000, 0.800000000000000 );
#84 = SURFACE_STYLE_USAGE( .BOTH., #147 );
#85 = FACE_OUTER_BOUND( '', #148, .T. );
#86 = FACE_OUTER_BOUND( '', #149, .T. );
#87 = CYLINDRICAL_SURFACE( '', #150, 0.800000000000000 );
#88 = SURFACE_STYLE_USAGE( .BOTH., #151 );
#89 = FACE_OUTER_BOUND( '', #152, .T. );
#90 = FACE_OUTER_BOUND( '', #153, .T. );
#91 = CYLINDRICAL_SURFACE( '', #154, 0.800000000000000 );
#92 = SURFACE_STYLE_USAGE( .BOTH., #155 );
#93 = FACE_BOUND( '', #156, .T. );
#94 = FACE_OUTER_BOUND( '', #157, .T. );
#95 = PLANE( '', #158 );
#96 = SURFACE_STYLE_USAGE( .BOTH., #159 );
#97 = FACE_BOUND( '', #160, .T. );
#98 = FACE_OUTER_BOUND( '', #161, .T. );
#99 = PLANE( '', #162 );
#100 = SURFACE_STYLE_USAGE( .BOTH., #163 );
#101 = FACE_BOUND( '', #164, .T. );
#102 = FACE_BOUND( '', #165, .T. );
#103 = FACE_OUTER_BOUND( '', #166, .T. );
#104 = PLANE( '', #167 );
#105 = SURFACE_STYLE_USAGE( .BOTH., #168 );
#106 = FACE_BOUND( '', #169, .T. );
#107 = FACE_OUTER_BOUND( '', #170, .T. );
#108 = FACE_OUTER_BOUND( '', #171, .T. );
#109 = TOROIDAL_SURFACE( '', #172, 4.20000000000000, 0.800000000000000 );
#110 = SURFACE_STYLE_USAGE( .BOTH., #173 );
#111 = FACE_OUTER_BOUND( '', #174, .T. );
#112 = FACE_OUTER_BOUND( '', #175, .T. );
#113 = CYLINDRICAL_SURFACE( '', #176, 0.800000000000000 );
#114 = SURFACE_STYLE_USAGE( .BOTH., #177 );
#115 = FACE_OUTER_BOUND( '', #178, .T. );
#116 = FACE_OUTER_BOUND( '', #179, .T. );
#117 = CYLINDRICAL_SURFACE( '', #180, 2.50000000000000 );
#118 = SURFACE_STYLE_USAGE( .BOTH., #181 );
#119 = FACE_OUTER_BOUND( '', #182, .T. );
#120 = FACE_OUTER_BOUND( '', #183, .T. );
#121 = CYLINDRICAL_SURFACE( '', #184, 0.800000000000000 );
#122 = SURFACE_STYLE_USAGE( .BOTH., #185 );
#123 = FACE_OUTER_BOUND( '', #186, .T. );
#124 = FACE_OUTER_BOUND( '', #187, .T. );
#125 = CYLINDRICAL_SURFACE( '', #188, 2.50000000000000 );
#126 = SURFACE_STYLE_USAGE( .BOTH., #189 );
#127 = FACE_BOUND( '', #190, .T. );
#128 = FACE_BOUND( '', #191, .T. );
#129 = FACE_OUTER_BOUND( '', #192, .T. );
#130 = PLANE( '', #193 );
#131 = SURFACE_STYLE_USAGE( .BOTH., #194 );
#132 = FACE_OUTER_BOUND( '', #195, .T. );
#133 = FACE_OUTER_BOUND( '', #196, .T. );
#134 = CYLINDRICAL_SURFACE( '', #197, 0.800000000000000 );
#135 = PRODUCT_CONTEXT( '', #23, 'mechanical' );
#136 = PRODUCT_DEFINITION_FORMATION_WITH_SPECIFIED_SOURCE( ' ', 'NONE', #62, .NOT_KNOWN. );
#137 = CLOSED_SHELL( '', ( #55, #37, #39, #53, #61, #57, #45, #41, #59, #49, #51, #43, #47 ) );
#138 = CARTESIAN_POINT( '', ( 0.000000000000000, 0.000000000000000, 0.000000000000000 ) );
#139 = DIRECTION( '', ( 0.000000000000000, 0.000000000000000, 1.00000000000000 ) );
#140 = DIRECTION( '', ( 1.00000000000000, 0.000000000000000, 0.000000000000000 ) );
#141 =  ( LENGTH_UNIT(  )NAMED_UNIT( #71 )SI_UNIT( .MILLI., .METRE. ) );
#142 = SURFACE_SIDE_STYLE( '', ( #199 ) );
#143 = VERTEX_LOOP( '', #200 );
#144 = EDGE_LOOP( '', ( #201 ) );
#145 = EDGE_LOOP( '', ( #202 ) );
#146 = AXIS2_PLACEMENT_3D( '', #203, #204, #205 );
#147 = SURFACE_SIDE_STYLE( '', ( #206 ) );
#148 = EDGE_LOOP( '', ( #207 ) );
#149 = EDGE_LOOP( '', ( #208 ) );
#150 = AXIS2_PLACEMENT_3D( '', #209, #210, #211 );
#151 = SURFACE_SIDE_STYLE( '', ( #212 ) );
#152 = EDGE_LOOP( '', ( #213 ) );
#153 = EDGE_LOOP( '', ( #214 ) );
#154 = AXIS2_PLACEMENT_3D( '', #215, #216, #217 );
#155 = SURFACE_SIDE_STYLE( '', ( #218 ) );
#156 = EDGE_LOOP( '', ( #219 ) );
#157 = EDGE_LOOP( '', ( #220 ) );
#158 = AXIS2_PLACEMENT_3D( '', #221, #222, #223 );
#159 = SURFACE_SIDE_STYLE( '', ( #224 ) );
#160 = EDGE_LOOP( '', ( #225 ) );
#161 = EDGE_LOOP( '', ( #226 ) );
#162 = AXIS2_PLACEMENT_3D( '', #227, #228, #229 );
#163 = SURFACE_SIDE_STYLE( '', ( #230 ) );
#164 = EDGE_LOOP( '', ( #231 ) );
#165 = EDGE_LOOP( '', ( #232 ) );
#166 = EDGE_LOOP( '', ( #233 ) );
#167 = AXIS2_PLACEMENT_3D( '', #234, #235, #236 );
#168 = SURFACE_SIDE_STYLE( '', ( #237 ) );
#169 = VERTEX_LOOP( '', #238 );
#170 = EDGE_LOOP( '', ( #239 ) );
#171 = EDGE_LOOP( '', ( #240 ) );
#172 = AXIS2_PLACEMENT_3D( '', #241, #242, #243 );
#173 = SURFACE_SIDE_STYLE( '', ( #244 ) );
#174 = EDGE_LOOP( '', ( #245 ) );
#175 = EDGE_LOOP( '', ( #246 ) );
#176 = AXIS2_PLACEMENT_3D( '', #247, #248, #249 );
#177 = SURFACE_SIDE_STYLE( '', ( #250 ) );
#178 = EDGE_LOOP( '', ( #251 ) );
#179 = EDGE_LOOP( '', ( #252 ) );
#180 = AXIS2_PLACEMENT_3D( '', #253, #254, #255 );
#181 = SURFACE_SIDE_STYLE( '', ( #256 ) );
#182 = EDGE_LOOP( '', ( #257 ) );
#183 = EDGE_LOOP( '', ( #258 ) );
#184 = AXIS2_PLACEMENT_3D( '', #259, #260, #261 );
#185 = SURFACE_SIDE_STYLE( '', ( #262 ) );
#186 = EDGE_LOOP( '', ( #263 ) );
#187 = EDGE_LOOP( '', ( #264 ) );
#188 = AXIS2_PLACEMENT_3D( '', #265, #266, #267 );
#189 = SURFACE_SIDE_STYLE( '', ( #268 ) );
#190 = EDGE_LOOP( '', ( #269 ) );
#191 = EDGE_LOOP( '', ( #270 ) );
#192 = EDGE_LOOP( '', ( #271 ) );
#193 = AXIS2_PLACEMENT_3D( '', #272, #273, #274 );
#194 = SURFACE_SIDE_STYLE( '', ( #275 ) );
#195 = EDGE_LOOP( '', ( #276 ) );
#196 = EDGE_LOOP( '', ( #277 ) );
#197 = AXIS2_PLACEMENT_3D( '', #278, #279, #280 );
#199 = SURFACE_STYLE_FILL_AREA( #281 );
#200 = VERTEX_POINT( '', #282 );
#201 = ORIENTED_EDGE( '', *, *, #283, .T. );
#202 = ORIENTED_EDGE( '', *, *, #284, .F. );
#203 = CARTESIAN_POINT( '', ( 496.589923538599, 0.000000000000000, -0.899287256001548 ) );
#204 = DIRECTION( '', ( 0.000000000000000, -1.00000000000000, -0.000000000000000 ) );
#205 = DIRECTION( '', ( 0.000000000000000, 0.000000000000000, -1.00000000000000 ) );
#206 = SURFACE_STYLE_FILL_AREA( #285 );
#207 = ORIENTED_EDGE( '', *, *, #286, .F. );
#208 = ORIENTED_EDGE( '', *, *, #284, .T. );
#209 = CARTESIAN_POINT( '', ( 483.882355771703, 0.000000000000000, -0.502145656910290 ) );
#210 = DIRECTION( '', ( -0.953716950748227, 0.000000000000000, -0.300705799504273 ) );
#211 = DIRECTION( '', ( 0.300705799504273, 0.000000000000000, -0.953716950748227 ) );
#212 = SURFACE_STYLE_FILL_AREA( #287 );
#213 = ORIENTED_EDGE( '', *, *, #288, .F. );
#214 = ORIENTED_EDGE( '', *, *, #289, .T. );
#215 = CARTESIAN_POINT( '', ( 4.67304081931883, 0.000000000000000, -4.90489844914408 ) );
#216 = DIRECTION( '', ( -0.953716950748227, 0.000000000000000, -0.300705799504273 ) );
#217 = DIRECTION( '', ( 0.300705799504273, 0.000000000000000, -0.953716950748227 ) );
#218 = SURFACE_STYLE_FILL_AREA( #290 );
#219 = ORIENTED_EDGE( '', *, *, #291, .T. );
#220 = ORIENTED_EDGE( '', *, *, #292, .F. );
#221 = CARTESIAN_POINT( '', ( 475.100000000000, 0.000000000000000, -0.900000000000000 ) );
#222 = DIRECTION( '', ( 1.00000000000000, 0.000000000000000, 0.000000000000000 ) );
#223 = DIRECTION( '', ( 0.000000000000000, 0.000000000000000, -1.00000000000000 ) );
#224 = SURFACE_STYLE_FILL_AREA( #293 );
#225 = ORIENTED_EDGE( '', *, *, #294, .F. );
#226 = ORIENTED_EDGE( '', *, *, #295, .T. );
#227 = CARTESIAN_POINT( '', ( 24.9000000000000, 0.000000000000000, -0.900000000000000 ) );
#228 = DIRECTION( '', ( 1.00000000000000, 0.000000000000000, 0.000000000000000 ) );
#229 = DIRECTION( '', ( 0.000000000000000, 0.000000000000000, -1.00000000000000 ) );
#230 = SURFACE_STYLE_FILL_AREA( #296 );
#231 = ORIENTED_EDGE( '', *, *, #286, .T. );
#232 = ORIENTED_EDGE( '', *, *, #297, .T. );
#233 = ORIENTED_EDGE( '', *, *, #298, .T. );
#234 = CARTESIAN_POINT( '', ( 485.600000000000, 0.000000000000000, -0.900000000000000 ) );
#235 = DIRECTION( '', ( 1.00000000000000, 0.000000000000000, 0.000000000000000 ) );
#236 = DIRECTION( '', ( 0.000000000000000, 0.000000000000000, -1.00000000000000 ) );
#237 = SURFACE_STYLE_FILL_AREA( #299 );
#238 = VERTEX_POINT( '', #300 );
#239 = ORIENTED_EDGE( '', *, *, #288, .T. );
#240 = ORIENTED_EDGE( '', *, *, #301, .F. );
#241 = CARTESIAN_POINT( '', ( 3.41007646140089, 0.000000000000000, -0.899287256001528 ) );
#242 = DIRECTION( '', ( -0.000000000000000, 1.00000000000000, 0.000000000000000 ) );
#243 = DIRECTION( '', ( 0.000000000000000, 0.000000000000000, 1.00000000000000 ) );
#244 = SURFACE_STYLE_FILL_AREA( #302 );
#245 = ORIENTED_EDGE( '', *, *, #301, .T. );
#246 = ORIENTED_EDGE( '', *, *, #303, .T. );
#247 = CARTESIAN_POINT( '', ( 16.1176442282976, 0.000000000000000, -0.502145656910247 ) );
#248 = DIRECTION( '', ( 0.953716950748227, 0.000000000000000, -0.300705799504273 ) );
#249 = DIRECTION( '', ( 0.300705799504273, 0.000000000000000, 0.953716950748227 ) );
#250 = SURFACE_STYLE_FILL_AREA( #304 );
#251 = ORIENTED_EDGE( '', *, *, #305, .T. );
#252 = ORIENTED_EDGE( '', *, *, #295, .F. );
#253 = CARTESIAN_POINT( '', ( 14.4000000000000, 0.000000000000000, -0.900000000000000 ) );
#254 = DIRECTION( '', ( -1.00000000000000, -0.000000000000000, -0.000000000000000 ) );
#255 = DIRECTION( '', ( 0.000000000000000, 0.000000000000000, -1.00000000000000 ) );
#256 = SURFACE_STYLE_FILL_AREA( #306 );
#257 = ORIENTED_EDGE( '', *, *, #297, .F. );
#258 = ORIENTED_EDGE( '', *, *, #283, .F. );
#259 = CARTESIAN_POINT( '', ( 495.326959180681, 0.000000000000000, -4.90489844914410 ) );
#260 = DIRECTION( '', ( 0.953716950748227, 0.000000000000000, -0.300705799504273 ) );
#261 = DIRECTION( '', ( 0.300705799504273, 0.000000000000000, 0.953716950748227 ) );
#262 = SURFACE_STYLE_FILL_AREA( #307 );
#263 = ORIENTED_EDGE( '', *, *, #298, .F. );
#264 = ORIENTED_EDGE( '', *, *, #292, .T. );
#265 = CARTESIAN_POINT( '', ( 485.600000000000, 0.000000000000000, -0.900000000000000 ) );
#266 = DIRECTION( '', ( 1.00000000000000, -0.000000000000000, -0.000000000000000 ) );
#267 = DIRECTION( '', ( 0.000000000000000, 0.000000000000000, 1.00000000000000 ) );
#268 = SURFACE_STYLE_FILL_AREA( #308 );
#269 = ORIENTED_EDGE( '', *, *, #303, .F. );
#270 = ORIENTED_EDGE( '', *, *, #289, .F. );
#271 = ORIENTED_EDGE( '', *, *, #305, .F. );
#272 = CARTESIAN_POINT( '', ( 14.4000000000000, 0.000000000000000, -0.900000000000000 ) );
#273 = DIRECTION( '', ( 1.00000000000000, 0.000000000000000, 0.000000000000000 ) );
#274 = DIRECTION( '', ( 0.000000000000000, 0.000000000000000, -1.00000000000000 ) );
#275 = SURFACE_STYLE_FILL_AREA( #309 );
#276 = ORIENTED_EDGE( '', *, *, #291, .F. );
#277 = ORIENTED_EDGE( '', *, *, #294, .T. );
#278 = CARTESIAN_POINT( '', ( 475.100000000000, 0.000000000000000, 0.000000000000000 ) );
#279 = DIRECTION( '', ( 1.00000000000000, -0.000000000000000, -0.000000000000000 ) );
#280 = DIRECTION( '', ( 0.000000000000000, 0.000000000000000, 1.00000000000000 ) );
#281 = FILL_AREA_STYLE( '', ( #310 ) );
#282 = CARTESIAN_POINT( '', ( 496.589923538599, 0.000000000000000, -5.89928725600160 ) );
#283 = EDGE_CURVE( '', #311, #311, #312, .T. );
#284 = EDGE_CURVE( '', #313, #313, #314, .T. );
#285 = FILL_AREA_STYLE( '', ( #315 ) );
#286 = EDGE_CURVE( '', #316, #316, #317, .F. );
#287 = FILL_AREA_STYLE( '', ( #318 ) );
#288 = EDGE_CURVE( '', #319, #319, #320, .T. );
#289 = EDGE_CURVE( '', #321, #321, #322, .F. );
#290 = FILL_AREA_STYLE( '', ( #323 ) );
#291 = EDGE_CURVE( '', #324, #324, #325, .T. );
#292 = EDGE_CURVE( '', #326, #326, #327, .T. );
#293 = FILL_AREA_STYLE( '', ( #328 ) );
#294 = EDGE_CURVE( '', #329, #329, #330, .T. );
#295 = EDGE_CURVE( '', #331, #331, #332, .T. );
#296 = FILL_AREA_STYLE( '', ( #333 ) );
#297 = EDGE_CURVE( '', #334, #334, #335, .F. );
#298 = EDGE_CURVE( '', #336, #336, #337, .T. );
#299 = FILL_AREA_STYLE( '', ( #338 ) );
#300 = CARTESIAN_POINT( '', ( 3.41007646140089, 0.000000000000000, 4.10071274399847 ) );
#301 = EDGE_CURVE( '', #339, #339, #340, .T. );
#302 = FILL_AREA_STYLE( '', ( #341 ) );
#303 = EDGE_CURVE( '', #342, #342, #343, .F. );
#304 = FILL_AREA_STYLE( '', ( #344 ) );
#305 = EDGE_CURVE( '', #345, #345, #346, .T. );
#306 = FILL_AREA_STYLE( '', ( #347 ) );
#307 = FILL_AREA_STYLE( '', ( #348 ) );
#308 = FILL_AREA_STYLE( '', ( #349 ) );
#309 = FILL_AREA_STYLE( '', ( #350 ) );
#310 = FILL_AREA_STYLE_COLOUR( '', #351 );
#311 = VERTEX_POINT( '', #352 );
#312 = CIRCLE( '', #353, 0.800000000000000 );
#313 = VERTEX_POINT( '', #354 );
#314 = CIRCLE( '', #355, 0.800000000000000 );
#315 = FILL_AREA_STYLE_COLOUR( '', #356 );
#316 = VERTEX_POINT( '', #357 );
#317 = ELLIPSE( '', #358, 0.838823300100000, 0.800000000000000 );
#318 = FILL_AREA_STYLE_COLOUR( '', #359 );
#319 = VERTEX_POINT( '', #360 );
#320 = CIRCLE( '', #361, 0.800000000000000 );
#321 = VERTEX_POINT( '', #362 );
#322 = ELLIPSE( '', #363, 0.838823300100000, 0.800000000000000 );
#323 = FILL_AREA_STYLE_COLOUR( '', #364 );
#324 = VERTEX_POINT( '', #365 );
#325 = CIRCLE( '', #366, 0.800000000000000 );
#326 = VERTEX_POINT( '', #367 );
#327 = CIRCLE( '', #368, 2.50000000000000 );
#328 = FILL_AREA_STYLE_COLOUR( '', #369 );
#329 = VERTEX_POINT( '', #370 );
#330 = CIRCLE( '', #371, 0.800000000000000 );
#331 = VERTEX_POINT( '', #372 );
#332 = CIRCLE( '', #373, 2.50000000000000 );
#333 = FILL_AREA_STYLE_COLOUR( '', #374 );
#334 = VERTEX_POINT( '', #375 );
#335 = ELLIPSE( '', #376, 0.838823300100000, 0.800000000000000 );
#336 = VERTEX_POINT( '', #377 );
#337 = CIRCLE( '', #378, 2.50000000000000 );
#338 = FILL_AREA_STYLE_COLOUR( '', #379 );
#339 = VERTEX_POINT( '', #380 );
#340 = CIRCLE( '', #381, 0.800000000000000 );
#341 = FILL_AREA_STYLE_COLOUR( '', #382 );
#342 = VERTEX_POINT( '', #383 );
#343 = ELLIPSE( '', #384, 0.838823300100000, 0.800000000000000 );
#344 = FILL_AREA_STYLE_COLOUR( '', #385 );
#345 = VERTEX_POINT( '', #386 );
#346 = CIRCLE( '', #387, 2.50000000000000 );
#347 = FILL_AREA_STYLE_COLOUR( '', #388 );
#348 = FILL_AREA_STYLE_COLOUR( '', #389 );
#349 = FILL_AREA_STYLE_COLOUR( '', #390 );
#350 = FILL_AREA_STYLE_COLOUR( '', #391 );
#351 = COLOUR_RGB( '', 0.689999997600000, 0.689999997600000, 0.689999997600000 );
#352 = CARTESIAN_POINT( '', ( 495.086394541078, 0.000000000000000, -5.66787200974268 ) );
#353 = AXIS2_PLACEMENT_3D( '', #392, #393, #394 );
#354 = CARTESIAN_POINT( '', ( 495.086394541078, 0.000000000000000, 3.86929749773963 ) );
#355 = AXIS2_PLACEMENT_3D( '', #395, #396, #397 );
#356 = COLOUR_RGB( '', 0.689999997600000, 0.689999997600000, 0.689999997600000 );
#357 = CARTESIAN_POINT( '', ( 485.600000000000, 0.000000000000000, 0.878248788109539 ) );
#358 = AXIS2_PLACEMENT_3D( '', #398, #399, #400 );
#359 = COLOUR_RGB( '', 0.689999997600000, 0.689999997600000, 0.689999997600000 );
#360 = CARTESIAN_POINT( '', ( 4.43247617971541, 0.000000000000000, -4.14192488854550 ) );
#361 = AXIS2_PLACEMENT_3D( '', #401, #402, #403 );
#362 = CARTESIAN_POINT( '', ( 14.4000000000000, 0.000000000000000, -0.999176699887351 ) );
#363 = AXIS2_PLACEMENT_3D( '', #404, #405, #406 );
#364 = COLOUR_RGB( '', 0.689999997600000, 0.689999997600000, 0.689999997600000 );
#365 = CARTESIAN_POINT( '', ( 475.100000000000, 0.000000000000000, -0.800000000000000 ) );
#366 = AXIS2_PLACEMENT_3D( '', #407, #408, #409 );
#367 = CARTESIAN_POINT( '', ( 475.100000000000, 0.000000000000000, -3.40000000000000 ) );
#368 = AXIS2_PLACEMENT_3D( '', #410, #411, #412 );
#369 = COLOUR_RGB( '', 0.689999997600000, 0.689999997600000, 0.689999997600000 );
#370 = CARTESIAN_POINT( '', ( 24.9000000000000, 0.000000000000000, -0.800000000000000 ) );
#371 = AXIS2_PLACEMENT_3D( '', #413, #414, #415 );
#372 = CARTESIAN_POINT( '', ( 24.9000000000000, 0.000000000000000, -3.40000000000000 ) );
#373 = AXIS2_PLACEMENT_3D( '', #416, #417, #418 );
#374 = COLOUR_RGB( '', 0.689999997600000, 0.689999997600000, 0.689999997600000 );
#375 = CARTESIAN_POINT( '', ( 485.600000000000, 0.000000000000000, -0.999176699887390 ) );
#376 = AXIS2_PLACEMENT_3D( '', #419, #420, #421 );
#377 = CARTESIAN_POINT( '', ( 485.600000000000, 0.000000000000000, -3.40000000000000 ) );
#378 = AXIS2_PLACEMENT_3D( '', #422, #423, #424 );
#379 = COLOUR_RGB( '', 0.689999997600000, 0.689999997600000, 0.689999997600000 );
#380 = CARTESIAN_POINT( '', ( 4.43247617971541, 0.000000000000000, 2.34335037654245 ) );
#381 = AXIS2_PLACEMENT_3D( '', #425, #426, #427 );
#382 = COLOUR_RGB( '', 0.689999997600000, 0.689999997600000, 0.689999997600000 );
#383 = CARTESIAN_POINT( '', ( 14.4000000000000, 0.000000000000000, 0.878248788109597 ) );
#384 = AXIS2_PLACEMENT_3D( '', #428, #429, #430 );
#385 = COLOUR_RGB( '', 0.689999997600000, 0.689999997600000, 0.689999997600000 );
#386 = CARTESIAN_POINT( '', ( 14.4000000000000, 0.000000000000000, -3.40000000000000 ) );
#387 = AXIS2_PLACEMENT_3D( '', #431, #432, #433 );
#388 = COLOUR_RGB( '', 0.689999997600000, 0.689999997600000, 0.689999997600000 );
#389 = COLOUR_RGB( '', 0.689999997600000, 0.689999997600000, 0.689999997600000 );
#390 = COLOUR_RGB( '', 0.689999997600000, 0.689999997600000, 0.689999997600000 );
#391 = COLOUR_RGB( '', 0.689999997600000, 0.689999997600000, 0.689999997600000 );
#392 = CARTESIAN_POINT( '', ( 495.326959180681, 0.000000000000000, -4.90489844914410 ) );
#393 = DIRECTION( '', ( 0.953716950748227, 0.000000000000000, -0.300705799504273 ) );
#394 = DIRECTION( '', ( -0.300705799504273, 0.000000000000000, -0.953716950748227 ) );
#395 = CARTESIAN_POINT( '', ( 495.326959180681, 0.000000000000000, 3.10632393714105 ) );
#396 = DIRECTION( '', ( -0.953716950748227, 0.000000000000000, -0.300705799504273 ) );
#397 = DIRECTION( '', ( -0.300705799504273, 0.000000000000000, 0.953716950748227 ) );
#398 = CARTESIAN_POINT( '', ( 485.600000000000, 0.000000000000000, 0.0394254879968910 ) );
#399 = DIRECTION( '', ( 1.00000000000000, 0.000000000000000, 0.000000000000000 ) );
#400 = DIRECTION( '', ( 0.000000000000000, -0.000000000000000, 1.00000000000000 ) );
#401 = CARTESIAN_POINT( '', ( 4.67304081931883, 0.000000000000000, -4.90489844914408 ) );
#402 = DIRECTION( '', ( -0.953716950748227, 0.000000000000000, -0.300705799504273 ) );
#403 = DIRECTION( '', ( -0.300705799504273, 0.000000000000000, 0.953716950748227 ) );
#404 = CARTESIAN_POINT( '', ( 14.4000000000000, 0.000000000000000, -1.83800000000000 ) );
#405 = DIRECTION( '', ( 1.00000000000000, 0.000000000000000, 0.000000000000000 ) );
#406 = DIRECTION( '', ( 0.000000000000000, -0.000000000000000, 1.00000000000000 ) );
#407 = CARTESIAN_POINT( '', ( 475.100000000000, 0.000000000000000, 0.000000000000000 ) );
#408 = DIRECTION( '', ( 1.00000000000000, 0.000000000000000, 0.000000000000000 ) );
#409 = DIRECTION( '', ( 0.000000000000000, 0.000000000000000, -1.00000000000000 ) );
#410 = CARTESIAN_POINT( '', ( 475.100000000000, 0.000000000000000, -0.900000000000000 ) );
#411 = DIRECTION( '', ( 1.00000000000000, 0.000000000000000, 0.000000000000000 ) );
#412 = DIRECTION( '', ( 0.000000000000000, 0.000000000000000, -1.00000000000000 ) );
#413 = CARTESIAN_POINT( '', ( 24.9000000000000, 0.000000000000000, 0.000000000000000 ) );
#414 = DIRECTION( '', ( 1.00000000000000, 0.000000000000000, 0.000000000000000 ) );
#415 = DIRECTION( '', ( 0.000000000000000, 0.000000000000000, -1.00000000000000 ) );
#416 = CARTESIAN_POINT( '', ( 24.9000000000000, 0.000000000000000, -0.900000000000000 ) );
#417 = DIRECTION( '', ( 1.00000000000000, 0.000000000000000, 0.000000000000000 ) );
#418 = DIRECTION( '', ( 0.000000000000000, 0.000000000000000, -1.00000000000000 ) );
#419 = CARTESIAN_POINT( '', ( 485.600000000000, 0.000000000000000, -1.83800000000004 ) );
#420 = DIRECTION( '', ( 1.00000000000000, 0.000000000000000, 0.000000000000000 ) );
#421 = DIRECTION( '', ( -0.000000000000000, 0.000000000000000, 1.00000000000000 ) );
#422 = CARTESIAN_POINT( '', ( 485.600000000000, 0.000000000000000, -0.900000000000000 ) );
#423 = DIRECTION( '', ( 1.00000000000000, 0.000000000000000, 0.000000000000000 ) );
#424 = DIRECTION( '', ( 0.000000000000000, 0.000000000000000, -1.00000000000000 ) );
#425 = CARTESIAN_POINT( '', ( 4.67304081931883, 0.000000000000000, 3.10632393714103 ) );
#426 = DIRECTION( '', ( 0.953716950748227, 0.000000000000000, -0.300705799504273 ) );
#427 = DIRECTION( '', ( -0.300705799504273, 0.000000000000000, -0.953716950748227 ) );
#428 = CARTESIAN_POINT( '', ( 14.4000000000000, 0.000000000000000, 0.0394254879969485 ) );
#429 = DIRECTION( '', ( 1.00000000000000, 0.000000000000000, 0.000000000000000 ) );
#430 = DIRECTION( '', ( -0.000000000000000, 0.000000000000000, 1.00000000000000 ) );
#431 = CARTESIAN_POINT( '', ( 14.4000000000000, 0.000000000000000, -0.900000000000000 ) );
#432 = DIRECTION( '', ( 1.00000000000000, 0.000000000000000, 0.000000000000000 ) );
#433 = DIRECTION( '', ( 0.000000000000000, 0.000000000000000, -1.00000000000000 ) );
ENDSEC;
END-ISO-10303-21;
