ISO-10303-21;
HEADER;
FILE_DESCRIPTION( ( 'STEP AP214' ), '1' );
FILE_NAME( '//goodhand-server/Shared Folders/GoodHand Data/Kipp CAD/K0368/K0368.21038_0.stp', '2020-12-03T11:51:38', ( '' ), ( '' ), ' ', 'PARTsolutions', ' ' );
FILE_SCHEMA( ( 'AUTOMOTIVE_DESIGN { 1 0 10303 214 1 1 1 1 }' ) );
ENDSEC;
DATA;
#1 = MECHANICAL_DESIGN_GEOMETRIC_PRESENTATION_REPRESENTATION( ' ', ( #10, #11, #12, #13, #14, #15, #16, #17, #18, #19, #20, #21, #22, #23 ), #6 );
#2 = PRODUCT_DEFINITION_CONTEXT( '', #24, 'design' );
#3 = APPLICATION_PROTOCOL_DEFINITION( 'international standard', 'automotive_design', 2001, #24 );
#4 = PRODUCT_CATEGORY_RELATIONSHIP( 'NONE', 'NONE', #25, #26 );
#5 = SHAPE_DEFINITION_REPRESENTATION( #27, #28 );
#6 =  ( GEOMETRIC_REPRESENTATION_CONTEXT( 3 )GLOBAL_UNCERTAINTY_ASSIGNED_CONTEXT( ( #31 ) )GLOBAL_UNIT_ASSIGNED_CONTEXT( ( #33, #34, #35 ) )REPRESENTATION_CONTEXT( 'NONE', 'WORKSPACE' ) );
#10 = STYLED_ITEM( '', ( #37 ), #38 );
#11 = STYLED_ITEM( '', ( #39 ), #40 );
#12 = STYLED_ITEM( '', ( #41 ), #42 );
#13 = STYLED_ITEM( '', ( #43 ), #44 );
#14 = STYLED_ITEM( '', ( #45 ), #46 );
#15 = STYLED_ITEM( '', ( #47 ), #48 );
#16 = STYLED_ITEM( '', ( #49 ), #50 );
#17 = STYLED_ITEM( '', ( #51 ), #52 );
#18 = STYLED_ITEM( '', ( #53 ), #54 );
#19 = STYLED_ITEM( '', ( #55 ), #56 );
#20 = STYLED_ITEM( '', ( #57 ), #58 );
#21 = STYLED_ITEM( '', ( #59 ), #60 );
#22 = STYLED_ITEM( '', ( #61 ), #62 );
#23 = STYLED_ITEM( '', ( #63 ), #64 );
#24 = APPLICATION_CONTEXT( 'core data for automotive mechanical design processes' );
#25 = PRODUCT_CATEGORY( 'part', 'NONE' );
#26 = PRODUCT_RELATED_PRODUCT_CATEGORY( 'detail', ' ', ( #65 ) );
#27 = PRODUCT_DEFINITION_SHAPE( 'NONE', 'NONE', #66 );
#28 = ADVANCED_BREP_SHAPE_REPRESENTATION( '_K0368.21038_0', ( #67, #68 ), #6 );
#31 = UNCERTAINTY_MEASURE_WITH_UNIT( LENGTH_MEASURE( 0.00100000000000000 ), #33, '', '' );
#33 =  ( CONVERSION_BASED_UNIT( 'MILLIMETRE', #71 )LENGTH_UNIT(  )NAMED_UNIT( #74 ) );
#34 =  ( NAMED_UNIT( #76 )PLANE_ANGLE_UNIT(  )SI_UNIT( $, .RADIAN. ) );
#35 =  ( NAMED_UNIT( #76 )SI_UNIT( $, .STERADIAN. )SOLID_ANGLE_UNIT(  ) );
#37 = PRESENTATION_STYLE_ASSIGNMENT( ( #82 ) );
#38 = ADVANCED_FACE( '', ( #83, #84 ), #85, .T. );
#39 = PRESENTATION_STYLE_ASSIGNMENT( ( #86 ) );
#40 = ADVANCED_FACE( '', ( #87, #88 ), #89, .T. );
#41 = PRESENTATION_STYLE_ASSIGNMENT( ( #90 ) );
#42 = ADVANCED_FACE( '', ( #91, #92 ), #93, .T. );
#43 = PRESENTATION_STYLE_ASSIGNMENT( ( #94 ) );
#44 = ADVANCED_FACE( '', ( #95, #96 ), #97, .F. );
#45 = PRESENTATION_STYLE_ASSIGNMENT( ( #98 ) );
#46 = ADVANCED_FACE( '', ( #99 ), #100, .F. );
#47 = PRESENTATION_STYLE_ASSIGNMENT( ( #101 ) );
#48 = ADVANCED_FACE( '', ( #102, #103 ), #104, .F. );
#49 = PRESENTATION_STYLE_ASSIGNMENT( ( #105 ) );
#50 = ADVANCED_FACE( '', ( #106 ), #107, .F. );
#51 = PRESENTATION_STYLE_ASSIGNMENT( ( #108 ) );
#52 = ADVANCED_FACE( '', ( #109, #110 ), #111, .T. );
#53 = PRESENTATION_STYLE_ASSIGNMENT( ( #112 ) );
#54 = ADVANCED_FACE( '', ( #113, #114 ), #115, .T. );
#55 = PRESENTATION_STYLE_ASSIGNMENT( ( #116 ) );
#56 = ADVANCED_FACE( '', ( #117, #118 ), #119, .F. );
#57 = PRESENTATION_STYLE_ASSIGNMENT( ( #120 ) );
#58 = ADVANCED_FACE( '', ( #121 ), #122, .F. );
#59 = PRESENTATION_STYLE_ASSIGNMENT( ( #123 ) );
#60 = ADVANCED_FACE( '', ( #124, #125 ), #126, .F. );
#61 = PRESENTATION_STYLE_ASSIGNMENT( ( #127 ) );
#62 = ADVANCED_FACE( '', ( #128, #129 ), #130, .F. );
#63 = PRESENTATION_STYLE_ASSIGNMENT( ( #131 ) );
#64 = ADVANCED_FACE( '', ( #132, #133 ), #134, .F. );
#65 = PRODUCT( '_K0368.21038_0', '_K0368.21038_0', 'PART-_K0368.21038_0-DESC', ( #135 ) );
#66 = PRODUCT_DEFINITION( 'NONE', 'NONE', #136, #2 );
#67 = BREP_WITH_VOIDS( '_K0368.21038_0', #137, ( #138 ) );
#68 = AXIS2_PLACEMENT_3D( '', #139, #140, #141 );
#71 = LENGTH_MEASURE_WITH_UNIT( LENGTH_MEASURE( 1.00000000000000 ), #142 );
#74 = DIMENSIONAL_EXPONENTS( 1.00000000000000, 0.000000000000000, 0.000000000000000, 0.000000000000000, 0.000000000000000, 0.000000000000000, 0.000000000000000 );
#76 = DIMENSIONAL_EXPONENTS( 0.000000000000000, 0.000000000000000, 0.000000000000000, 0.000000000000000, 0.000000000000000, 0.000000000000000, 0.000000000000000 );
#82 = SURFACE_STYLE_USAGE( .BOTH., #143 );
#83 = FACE_OUTER_BOUND( '', #144, .T. );
#84 = FACE_OUTER_BOUND( '', #145, .T. );
#85 = TOROIDAL_SURFACE( '', #146, 2.82857142860000, 0.171428571400000 );
#86 = SURFACE_STYLE_USAGE( .BOTH., #147 );
#87 = FACE_OUTER_BOUND( '', #148, .T. );
#88 = FACE_OUTER_BOUND( '', #149, .T. );
#89 = TOROIDAL_SURFACE( '', #150, 2.82857142860000, 0.171428571400000 );
#90 = SURFACE_STYLE_USAGE( .BOTH., #151 );
#91 = FACE_BOUND( '', #152, .T. );
#92 = FACE_OUTER_BOUND( '', #153, .T. );
#93 = CONICAL_SURFACE( '', #154, 1.47998605010000, 0.163538437300000 );
#94 = SURFACE_STYLE_USAGE( .BOTH., #155 );
#95 = FACE_BOUND( '', #156, .T. );
#96 = FACE_OUTER_BOUND( '', #157, .T. );
#97 = PLANE( '', #158 );
#98 = SURFACE_STYLE_USAGE( .BOTH., #159 );
#99 = FACE_OUTER_BOUND( '', #160, .T. );
#100 = PLANE( '', #161 );
#101 = SURFACE_STYLE_USAGE( .BOTH., #162 );
#102 = FACE_OUTER_BOUND( '', #163, .T. );
#103 = FACE_OUTER_BOUND( '', #164, .T. );
#104 = CYLINDRICAL_SURFACE( '', #165, 2.10000000000000 );
#105 = SURFACE_STYLE_USAGE( .BOTH., #166 );
#106 = FACE_OUTER_BOUND( '', #167, .T. );
#107 = PLANE( '', #168 );
#108 = SURFACE_STYLE_USAGE( .BOTH., #169 );
#109 = FACE_OUTER_BOUND( '', #170, .T. );
#110 = FACE_OUTER_BOUND( '', #171, .T. );
#111 = CYLINDRICAL_SURFACE( '', #172, 3.00000000000000 );
#112 = SURFACE_STYLE_USAGE( .BOTH., #173 );
#113 = FACE_BOUND( '', #174, .T. );
#114 = FACE_OUTER_BOUND( '', #175, .T. );
#115 = SPHERICAL_SURFACE( '', #176, 1.50000000000000 );
#116 = SURFACE_STYLE_USAGE( .BOTH., #177 );
#117 = FACE_OUTER_BOUND( '', #178, .T. );
#118 = FACE_OUTER_BOUND( '', #179, .T. );
#119 = CYLINDRICAL_SURFACE( '', #180, 2.10000000000000 );
#120 = SURFACE_STYLE_USAGE( .BOTH., #181 );
#121 = FACE_OUTER_BOUND( '', #182, .T. );
#122 = PLANE( '', #183 );
#123 = SURFACE_STYLE_USAGE( .BOTH., #184 );
#124 = FACE_OUTER_BOUND( '', #185, .T. );
#125 = FACE_OUTER_BOUND( '', #186, .T. );
#126 = CYLINDRICAL_SURFACE( '', #187, 2.10000000000000 );
#127 = SURFACE_STYLE_USAGE( .BOTH., #188 );
#128 = FACE_OUTER_BOUND( '', #189, .T. );
#129 = FACE_BOUND( '', #190, .T. );
#130 = PLANE( '', #191 );
#131 = SURFACE_STYLE_USAGE( .BOTH., #192 );
#132 = FACE_OUTER_BOUND( '', #193, .T. );
#133 = FACE_BOUND( '', #194, .T. );
#134 = PLANE( '', #195 );
#135 = PRODUCT_CONTEXT( '', #24, 'mechanical' );
#136 = PRODUCT_DEFINITION_FORMATION_WITH_SPECIFIED_SOURCE( ' ', 'NONE', #65, .NOT_KNOWN. );
#137 = CLOSED_SHELL( '', ( #42, #54, #62, #48, #64, #38, #52, #40, #44, #56, #50 ) );
#138 = ORIENTED_CLOSED_SHELL( '', *, #196, .T. );
#139 = CARTESIAN_POINT( '', ( 0.000000000000000, 0.000000000000000, 0.000000000000000 ) );
#140 = DIRECTION( '', ( 0.000000000000000, 0.000000000000000, 1.00000000000000 ) );
#141 = DIRECTION( '', ( 1.00000000000000, 0.000000000000000, 0.000000000000000 ) );
#142 =  ( LENGTH_UNIT(  )NAMED_UNIT( #74 )SI_UNIT( .MILLI., .METRE. ) );
#143 = SURFACE_SIDE_STYLE( '', ( #198 ) );
#144 = EDGE_LOOP( '', ( #199 ) );
#145 = EDGE_LOOP( '', ( #200 ) );
#146 = AXIS2_PLACEMENT_3D( '', #201, #202, #203 );
#147 = SURFACE_SIDE_STYLE( '', ( #204 ) );
#148 = EDGE_LOOP( '', ( #205 ) );
#149 = EDGE_LOOP( '', ( #206 ) );
#150 = AXIS2_PLACEMENT_3D( '', #207, #208, #209 );
#151 = SURFACE_SIDE_STYLE( '', ( #210 ) );
#152 = EDGE_LOOP( '', ( #211 ) );
#153 = EDGE_LOOP( '', ( #212 ) );
#154 = AXIS2_PLACEMENT_3D( '', #213, #214, #215 );
#155 = SURFACE_SIDE_STYLE( '', ( #216 ) );
#156 = EDGE_LOOP( '', ( #217 ) );
#157 = EDGE_LOOP( '', ( #218 ) );
#158 = AXIS2_PLACEMENT_3D( '', #219, #220, #221 );
#159 = SURFACE_SIDE_STYLE( '', ( #222 ) );
#160 = EDGE_LOOP( '', ( #223 ) );
#161 = AXIS2_PLACEMENT_3D( '', #224, #225, #226 );
#162 = SURFACE_SIDE_STYLE( '', ( #227 ) );
#163 = EDGE_LOOP( '', ( #228 ) );
#164 = EDGE_LOOP( '', ( #229 ) );
#165 = AXIS2_PLACEMENT_3D( '', #230, #231, #232 );
#166 = SURFACE_SIDE_STYLE( '', ( #233 ) );
#167 = EDGE_LOOP( '', ( #234 ) );
#168 = AXIS2_PLACEMENT_3D( '', #235, #236, #237 );
#169 = SURFACE_SIDE_STYLE( '', ( #238 ) );
#170 = EDGE_LOOP( '', ( #239 ) );
#171 = EDGE_LOOP( '', ( #240 ) );
#172 = AXIS2_PLACEMENT_3D( '', #241, #242, #243 );
#173 = SURFACE_SIDE_STYLE( '', ( #244 ) );
#174 = VERTEX_LOOP( '', #245 );
#175 = EDGE_LOOP( '', ( #246 ) );
#176 = AXIS2_PLACEMENT_3D( '', #247, #248, #249 );
#177 = SURFACE_SIDE_STYLE( '', ( #250 ) );
#178 = EDGE_LOOP( '', ( #251 ) );
#179 = EDGE_LOOP( '', ( #252 ) );
#180 = AXIS2_PLACEMENT_3D( '', #253, #254, #255 );
#181 = SURFACE_SIDE_STYLE( '', ( #256 ) );
#182 = EDGE_LOOP( '', ( #257 ) );
#183 = AXIS2_PLACEMENT_3D( '', #258, #259, #260 );
#184 = SURFACE_SIDE_STYLE( '', ( #261 ) );
#185 = EDGE_LOOP( '', ( #262 ) );
#186 = EDGE_LOOP( '', ( #263 ) );
#187 = AXIS2_PLACEMENT_3D( '', #264, #265, #266 );
#188 = SURFACE_SIDE_STYLE( '', ( #267 ) );
#189 = EDGE_LOOP( '', ( #268 ) );
#190 = EDGE_LOOP( '', ( #269 ) );
#191 = AXIS2_PLACEMENT_3D( '', #270, #271, #272 );
#192 = SURFACE_SIDE_STYLE( '', ( #273 ) );
#193 = EDGE_LOOP( '', ( #274 ) );
#194 = EDGE_LOOP( '', ( #275 ) );
#195 = AXIS2_PLACEMENT_3D( '', #276, #277, #278 );
#196 = CLOSED_SHELL( '', ( #60, #46, #58 ) );
#198 = SURFACE_STYLE_FILL_AREA( #279 );
#199 = ORIENTED_EDGE( '', *, *, #280, .T. );
#200 = ORIENTED_EDGE( '', *, *, #281, .F. );
#201 = CARTESIAN_POINT( '', ( 0.000000000000000, 6.82857142857143, 0.000000000000000 ) );
#202 = DIRECTION( '', ( 0.000000000000000, -1.00000000000000, -0.000000000000000 ) );
#203 = DIRECTION( '', ( 0.000000000000000, 0.000000000000000, -1.00000000000000 ) );
#204 = SURFACE_STYLE_FILL_AREA( #282 );
#205 = ORIENTED_EDGE( '', *, *, #283, .T. );
#206 = ORIENTED_EDGE( '', *, *, #284, .F. );
#207 = CARTESIAN_POINT( '', ( 0.000000000000000, 0.171428571428571, 0.000000000000000 ) );
#208 = DIRECTION( '', ( 0.000000000000000, -1.00000000000000, -0.000000000000000 ) );
#209 = DIRECTION( '', ( 0.000000000000000, 0.000000000000000, -1.00000000000000 ) );
#210 = SURFACE_STYLE_FILL_AREA( #285 );
#211 = ORIENTED_EDGE( '', *, *, #286, .F. );
#212 = ORIENTED_EDGE( '', *, *, #287, .T. );
#213 = CARTESIAN_POINT( '', ( 0.000000000000000, 9.25578433426200, 0.000000000000000 ) );
#214 = DIRECTION( '', ( -0.000000000000000, 1.00000000000000, 0.000000000000000 ) );
#215 = DIRECTION( '', ( 0.000000000000000, -0.000000000000000, 1.00000000000000 ) );
#216 = SURFACE_STYLE_FILL_AREA( #288 );
#217 = ORIENTED_EDGE( '', *, *, #289, .F. );
#218 = ORIENTED_EDGE( '', *, *, #284, .T. );
#219 = CARTESIAN_POINT( '', ( -2.82857142857143, -1.35525271560688E-16, 3.46400094615966E-16 ) );
#220 = DIRECTION( '', ( 0.000000000000000, 1.00000000000000, 0.000000000000000 ) );
#221 = DIRECTION( '', ( 0.000000000000000, -0.000000000000000, 1.00000000000000 ) );
#222 = SURFACE_STYLE_FILL_AREA( #290 );
#223 = ORIENTED_EDGE( '', *, *, #291, .F. );
#224 = CARTESIAN_POINT( '', ( 0.000000000000000, 3.50000000000000, 0.000000000000000 ) );
#225 = DIRECTION( '', ( 0.000000000000000, -1.00000000000000, -0.000000000000000 ) );
#226 = DIRECTION( '', ( 0.000000000000000, 0.000000000000000, -1.00000000000000 ) );
#227 = SURFACE_STYLE_FILL_AREA( #292 );
#228 = ORIENTED_EDGE( '', *, *, #293, .F. );
#229 = ORIENTED_EDGE( '', *, *, #294, .F. );
#230 = CARTESIAN_POINT( '', ( 0.000000000000000, 0.350000000000000, 0.000000000000000 ) );
#231 = DIRECTION( '', ( -0.000000000000000, 1.00000000000000, 0.000000000000000 ) );
#232 = DIRECTION( '', ( 0.000000000000000, 0.000000000000000, -1.00000000000000 ) );
#233 = SURFACE_STYLE_FILL_AREA( #295 );
#234 = ORIENTED_EDGE( '', *, *, #296, .T. );
#235 = CARTESIAN_POINT( '', ( -2.10000000000000, 0.350000000000000, 2.57175827820944E-16 ) );
#236 = DIRECTION( '', ( 0.000000000000000, 1.00000000000000, 0.000000000000000 ) );
#237 = DIRECTION( '', ( 0.000000000000000, -0.000000000000000, 1.00000000000000 ) );
#238 = SURFACE_STYLE_FILL_AREA( #297 );
#239 = ORIENTED_EDGE( '', *, *, #283, .F. );
#240 = ORIENTED_EDGE( '', *, *, #281, .T. );
#241 = CARTESIAN_POINT( '', ( 0.000000000000000, 0.350000000000000, 0.000000000000000 ) );
#242 = DIRECTION( '', ( -0.000000000000000, 1.00000000000000, 0.000000000000000 ) );
#243 = DIRECTION( '', ( 0.000000000000000, 0.000000000000000, -1.00000000000000 ) );
#244 = SURFACE_STYLE_FILL_AREA( #298 );
#245 = VERTEX_POINT( '', #299 );
#246 = ORIENTED_EDGE( '', *, *, #287, .F. );
#247 = CARTESIAN_POINT( '', ( 2.71050543121376E-15, 9.50000000000000, 0.000000000000000 ) );
#248 = DIRECTION( '', ( 0.000000000000000, -1.00000000000000, 0.000000000000000 ) );
#249 = DIRECTION( '', ( 1.00000000000000, 0.000000000000000, 0.000000000000000 ) );
#250 = SURFACE_STYLE_FILL_AREA( #300 );
#251 = ORIENTED_EDGE( '', *, *, #296, .F. );
#252 = ORIENTED_EDGE( '', *, *, #289, .T. );
#253 = CARTESIAN_POINT( '', ( 0.000000000000000, 0.350000000000000, 0.000000000000000 ) );
#254 = DIRECTION( '', ( -0.000000000000000, 1.00000000000000, 0.000000000000000 ) );
#255 = DIRECTION( '', ( 0.000000000000000, 0.000000000000000, -1.00000000000000 ) );
#256 = SURFACE_STYLE_FILL_AREA( #301 );
#257 = ORIENTED_EDGE( '', *, *, #302, .T. );
#258 = CARTESIAN_POINT( '', ( 2.40000000000000, 6.30000000000000, 0.000000000000000 ) );
#259 = DIRECTION( '', ( 0.000000000000000, 1.00000000000000, 0.000000000000000 ) );
#260 = DIRECTION( '', ( 0.000000000000000, -0.000000000000000, 1.00000000000000 ) );
#261 = SURFACE_STYLE_FILL_AREA( #303 );
#262 = ORIENTED_EDGE( '', *, *, #302, .F. );
#263 = ORIENTED_EDGE( '', *, *, #291, .T. );
#264 = CARTESIAN_POINT( '', ( 0.000000000000000, 0.350000000000000, 0.000000000000000 ) );
#265 = DIRECTION( '', ( -0.000000000000000, 1.00000000000000, 0.000000000000000 ) );
#266 = DIRECTION( '', ( 0.000000000000000, 0.000000000000000, -1.00000000000000 ) );
#267 = SURFACE_STYLE_FILL_AREA( #304 );
#268 = ORIENTED_EDGE( '', *, *, #294, .T. );
#269 = ORIENTED_EDGE( '', *, *, #286, .T. );
#270 = CARTESIAN_POINT( '', ( 1.05000000000000, 6.65000000000000, 0.000000000000000 ) );
#271 = DIRECTION( '', ( 0.000000000000000, -1.00000000000000, -0.000000000000000 ) );
#272 = DIRECTION( '', ( 0.000000000000000, 0.000000000000000, -1.00000000000000 ) );
#273 = SURFACE_STYLE_FILL_AREA( #305 );
#274 = ORIENTED_EDGE( '', *, *, #280, .F. );
#275 = ORIENTED_EDGE( '', *, *, #293, .T. );
#276 = CARTESIAN_POINT( '', ( -2.10000000000000, 7.00000000000000, 2.57175827820944E-16 ) );
#277 = DIRECTION( '', ( 0.000000000000000, -1.00000000000000, -0.000000000000000 ) );
#278 = DIRECTION( '', ( 0.000000000000000, 0.000000000000000, -1.00000000000000 ) );
#279 = FILL_AREA_STYLE( '', ( #306 ) );
#280 = EDGE_CURVE( '', #307, #307, #308, .T. );
#281 = EDGE_CURVE( '', #309, #309, #310, .T. );
#282 = FILL_AREA_STYLE( '', ( #311 ) );
#283 = EDGE_CURVE( '', #312, #312, #313, .T. );
#284 = EDGE_CURVE( '', #314, #314, #315, .T. );
#285 = FILL_AREA_STYLE( '', ( #316 ) );
#286 = EDGE_CURVE( '', #317, #317, #318, .T. );
#287 = EDGE_CURVE( '', #319, #319, #320, .T. );
#288 = FILL_AREA_STYLE( '', ( #321 ) );
#289 = EDGE_CURVE( '', #322, #322, #323, .T. );
#290 = FILL_AREA_STYLE( '', ( #324 ) );
#291 = EDGE_CURVE( '', #325, #325, #326, .T. );
#292 = FILL_AREA_STYLE( '', ( #327 ) );
#293 = EDGE_CURVE( '', #328, #328, #329, .T. );
#294 = EDGE_CURVE( '', #330, #330, #331, .F. );
#295 = FILL_AREA_STYLE( '', ( #332 ) );
#296 = EDGE_CURVE( '', #333, #333, #334, .T. );
#297 = FILL_AREA_STYLE( '', ( #335 ) );
#298 = FILL_AREA_STYLE( '', ( #336 ) );
#299 = CARTESIAN_POINT( '', ( 2.80235394114981E-15, 11.0000000000000, 0.000000000000000 ) );
#300 = FILL_AREA_STYLE( '', ( #337 ) );
#301 = FILL_AREA_STYLE( '', ( #338 ) );
#302 = EDGE_CURVE( '', #339, #339, #340, .F. );
#303 = FILL_AREA_STYLE( '', ( #341 ) );
#304 = FILL_AREA_STYLE( '', ( #342 ) );
#305 = FILL_AREA_STYLE( '', ( #343 ) );
#306 = FILL_AREA_STYLE_COLOUR( '', #344 );
#307 = VERTEX_POINT( '', #345 );
#308 = CIRCLE( '', #346, 2.82857142860000 );
#309 = VERTEX_POINT( '', #347 );
#310 = CIRCLE( '', #348, 3.00000000000000 );
#311 = FILL_AREA_STYLE_COLOUR( '', #349 );
#312 = VERTEX_POINT( '', #350 );
#313 = CIRCLE( '', #351, 3.00000000000000 );
#314 = VERTEX_POINT( '', #352 );
#315 = CIRCLE( '', #353, 2.82857142860000 );
#316 = FILL_AREA_STYLE_COLOUR( '', #354 );
#317 = VERTEX_POINT( '', #355 );
#318 = CIRCLE( '', #356, 1.05000000000000 );
#319 = VERTEX_POINT( '', #357 );
#320 = CIRCLE( '', #358, 1.47998605010000 );
#321 = FILL_AREA_STYLE_COLOUR( '', #359 );
#322 = VERTEX_POINT( '', #360 );
#323 = CIRCLE( '', #361, 2.10000000000000 );
#324 = FILL_AREA_STYLE_COLOUR( '', #362 );
#325 = VERTEX_POINT( '', #363 );
#326 = CIRCLE( '', #364, 2.10000000000000 );
#327 = FILL_AREA_STYLE_COLOUR( '', #365 );
#328 = VERTEX_POINT( '', #366 );
#329 = CIRCLE( '', #367, 2.10000000000000 );
#330 = VERTEX_POINT( '', #368 );
#331 = CIRCLE( '', #369, 2.10000000000000 );
#332 = FILL_AREA_STYLE_COLOUR( '', #370 );
#333 = VERTEX_POINT( '', #371 );
#334 = CIRCLE( '', #372, 2.10000000000000 );
#335 = FILL_AREA_STYLE_COLOUR( '', #373 );
#336 = FILL_AREA_STYLE_COLOUR( '', #374 );
#337 = FILL_AREA_STYLE_COLOUR( '', #375 );
#338 = FILL_AREA_STYLE_COLOUR( '', #376 );
#339 = VERTEX_POINT( '', #377 );
#340 = CIRCLE( '', #378, 2.10000000000000 );
#341 = FILL_AREA_STYLE_COLOUR( '', #379 );
#342 = FILL_AREA_STYLE_COLOUR( '', #380 );
#343 = FILL_AREA_STYLE_COLOUR( '', #381 );
#344 = COLOUR_RGB( '', 0.689999997600000, 0.689999997600000, 0.689999997600000 );
#345 = CARTESIAN_POINT( '', ( 0.000000000000000, 7.00000000000000, -2.82857142857143 ) );
#346 = AXIS2_PLACEMENT_3D( '', #382, #383, #384 );
#347 = CARTESIAN_POINT( '', ( 0.000000000000000, 6.82857142857143, -3.00000000000000 ) );
#348 = AXIS2_PLACEMENT_3D( '', #385, #386, #387 );
#349 = COLOUR_RGB( '', 0.689999997600000, 0.689999997600000, 0.689999997600000 );
#350 = CARTESIAN_POINT( '', ( 0.000000000000000, 0.171428571428572, -3.00000000000000 ) );
#351 = AXIS2_PLACEMENT_3D( '', #388, #389, #390 );
#352 = CARTESIAN_POINT( '', ( 0.000000000000000, -2.71050543121376E-16, -2.82857142857143 ) );
#353 = AXIS2_PLACEMENT_3D( '', #391, #392, #393 );
#354 = COLOUR_RGB( '', 0.689999997600000, 0.689999997600000, 0.689999997600000 );
#355 = CARTESIAN_POINT( '', ( 0.000000000000000, 6.65000000000000, -1.05000000000000 ) );
#356 = AXIS2_PLACEMENT_3D( '', #394, #395, #396 );
#357 = CARTESIAN_POINT( '', ( 0.000000000000000, 9.25578433426200, -1.47998605013971 ) );
#358 = AXIS2_PLACEMENT_3D( '', #397, #398, #399 );
#359 = COLOUR_RGB( '', 0.689999997600000, 0.689999997600000, 0.689999997600000 );
#360 = CARTESIAN_POINT( '', ( 0.000000000000000, 0.000000000000000, -2.10000000000000 ) );
#361 = AXIS2_PLACEMENT_3D( '', #400, #401, #402 );
#362 = COLOUR_RGB( '', 0.689999997600000, 0.689999997600000, 0.689999997600000 );
#363 = CARTESIAN_POINT( '', ( 0.000000000000000, 3.50000000000000, -2.10000000000000 ) );
#364 = AXIS2_PLACEMENT_3D( '', #403, #404, #405 );
#365 = COLOUR_RGB( '', 0.689999997600000, 0.689999997600000, 0.689999997600000 );
#366 = CARTESIAN_POINT( '', ( 0.000000000000000, 7.00000000000000, -2.10000000000000 ) );
#367 = AXIS2_PLACEMENT_3D( '', #406, #407, #408 );
#368 = CARTESIAN_POINT( '', ( 0.000000000000000, 6.65000000000000, -2.10000000000000 ) );
#369 = AXIS2_PLACEMENT_3D( '', #409, #410, #411 );
#370 = COLOUR_RGB( '', 0.689999997600000, 0.689999997600000, 0.689999997600000 );
#371 = CARTESIAN_POINT( '', ( 0.000000000000000, 0.350000000000000, -2.10000000000000 ) );
#372 = AXIS2_PLACEMENT_3D( '', #412, #413, #414 );
#373 = COLOUR_RGB( '', 0.689999997600000, 0.689999997600000, 0.689999997600000 );
#374 = COLOUR_RGB( '', 0.689999997600000, 0.689999997600000, 0.689999997600000 );
#375 = COLOUR_RGB( '', 0.689999997600000, 0.689999997600000, 0.689999997600000 );
#376 = COLOUR_RGB( '', 0.689999997600000, 0.689999997600000, 0.689999997600000 );
#377 = CARTESIAN_POINT( '', ( 0.000000000000000, 6.30000000000000, 2.10000000000000 ) );
#378 = AXIS2_PLACEMENT_3D( '', #415, #416, #417 );
#379 = COLOUR_RGB( '', 0.689999997600000, 0.689999997600000, 0.689999997600000 );
#380 = COLOUR_RGB( '', 0.689999997600000, 0.689999997600000, 0.689999997600000 );
#381 = COLOUR_RGB( '', 0.689999997600000, 0.689999997600000, 0.689999997600000 );
#382 = CARTESIAN_POINT( '', ( 0.000000000000000, 7.00000000000000, 0.000000000000000 ) );
#383 = DIRECTION( '', ( 0.000000000000000, -1.00000000000000, -0.000000000000000 ) );
#384 = DIRECTION( '', ( 0.000000000000000, 0.000000000000000, -1.00000000000000 ) );
#385 = CARTESIAN_POINT( '', ( 0.000000000000000, 6.82857142857143, 0.000000000000000 ) );
#386 = DIRECTION( '', ( 0.000000000000000, -1.00000000000000, -0.000000000000000 ) );
#387 = DIRECTION( '', ( 0.000000000000000, 0.000000000000000, -1.00000000000000 ) );
#388 = CARTESIAN_POINT( '', ( 0.000000000000000, 0.171428571428572, 0.000000000000000 ) );
#389 = DIRECTION( '', ( 0.000000000000000, -1.00000000000000, -0.000000000000000 ) );
#390 = DIRECTION( '', ( 0.000000000000000, 0.000000000000000, -1.00000000000000 ) );
#391 = CARTESIAN_POINT( '', ( 0.000000000000000, -2.71050543121376E-16, 0.000000000000000 ) );
#392 = DIRECTION( '', ( 0.000000000000000, -1.00000000000000, -0.000000000000000 ) );
#393 = DIRECTION( '', ( 0.000000000000000, 0.000000000000000, -1.00000000000000 ) );
#394 = CARTESIAN_POINT( '', ( 0.000000000000000, 6.65000000000000, 0.000000000000000 ) );
#395 = DIRECTION( '', ( 0.000000000000000, -1.00000000000000, -0.000000000000000 ) );
#396 = DIRECTION( '', ( 0.000000000000000, 0.000000000000000, -1.00000000000000 ) );
#397 = CARTESIAN_POINT( '', ( 0.000000000000000, 9.25578433426200, 0.000000000000000 ) );
#398 = DIRECTION( '', ( 0.000000000000000, -1.00000000000000, -0.000000000000000 ) );
#399 = DIRECTION( '', ( 0.000000000000000, 0.000000000000000, -1.00000000000000 ) );
#400 = CARTESIAN_POINT( '', ( 0.000000000000000, 0.000000000000000, 0.000000000000000 ) );
#401 = DIRECTION( '', ( 0.000000000000000, -1.00000000000000, -0.000000000000000 ) );
#402 = DIRECTION( '', ( 0.000000000000000, 0.000000000000000, -1.00000000000000 ) );
#403 = CARTESIAN_POINT( '', ( 0.000000000000000, 3.50000000000000, 0.000000000000000 ) );
#404 = DIRECTION( '', ( 0.000000000000000, -1.00000000000000, -0.000000000000000 ) );
#405 = DIRECTION( '', ( 0.000000000000000, 0.000000000000000, -1.00000000000000 ) );
#406 = CARTESIAN_POINT( '', ( 0.000000000000000, 7.00000000000000, 0.000000000000000 ) );
#407 = DIRECTION( '', ( 0.000000000000000, -1.00000000000000, -0.000000000000000 ) );
#408 = DIRECTION( '', ( 0.000000000000000, 0.000000000000000, -1.00000000000000 ) );
#409 = CARTESIAN_POINT( '', ( 0.000000000000000, 6.65000000000000, 0.000000000000000 ) );
#410 = DIRECTION( '', ( 0.000000000000000, -1.00000000000000, -0.000000000000000 ) );
#411 = DIRECTION( '', ( 0.000000000000000, 0.000000000000000, -1.00000000000000 ) );
#412 = CARTESIAN_POINT( '', ( 0.000000000000000, 0.350000000000000, 0.000000000000000 ) );
#413 = DIRECTION( '', ( 0.000000000000000, -1.00000000000000, -0.000000000000000 ) );
#414 = DIRECTION( '', ( 0.000000000000000, 0.000000000000000, -1.00000000000000 ) );
#415 = CARTESIAN_POINT( '', ( 0.000000000000000, 6.30000000000000, 0.000000000000000 ) );
#416 = DIRECTION( '', ( 0.000000000000000, 1.00000000000000, 0.000000000000000 ) );
#417 = DIRECTION( '', ( 0.000000000000000, -0.000000000000000, 1.00000000000000 ) );
ENDSEC;
END-ISO-10303-21;
