ISO-10303-21;
HEADER;
FILE_DESCRIPTION( ( 'STEP AP214' ), '1' );
FILE_NAME( '//goodhand-server/Shared Folders/GoodHand Data/Kipp CAD/K0390/K0390.201X125.stp', '2020-12-07T10:16:16', ( '' ), ( '' ), ' ', 'PARTsolutions', ' ' );
FILE_SCHEMA( ( 'AUTOMOTIVE_DESIGN { 1 0 10303 214 1 1 1 1 }' ) );
ENDSEC;
DATA;
#1 = MECHANICAL_DESIGN_GEOMETRIC_PRESENTATION_REPRESENTATION( ' ', ( #10, #11, #12, #13, #14, #15, #16, #17, #18, #19, #20, #21, #22 ), #6 );
#2 = PRODUCT_DEFINITION_CONTEXT( '', #23, 'design' );
#3 = APPLICATION_PROTOCOL_DEFINITION( 'international standard', 'automotive_design', 2001, #23 );
#4 = PRODUCT_CATEGORY_RELATIONSHIP( 'NONE', 'NONE', #24, #25 );
#5 = SHAPE_DEFINITION_REPRESENTATION( #26, #27 );
#6 =  ( GEOMETRIC_REPRESENTATION_CONTEXT( 3 )GLOBAL_UNCERTAINTY_ASSIGNED_CONTEXT( ( #30 ) )GLOBAL_UNIT_ASSIGNED_CONTEXT( ( #32, #33, #34 ) )REPRESENTATION_CONTEXT( 'NONE', 'WORKSPACE' ) );
#10 = STYLED_ITEM( '', ( #36 ), #37 );
#11 = STYLED_ITEM( '', ( #38 ), #39 );
#12 = STYLED_ITEM( '', ( #40 ), #41 );
#13 = STYLED_ITEM( '', ( #42 ), #43 );
#14 = STYLED_ITEM( '', ( #44 ), #45 );
#15 = STYLED_ITEM( '', ( #46 ), #47 );
#16 = STYLED_ITEM( '', ( #48 ), #49 );
#17 = STYLED_ITEM( '', ( #50 ), #51 );
#18 = STYLED_ITEM( '', ( #52 ), #53 );
#19 = STYLED_ITEM( '', ( #54 ), #55 );
#20 = STYLED_ITEM( '', ( #56 ), #57 );
#21 = STYLED_ITEM( '', ( #58 ), #59 );
#22 = STYLED_ITEM( '', ( #60 ), #61 );
#23 = APPLICATION_CONTEXT( 'core data for automotive mechanical design processes' );
#24 = PRODUCT_CATEGORY( 'part', 'NONE' );
#25 = PRODUCT_RELATED_PRODUCT_CATEGORY( 'detail', ' ', ( #62 ) );
#26 = PRODUCT_DEFINITION_SHAPE( 'NONE', 'NONE', #63 );
#27 = ADVANCED_BREP_SHAPE_REPRESENTATION( '_K0390.201X125', ( #64, #65 ), #6 );
#30 = UNCERTAINTY_MEASURE_WITH_UNIT( LENGTH_MEASURE( 0.00100000000000000 ), #32, '', '' );
#32 =  ( CONVERSION_BASED_UNIT( 'MILLIMETRE', #68 )LENGTH_UNIT(  )NAMED_UNIT( #71 ) );
#33 =  ( NAMED_UNIT( #73 )PLANE_ANGLE_UNIT(  )SI_UNIT( $, .RADIAN. ) );
#34 =  ( NAMED_UNIT( #73 )SI_UNIT( $, .STERADIAN. )SOLID_ANGLE_UNIT(  ) );
#36 = PRESENTATION_STYLE_ASSIGNMENT( ( #79 ) );
#37 = ADVANCED_FACE( '', ( #80, #81 ), #82, .T. );
#38 = PRESENTATION_STYLE_ASSIGNMENT( ( #83 ) );
#39 = ADVANCED_FACE( '', ( #84 ), #85, .F. );
#40 = PRESENTATION_STYLE_ASSIGNMENT( ( #86 ) );
#41 = ADVANCED_FACE( '', ( #87, #88 ), #89, .T. );
#42 = PRESENTATION_STYLE_ASSIGNMENT( ( #90 ) );
#43 = ADVANCED_FACE( '', ( #91 ), #92, .T. );
#44 = PRESENTATION_STYLE_ASSIGNMENT( ( #93 ) );
#45 = ADVANCED_FACE( '', ( #94, #95 ), #96, .T. );
#46 = PRESENTATION_STYLE_ASSIGNMENT( ( #97 ) );
#47 = ADVANCED_FACE( '', ( #98 ), #99, .T. );
#48 = PRESENTATION_STYLE_ASSIGNMENT( ( #100 ) );
#49 = ADVANCED_FACE( '', ( #101 ), #102, .F. );
#50 = PRESENTATION_STYLE_ASSIGNMENT( ( #103 ) );
#51 = ADVANCED_FACE( '', ( #104, #105 ), #106, .T. );
#52 = PRESENTATION_STYLE_ASSIGNMENT( ( #107 ) );
#53 = ADVANCED_FACE( '', ( #108, #109 ), #110, .T. );
#54 = PRESENTATION_STYLE_ASSIGNMENT( ( #111 ) );
#55 = ADVANCED_FACE( '', ( #112 ), #113, .T. );
#56 = PRESENTATION_STYLE_ASSIGNMENT( ( #114 ) );
#57 = ADVANCED_FACE( '', ( #115 ), #116, .F. );
#58 = PRESENTATION_STYLE_ASSIGNMENT( ( #117 ) );
#59 = ADVANCED_FACE( '', ( #118, #119 ), #120, .F. );
#60 = PRESENTATION_STYLE_ASSIGNMENT( ( #121 ) );
#61 = ADVANCED_FACE( '', ( #122 ), #123, .F. );
#62 = PRODUCT( '_K0390.201X125', '_K0390.201X125', 'PART-_K0390.201X125-DESC', ( #124 ) );
#63 = PRODUCT_DEFINITION( 'NONE', 'NONE', #125, #2 );
#64 = MANIFOLD_SOLID_BREP( '_K0390.201X125', #126 );
#65 = AXIS2_PLACEMENT_3D( '', #127, #128, #129 );
#68 = LENGTH_MEASURE_WITH_UNIT( LENGTH_MEASURE( 1.00000000000000 ), #130 );
#71 = DIMENSIONAL_EXPONENTS( 1.00000000000000, 0.000000000000000, 0.000000000000000, 0.000000000000000, 0.000000000000000, 0.000000000000000, 0.000000000000000 );
#73 = DIMENSIONAL_EXPONENTS( 0.000000000000000, 0.000000000000000, 0.000000000000000, 0.000000000000000, 0.000000000000000, 0.000000000000000, 0.000000000000000 );
#79 = SURFACE_STYLE_USAGE( .BOTH., #131 );
#80 = FACE_BOUND( '', #132, .T. );
#81 = FACE_OUTER_BOUND( '', #133, .T. );
#82 = SPHERICAL_SURFACE( '', #134, 12.9998500000000 );
#83 = SURFACE_STYLE_USAGE( .BOTH., #135 );
#84 = FACE_OUTER_BOUND( '', #136, .T. );
#85 = PLANE( '', #137 );
#86 = SURFACE_STYLE_USAGE( .BOTH., #138 );
#87 = FACE_OUTER_BOUND( '', #139, .T. );
#88 = FACE_OUTER_BOUND( '', #140, .T. );
#89 = CYLINDRICAL_SURFACE( '', #141, 7.75000000000000 );
#90 = SURFACE_STYLE_USAGE( .BOTH., #142 );
#91 = FACE_OUTER_BOUND( '', #143, .T. );
#92 = CONICAL_SURFACE( '', #144, 8.46650000000000, 0.785398163400000 );
#93 = SURFACE_STYLE_USAGE( .BOTH., #145 );
#94 = FACE_OUTER_BOUND( '', #146, .T. );
#95 = FACE_OUTER_BOUND( '', #147, .T. );
#96 = CYLINDRICAL_SURFACE( '', #148, 7.20000000000000 );
#97 = SURFACE_STYLE_USAGE( .BOTH., #149 );
#98 = FACE_OUTER_BOUND( '', #150, .T. );
#99 = CONICAL_SURFACE( '', #151, 8.46650000000000, 0.785398163400000 );
#100 = SURFACE_STYLE_USAGE( .BOTH., #152 );
#101 = FACE_OUTER_BOUND( '', #153, .T. );
#102 = PLANE( '', #154 );
#103 = SURFACE_STYLE_USAGE( .BOTH., #155 );
#104 = FACE_OUTER_BOUND( '', #156, .T. );
#105 = FACE_OUTER_BOUND( '', #157, .T. );
#106 = CYLINDRICAL_SURFACE( '', #158, 10.0000000000000 );
#107 = SURFACE_STYLE_USAGE( .BOTH., #159 );
#108 = FACE_BOUND( '', #160, .T. );
#109 = FACE_OUTER_BOUND( '', #161, .T. );
#110 = CONICAL_SURFACE( '', #162, 10.0000000000000, 1.12234211560000 );
#111 = SURFACE_STYLE_USAGE( .BOTH., #163 );
#112 = FACE_OUTER_BOUND( '', #164, .T. );
#113 = PLANE( '', #165 );
#114 = SURFACE_STYLE_USAGE( .BOTH., #166 );
#115 = FACE_OUTER_BOUND( '', #167, .T. );
#116 = PLANE( '', #168 );
#117 = SURFACE_STYLE_USAGE( .BOTH., #169 );
#118 = FACE_OUTER_BOUND( '', #170, .T. );
#119 = FACE_BOUND( '', #171, .T. );
#120 = PLANE( '', #172 );
#121 = SURFACE_STYLE_USAGE( .BOTH., #173 );
#122 = FACE_OUTER_BOUND( '', #174, .T. );
#123 = PLANE( '', #175 );
#124 = PRODUCT_CONTEXT( '', #23, 'mechanical' );
#125 = PRODUCT_DEFINITION_FORMATION_WITH_SPECIFIED_SOURCE( ' ', 'NONE', #62, .NOT_KNOWN. );
#126 = CLOSED_SHELL( '', ( #61, #57, #37, #41, #59, #45, #53, #51, #43, #39, #47, #49, #55 ) );
#127 = CARTESIAN_POINT( '', ( 0.000000000000000, 0.000000000000000, 0.000000000000000 ) );
#128 = DIRECTION( '', ( 0.000000000000000, 0.000000000000000, 1.00000000000000 ) );
#129 = DIRECTION( '', ( 1.00000000000000, 0.000000000000000, 0.000000000000000 ) );
#130 =  ( LENGTH_UNIT(  )NAMED_UNIT( #71 )SI_UNIT( .MILLI., .METRE. ) );
#131 = SURFACE_SIDE_STYLE( '', ( #177 ) );
#132 = VERTEX_LOOP( '', #178 );
#133 = EDGE_LOOP( '', ( #179 ) );
#134 = AXIS2_PLACEMENT_3D( '', #180, #181, #182 );
#135 = SURFACE_SIDE_STYLE( '', ( #183 ) );
#136 = EDGE_LOOP( '', ( #184, #185 ) );
#137 = AXIS2_PLACEMENT_3D( '', #186, #187, #188 );
#138 = SURFACE_SIDE_STYLE( '', ( #189 ) );
#139 = EDGE_LOOP( '', ( #190 ) );
#140 = EDGE_LOOP( '', ( #191 ) );
#141 = AXIS2_PLACEMENT_3D( '', #192, #193, #194 );
#142 = SURFACE_SIDE_STYLE( '', ( #195 ) );
#143 = EDGE_LOOP( '', ( #196, #197, #198, #199 ) );
#144 = AXIS2_PLACEMENT_3D( '', #200, #201, #202 );
#145 = SURFACE_SIDE_STYLE( '', ( #203 ) );
#146 = EDGE_LOOP( '', ( #204 ) );
#147 = EDGE_LOOP( '', ( #205 ) );
#148 = AXIS2_PLACEMENT_3D( '', #206, #207, #208 );
#149 = SURFACE_SIDE_STYLE( '', ( #209 ) );
#150 = EDGE_LOOP( '', ( #210, #211, #212, #213 ) );
#151 = AXIS2_PLACEMENT_3D( '', #214, #215, #216 );
#152 = SURFACE_SIDE_STYLE( '', ( #217 ) );
#153 = EDGE_LOOP( '', ( #218, #219 ) );
#154 = AXIS2_PLACEMENT_3D( '', #220, #221, #222 );
#155 = SURFACE_SIDE_STYLE( '', ( #223 ) );
#156 = EDGE_LOOP( '', ( #224 ) );
#157 = EDGE_LOOP( '', ( #225, #226, #227, #228, #229, #230, #231, #232 ) );
#158 = AXIS2_PLACEMENT_3D( '', #233, #234, #235 );
#159 = SURFACE_SIDE_STYLE( '', ( #236 ) );
#160 = EDGE_LOOP( '', ( #237 ) );
#161 = EDGE_LOOP( '', ( #238 ) );
#162 = AXIS2_PLACEMENT_3D( '', #239, #240, #241 );
#163 = SURFACE_SIDE_STYLE( '', ( #242 ) );
#164 = EDGE_LOOP( '', ( #243, #244, #245, #246 ) );
#165 = AXIS2_PLACEMENT_3D( '', #247, #248, #249 );
#166 = SURFACE_SIDE_STYLE( '', ( #250 ) );
#167 = EDGE_LOOP( '', ( #251, #252, #253, #254, #255, #256 ) );
#168 = AXIS2_PLACEMENT_3D( '', #257, #258, #259 );
#169 = SURFACE_SIDE_STYLE( '', ( #260 ) );
#170 = EDGE_LOOP( '', ( #261 ) );
#171 = EDGE_LOOP( '', ( #262 ) );
#172 = AXIS2_PLACEMENT_3D( '', #263, #264, #265 );
#173 = SURFACE_SIDE_STYLE( '', ( #266 ) );
#174 = EDGE_LOOP( '', ( #267, #268, #269, #270, #271, #272 ) );
#175 = AXIS2_PLACEMENT_3D( '', #273, #274, #275 );
#177 = SURFACE_STYLE_FILL_AREA( #276 );
#178 = VERTEX_POINT( '', #277 );
#179 = ORIENTED_EDGE( '', *, *, #278, .T. );
#180 = CARTESIAN_POINT( '', ( 112.000150000000, -9.80118763926896E-14, 0.000000000000000 ) );
#181 = DIRECTION( '', ( 1.00000000000000, 0.000000000000000, 0.000000000000000 ) );
#182 = DIRECTION( '', ( 0.000000000000000, 1.00000000000000, 0.000000000000000 ) );
#183 = SURFACE_STYLE_FILL_AREA( #279 );
#184 = ORIENTED_EDGE( '', *, *, #280, .F. );
#185 = ORIENTED_EDGE( '', *, *, #281, .F. );
#186 = CARTESIAN_POINT( '', ( -1.44700665183265E-14, -1.18858827387318E-14, 0.000000000000000 ) );
#187 = DIRECTION( '', ( 1.00000000000000, -6.12323399573676E-17, -0.000000000000000 ) );
#188 = DIRECTION( '', ( 6.12323399573676E-17, 1.00000000000000, 0.000000000000000 ) );
#189 = SURFACE_STYLE_FILL_AREA( #282 );
#190 = ORIENTED_EDGE( '', *, *, #278, .F. );
#191 = ORIENTED_EDGE( '', *, *, #283, .T. );
#192 = CARTESIAN_POINT( '', ( 125.000000000000, -1.95399252334028E-14, 0.000000000000000 ) );
#193 = DIRECTION( '', ( -1.00000000000000, 6.12323399573676E-17, 0.000000000000000 ) );
#194 = DIRECTION( '', ( 6.12323399573676E-17, 1.00000000000000, 0.000000000000000 ) );
#195 = SURFACE_STYLE_FILL_AREA( #284 );
#196 = ORIENTED_EDGE( '', *, *, #285, .T. );
#197 = ORIENTED_EDGE( '', *, *, #286, .T. );
#198 = ORIENTED_EDGE( '', *, *, #287, .F. );
#199 = ORIENTED_EDGE( '', *, *, #288, .T. );
#200 = CARTESIAN_POINT( '', ( -1.38777878078145E-14, -1.18858827387318E-14, 0.000000000000000 ) );
#201 = DIRECTION( '', ( 1.00000000000000, -6.12323399573677E-17, -0.000000000000000 ) );
#202 = DIRECTION( '', ( 6.12323399573677E-17, 1.00000000000000, 0.000000000000000 ) );
#203 = SURFACE_STYLE_FILL_AREA( #289 );
#204 = ORIENTED_EDGE( '', *, *, #290, .F. );
#205 = ORIENTED_EDGE( '', *, *, #291, .T. );
#206 = CARTESIAN_POINT( '', ( 125.000000000000, -1.95399252334028E-14, 0.000000000000000 ) );
#207 = DIRECTION( '', ( -1.00000000000000, 6.12323399573676E-17, 0.000000000000000 ) );
#208 = DIRECTION( '', ( 6.12323399573676E-17, 1.00000000000000, 0.000000000000000 ) );
#209 = SURFACE_STYLE_FILL_AREA( #292 );
#210 = ORIENTED_EDGE( '', *, *, #293, .F. );
#211 = ORIENTED_EDGE( '', *, *, #294, .T. );
#212 = ORIENTED_EDGE( '', *, *, #280, .T. );
#213 = ORIENTED_EDGE( '', *, *, #295, .T. );
#214 = CARTESIAN_POINT( '', ( -1.38777878078145E-14, -1.18858827387318E-14, 0.000000000000000 ) );
#215 = DIRECTION( '', ( 1.00000000000000, -6.12323399573677E-17, -0.000000000000000 ) );
#216 = DIRECTION( '', ( 6.12323399573677E-17, 1.00000000000000, 0.000000000000000 ) );
#217 = SURFACE_STYLE_FILL_AREA( #296 );
#218 = ORIENTED_EDGE( '', *, *, #285, .F. );
#219 = ORIENTED_EDGE( '', *, *, #297, .F. );
#220 = CARTESIAN_POINT( '', ( -1.44700665183265E-14, -1.18858827387318E-14, 0.000000000000000 ) );
#221 = DIRECTION( '', ( 1.00000000000000, -6.12323399573676E-17, -0.000000000000000 ) );
#222 = DIRECTION( '', ( 6.12323399573676E-17, 1.00000000000000, 0.000000000000000 ) );
#223 = SURFACE_STYLE_FILL_AREA( #298 );
#224 = ORIENTED_EDGE( '', *, *, #299, .F. );
#225 = ORIENTED_EDGE( '', *, *, #293, .T. );
#226 = ORIENTED_EDGE( '', *, *, #300, .T. );
#227 = ORIENTED_EDGE( '', *, *, #301, .F. );
#228 = ORIENTED_EDGE( '', *, *, #302, .T. );
#229 = ORIENTED_EDGE( '', *, *, #287, .T. );
#230 = ORIENTED_EDGE( '', *, *, #303, .T. );
#231 = ORIENTED_EDGE( '', *, *, #304, .F. );
#232 = ORIENTED_EDGE( '', *, *, #305, .T. );
#233 = CARTESIAN_POINT( '', ( 125.000000000000, -1.95399252334028E-14, 0.000000000000000 ) );
#234 = DIRECTION( '', ( -1.00000000000000, 6.12323399573676E-17, 0.000000000000000 ) );
#235 = DIRECTION( '', ( 6.12323399573676E-17, 1.00000000000000, 0.000000000000000 ) );
#236 = SURFACE_STYLE_FILL_AREA( #306 );
#237 = ORIENTED_EDGE( '', *, *, #291, .F. );
#238 = ORIENTED_EDGE( '', *, *, #299, .T. );
#239 = CARTESIAN_POINT( '', ( 111.000000000000, -1.86826724739996E-14, 0.000000000000000 ) );
#240 = DIRECTION( '', ( -1.00000000000000, 6.12323399573676E-17, -0.000000000000000 ) );
#241 = DIRECTION( '', ( -6.12323399573676E-17, -1.00000000000000, 0.000000000000000 ) );
#242 = SURFACE_STYLE_FILL_AREA( #307 );
#243 = ORIENTED_EDGE( '', *, *, #301, .T. );
#244 = ORIENTED_EDGE( '', *, *, #308, .T. );
#245 = ORIENTED_EDGE( '', *, *, #304, .T. );
#246 = ORIENTED_EDGE( '', *, *, #309, .T. );
#247 = CARTESIAN_POINT( '', ( 2.99999999999999, 0.000000000000000, 0.000000000000000 ) );
#248 = DIRECTION( '', ( -1.00000000000000, 0.000000000000000, 0.000000000000000 ) );
#249 = DIRECTION( '', ( 0.000000000000000, 0.000000000000000, 1.00000000000000 ) );
#250 = SURFACE_STYLE_FILL_AREA( #310 );
#251 = ORIENTED_EDGE( '', *, *, #281, .T. );
#252 = ORIENTED_EDGE( '', *, *, #294, .F. );
#253 = ORIENTED_EDGE( '', *, *, #305, .F. );
#254 = ORIENTED_EDGE( '', *, *, #308, .F. );
#255 = ORIENTED_EDGE( '', *, *, #300, .F. );
#256 = ORIENTED_EDGE( '', *, *, #295, .F. );
#257 = CARTESIAN_POINT( '', ( 2.99999999999999, -0.900000000000012, -10.5000000000000 ) );
#258 = DIRECTION( '', ( 0.000000000000000, -1.00000000000000, 0.000000000000000 ) );
#259 = DIRECTION( '', ( 0.000000000000000, 0.000000000000000, -1.00000000000000 ) );
#260 = SURFACE_STYLE_FILL_AREA( #311 );
#261 = ORIENTED_EDGE( '', *, *, #283, .F. );
#262 = ORIENTED_EDGE( '', *, *, #290, .T. );
#263 = CARTESIAN_POINT( '', ( 119.500000000000, 7.19999999999998, 0.000000000000000 ) );
#264 = DIRECTION( '', ( 1.00000000000000, -6.12323399573676E-17, -0.000000000000000 ) );
#265 = DIRECTION( '', ( 6.12323399573676E-17, 1.00000000000000, 0.000000000000000 ) );
#266 = SURFACE_STYLE_FILL_AREA( #312 );
#267 = ORIENTED_EDGE( '', *, *, #286, .F. );
#268 = ORIENTED_EDGE( '', *, *, #297, .T. );
#269 = ORIENTED_EDGE( '', *, *, #288, .F. );
#270 = ORIENTED_EDGE( '', *, *, #302, .F. );
#271 = ORIENTED_EDGE( '', *, *, #309, .F. );
#272 = ORIENTED_EDGE( '', *, *, #303, .F. );
#273 = CARTESIAN_POINT( '', ( 2.99999999999999, 0.899999999999988, 10.5000000000000 ) );
#274 = DIRECTION( '', ( 0.000000000000000, 1.00000000000000, 0.000000000000000 ) );
#275 = DIRECTION( '', ( 0.000000000000000, -0.000000000000000, 1.00000000000000 ) );
#276 = FILL_AREA_STYLE( '', ( #313 ) );
#277 = CARTESIAN_POINT( '', ( 125.000000000000, -9.80118763926896E-14, 0.000000000000000 ) );
#278 = EDGE_CURVE( '', #314, #314, #315, .T. );
#279 = FILL_AREA_STYLE( '', ( #316 ) );
#280 = EDGE_CURVE( '', #317, #318, #319, .T. );
#281 = EDGE_CURVE( '', #318, #317, #320, .T. );
#282 = FILL_AREA_STYLE( '', ( #321 ) );
#283 = EDGE_CURVE( '', #322, #322, #323, .T. );
#284 = FILL_AREA_STYLE( '', ( #324 ) );
#285 = EDGE_CURVE( '', #325, #326, #327, .T. );
#286 = EDGE_CURVE( '', #326, #328, #329, .T. );
#287 = EDGE_CURVE( '', #330, #328, #331, .T. );
#288 = EDGE_CURVE( '', #330, #325, #332, .T. );
#289 = FILL_AREA_STYLE( '', ( #333 ) );
#290 = EDGE_CURVE( '', #334, #334, #335, .T. );
#291 = EDGE_CURVE( '', #336, #336, #337, .T. );
#292 = FILL_AREA_STYLE( '', ( #338 ) );
#293 = EDGE_CURVE( '', #339, #340, #341, .T. );
#294 = EDGE_CURVE( '', #339, #317, #342, .T. );
#295 = EDGE_CURVE( '', #318, #340, #343, .T. );
#296 = FILL_AREA_STYLE( '', ( #344 ) );
#297 = EDGE_CURVE( '', #326, #325, #345, .T. );
#298 = FILL_AREA_STYLE( '', ( #346 ) );
#299 = EDGE_CURVE( '', #347, #347, #348, .T. );
#300 = EDGE_CURVE( '', #340, #349, #350, .T. );
#301 = EDGE_CURVE( '', #351, #349, #352, .T. );
#302 = EDGE_CURVE( '', #351, #330, #353, .F. );
#303 = EDGE_CURVE( '', #328, #354, #355, .T. );
#304 = EDGE_CURVE( '', #356, #354, #357, .T. );
#305 = EDGE_CURVE( '', #356, #339, #358, .F. );
#306 = FILL_AREA_STYLE( '', ( #359 ) );
#307 = FILL_AREA_STYLE( '', ( #360 ) );
#308 = EDGE_CURVE( '', #349, #356, #361, .T. );
#309 = EDGE_CURVE( '', #354, #351, #362, .T. );
#310 = FILL_AREA_STYLE( '', ( #363 ) );
#311 = FILL_AREA_STYLE( '', ( #364 ) );
#312 = FILL_AREA_STYLE( '', ( #365 ) );
#313 = FILL_AREA_STYLE_COLOUR( '', #366 );
#314 = VERTEX_POINT( '', #367 );
#315 = CIRCLE( '', #368, 7.75000000000000 );
#316 = FILL_AREA_STYLE_COLOUR( '', #369 );
#317 = VERTEX_POINT( '', #370 );
#318 = VERTEX_POINT( '', #371 );
#319 = CIRCLE( '', #372, 8.46650000000000 );
#320 = LINE( '', #373, #374 );
#321 = FILL_AREA_STYLE_COLOUR( '', #375 );
#322 = VERTEX_POINT( '', #376 );
#323 = CIRCLE( '', #377, 7.75000000000000 );
#324 = FILL_AREA_STYLE_COLOUR( '', #378 );
#325 = VERTEX_POINT( '', #379 );
#326 = VERTEX_POINT( '', #380 );
#327 = CIRCLE( '', #381, 8.46650000000000 );
#328 = VERTEX_POINT( '', #382 );
#329 = B_SPLINE_CURVE_WITH_KNOTS( '', 3, ( #383, #384, #385, #386 ), .UNSPECIFIED., .F., .F., ( 4, 4 ), ( 0.0420335464893133, 0.0442124251860489 ), .UNSPECIFIED. );
#330 = VERTEX_POINT( '', #387 );
#331 = CIRCLE( '', #388, 10.0000000000000 );
#332 = B_SPLINE_CURVE_WITH_KNOTS( '', 3, ( #389, #390, #391, #392 ), .UNSPECIFIED., .F., .F., ( 4, 4 ), ( 0.0170363399290314, 0.0192102676191475 ), .UNSPECIFIED. );
#333 = FILL_AREA_STYLE_COLOUR( '', #393 );
#334 = VERTEX_POINT( '', #394 );
#335 = CIRCLE( '', #395, 7.20000000000000 );
#336 = VERTEX_POINT( '', #396 );
#337 = CIRCLE( '', #397, 7.20000000000000 );
#338 = FILL_AREA_STYLE_COLOUR( '', #398 );
#339 = VERTEX_POINT( '', #399 );
#340 = VERTEX_POINT( '', #400 );
#341 = CIRCLE( '', #401, 10.0000000000000 );
#342 = B_SPLINE_CURVE_WITH_KNOTS( '', 3, ( #402, #403, #404, #405 ), .UNSPECIFIED., .F., .F., ( 4, 4 ), ( 0.0170363399290314, 0.0192102676191475 ), .UNSPECIFIED. );
#343 = B_SPLINE_CURVE_WITH_KNOTS( '', 3, ( #406, #407, #408, #409 ), .UNSPECIFIED., .F., .F., ( 4, 4 ), ( 0.0420335464893133, 0.0442124251860489 ), .UNSPECIFIED. );
#344 = FILL_AREA_STYLE_COLOUR( '', #410 );
#345 = LINE( '', #411, #412 );
#346 = FILL_AREA_STYLE_COLOUR( '', #413 );
#347 = VERTEX_POINT( '', #414 );
#348 = CIRCLE( '', #415, 10.0000000000000 );
#349 = VERTEX_POINT( '', #416 );
#350 = LINE( '', #417, #418 );
#351 = VERTEX_POINT( '', #419 );
#352 = CIRCLE( '', #420, 10.0000000000000 );
#353 = LINE( '', #421, #422 );
#354 = VERTEX_POINT( '', #423 );
#355 = LINE( '', #424, #425 );
#356 = VERTEX_POINT( '', #426 );
#357 = CIRCLE( '', #427, 10.0000000000000 );
#358 = LINE( '', #428, #429 );
#359 = FILL_AREA_STYLE_COLOUR( '', #430 );
#360 = FILL_AREA_STYLE_COLOUR( '', #431 );
#361 = LINE( '', #432, #433 );
#362 = LINE( '', #434, #435 );
#363 = FILL_AREA_STYLE_COLOUR( '', #436 );
#364 = FILL_AREA_STYLE_COLOUR( '', #437 );
#365 = FILL_AREA_STYLE_COLOUR( '', #438 );
#366 = COLOUR_RGB( '', 0.689999997600000, 0.689999997600000, 0.689999997600000 );
#367 = CARTESIAN_POINT( '', ( 122.437276042283, 7.74999999999998, 0.000000000000000 ) );
#368 = AXIS2_PLACEMENT_3D( '', #439, #440, #441 );
#369 = COLOUR_RGB( '', 0.689999997600000, 0.689999997600000, 0.689999997600000 );
#370 = CARTESIAN_POINT( '', ( -1.42108547152020E-14, -0.900000000000012, 8.41852850859341 ) );
#371 = CARTESIAN_POINT( '', ( -1.42108547152020E-14, -0.900000000000012, -8.41852850859341 ) );
#372 = AXIS2_PLACEMENT_3D( '', #442, #443, #444 );
#373 = CARTESIAN_POINT( '', ( -1.42108547152020E-14, -0.900000000000012, -10.5000000000000 ) );
#374 = VECTOR( '', #445, 1000.00000000000 );
#375 = COLOUR_RGB( '', 0.689999997600000, 0.689999997600000, 0.689999997600000 );
#376 = CARTESIAN_POINT( '', ( 119.500000000000, 7.74999999999998, 0.000000000000000 ) );
#377 = AXIS2_PLACEMENT_3D( '', #446, #447, #448 );
#378 = COLOUR_RGB( '', 0.689999997600000, 0.689999997600000, 0.689999997600000 );
#379 = CARTESIAN_POINT( '', ( -1.42108547152020E-14, 0.899999999999988, -8.41852850859341 ) );
#380 = CARTESIAN_POINT( '', ( -1.42108547152020E-14, 0.899999999999988, 8.41852850859341 ) );
#381 = AXIS2_PLACEMENT_3D( '', #449, #450, #451 );
#382 = CARTESIAN_POINT( '', ( 1.53349999999999, 0.899999999999996, 9.95941765365827 ) );
#383 = CARTESIAN_POINT( '', ( -1.70700571864519E-14, 0.899999999999988, 8.41852850859341 ) );
#384 = CARTESIAN_POINT( '', ( 0.510941899449493, 0.899999999999988, 8.93238191982478 ) );
#385 = CARTESIAN_POINT( '', ( 1.02214318709473, 0.899999999999988, 9.44597717883551 ) );
#386 = CARTESIAN_POINT( '', ( 1.53349999999998, 0.899999999999988, 9.95941765365827 ) );
#387 = CARTESIAN_POINT( '', ( 1.53349999999999, 0.899999999999996, -9.95941765365827 ) );
#388 = AXIS2_PLACEMENT_3D( '', #452, #453, #454 );
#389 = CARTESIAN_POINT( '', ( 1.53349999999998, 0.899999999999988, -9.95941765365827 ) );
#390 = CARTESIAN_POINT( '', ( 1.02214317772919, 0.899999999999988, -9.44597716943180 ) );
#391 = CARTESIAN_POINT( '', ( 0.510941888387706, 0.899999999999988, -8.93238190869996 ) );
#392 = CARTESIAN_POINT( '', ( -1.13101637653488E-14, 0.899999999999988, -8.41852850859341 ) );
#393 = COLOUR_RGB( '', 0.689999997600000, 0.689999997600000, 0.689999997600000 );
#394 = CARTESIAN_POINT( '', ( 119.500000000000, 7.19999999999998, 0.000000000000000 ) );
#395 = AXIS2_PLACEMENT_3D( '', #455, #456, #457 );
#396 = CARTESIAN_POINT( '', ( 112.347220000000, 7.19999999999998, 0.000000000000000 ) );
#397 = AXIS2_PLACEMENT_3D( '', #458, #459, #460 );
#398 = COLOUR_RGB( '', 0.689999997600000, 0.689999997600000, 0.689999997600000 );
#399 = CARTESIAN_POINT( '', ( 1.53349999999999, -0.900000000000004, 9.95941765365827 ) );
#400 = CARTESIAN_POINT( '', ( 1.53349999999999, -0.900000000000004, -9.95941765365827 ) );
#401 = AXIS2_PLACEMENT_3D( '', #461, #462, #463 );
#402 = CARTESIAN_POINT( '', ( 1.53349999999999, -0.900000000000012, 9.95941765365828 ) );
#403 = CARTESIAN_POINT( '', ( 1.02214317772919, -0.900000000000012, 9.44597716943181 ) );
#404 = CARTESIAN_POINT( '', ( 0.510941888387704, -0.900000000000012, 8.93238190869996 ) );
#405 = CARTESIAN_POINT( '', ( -1.57052458301803E-14, -0.900000000000012, 8.41852850859341 ) );
#406 = CARTESIAN_POINT( '', ( -1.69103246552106E-14, -0.900000000000012, -8.41852850859341 ) );
#407 = CARTESIAN_POINT( '', ( 0.510941899449493, -0.900000000000012, -8.93238191982478 ) );
#408 = CARTESIAN_POINT( '', ( 1.02214318709473, -0.900000000000012, -9.44597717883551 ) );
#409 = CARTESIAN_POINT( '', ( 1.53349999999999, -0.900000000000012, -9.95941765365828 ) );
#410 = COLOUR_RGB( '', 0.689999997600000, 0.689999997600000, 0.689999997600000 );
#411 = CARTESIAN_POINT( '', ( -1.42108547152020E-14, 0.899999999999988, 10.5000000000000 ) );
#412 = VECTOR( '', #464, 1000.00000000000 );
#413 = COLOUR_RGB( '', 0.689999997600000, 0.689999997600000, 0.689999997600000 );
#414 = CARTESIAN_POINT( '', ( 111.000000000000, 9.99999999999998, 0.000000000000000 ) );
#415 = AXIS2_PLACEMENT_3D( '', #465, #466, #467 );
#416 = CARTESIAN_POINT( '', ( 2.99999999999999, -0.900000000000012, -9.95941765365827 ) );
#417 = CARTESIAN_POINT( '', ( 125.000000000000, -0.900000000000012, -9.95941765365827 ) );
#418 = VECTOR( '', #468, 1000.00000000000 );
#419 = CARTESIAN_POINT( '', ( 2.99999999999999, 0.899999999999988, -9.95941765365827 ) );
#420 = AXIS2_PLACEMENT_3D( '', #469, #470, #471 );
#421 = CARTESIAN_POINT( '', ( 125.000000000000, 0.899999999999988, -9.95941765365827 ) );
#422 = VECTOR( '', #472, 1000.00000000000 );
#423 = CARTESIAN_POINT( '', ( 2.99999999999999, 0.899999999999988, 9.95941765365827 ) );
#424 = CARTESIAN_POINT( '', ( 125.000000000000, 0.899999999999988, 9.95941765365827 ) );
#425 = VECTOR( '', #473, 1000.00000000000 );
#426 = CARTESIAN_POINT( '', ( 2.99999999999999, -0.900000000000012, 9.95941765365827 ) );
#427 = AXIS2_PLACEMENT_3D( '', #474, #475, #476 );
#428 = CARTESIAN_POINT( '', ( 125.000000000000, -0.900000000000012, 9.95941765365827 ) );
#429 = VECTOR( '', #477, 1000.00000000000 );
#430 = COLOUR_RGB( '', 0.689999997600000, 0.689999997600000, 0.689999997600000 );
#431 = COLOUR_RGB( '', 0.689999997600000, 0.689999997600000, 0.689999997600000 );
#432 = CARTESIAN_POINT( '', ( 2.99999999999999, -0.900000000000012, -10.5000000000000 ) );
#433 = VECTOR( '', #478, 1000.00000000000 );
#434 = CARTESIAN_POINT( '', ( 2.99999999999999, 0.899999999999988, 10.5000000000000 ) );
#435 = VECTOR( '', #479, 1000.00000000000 );
#436 = COLOUR_RGB( '', 0.689999997600000, 0.689999997600000, 0.689999997600000 );
#437 = COLOUR_RGB( '', 0.689999997600000, 0.689999997600000, 0.689999997600000 );
#438 = COLOUR_RGB( '', 0.689999997600000, 0.689999997600000, 0.689999997600000 );
#439 = CARTESIAN_POINT( '', ( 122.437276042283, -1.93830036488069E-14, 0.000000000000000 ) );
#440 = DIRECTION( '', ( 1.00000000000000, -6.12323399573676E-17, -0.000000000000000 ) );
#441 = DIRECTION( '', ( 6.12323399573676E-17, 1.00000000000000, 0.000000000000000 ) );
#442 = CARTESIAN_POINT( '', ( -1.38777878078145E-14, -1.18858827387318E-14, 0.000000000000000 ) );
#443 = DIRECTION( '', ( 1.00000000000000, -6.12323399573677E-17, -0.000000000000000 ) );
#444 = DIRECTION( '', ( 6.12323399573677E-17, 1.00000000000000, 0.000000000000000 ) );
#445 = DIRECTION( '', ( 0.000000000000000, 0.000000000000000, 1.00000000000000 ) );
#446 = CARTESIAN_POINT( '', ( 119.500000000000, -1.92031473636372E-14, 0.000000000000000 ) );
#447 = DIRECTION( '', ( 1.00000000000000, -6.12323399573676E-17, -0.000000000000000 ) );
#448 = DIRECTION( '', ( 6.12323399573676E-17, 1.00000000000000, 0.000000000000000 ) );
#449 = CARTESIAN_POINT( '', ( -1.38777878078145E-14, -1.18858827387318E-14, 0.000000000000000 ) );
#450 = DIRECTION( '', ( 1.00000000000000, -6.12323399573677E-17, -0.000000000000000 ) );
#451 = DIRECTION( '', ( 6.12323399573677E-17, 1.00000000000000, 0.000000000000000 ) );
#452 = CARTESIAN_POINT( '', ( 1.53349999999998, -1.19797825320564E-14, 0.000000000000000 ) );
#453 = DIRECTION( '', ( 1.00000000000000, -6.12323399573676E-17, -0.000000000000000 ) );
#454 = DIRECTION( '', ( 6.12323399573676E-17, 1.00000000000000, 0.000000000000000 ) );
#455 = CARTESIAN_POINT( '', ( 119.500000000000, -1.92031473636372E-14, 0.000000000000000 ) );
#456 = DIRECTION( '', ( 1.00000000000000, -6.12323399573676E-17, -0.000000000000000 ) );
#457 = DIRECTION( '', ( 6.12323399573676E-17, 1.00000000000000, 0.000000000000000 ) );
#458 = CARTESIAN_POINT( '', ( 112.347220000000, -1.87651659070370E-14, 0.000000000000000 ) );
#459 = DIRECTION( '', ( 1.00000000000000, -6.12323399573676E-17, -0.000000000000000 ) );
#460 = DIRECTION( '', ( 6.12323399573676E-17, 1.00000000000000, 0.000000000000000 ) );
#461 = CARTESIAN_POINT( '', ( 1.53349999999998, -1.19797825320564E-14, 0.000000000000000 ) );
#462 = DIRECTION( '', ( 1.00000000000000, -6.12323399573676E-17, -0.000000000000000 ) );
#463 = DIRECTION( '', ( 6.12323399573676E-17, 1.00000000000000, 0.000000000000000 ) );
#464 = DIRECTION( '', ( 0.000000000000000, 0.000000000000000, -1.00000000000000 ) );
#465 = CARTESIAN_POINT( '', ( 111.000000000000, -1.86826724739996E-14, 0.000000000000000 ) );
#466 = DIRECTION( '', ( 1.00000000000000, -6.12323399573676E-17, -0.000000000000000 ) );
#467 = DIRECTION( '', ( 6.12323399573676E-17, 1.00000000000000, 0.000000000000000 ) );
#468 = DIRECTION( '', ( 1.00000000000000, -6.12323399573676E-17, -0.000000000000000 ) );
#469 = CARTESIAN_POINT( '', ( 2.99999999999999, -1.20695797586039E-14, 0.000000000000000 ) );
#470 = DIRECTION( '', ( -1.00000000000000, 0.000000000000000, 0.000000000000000 ) );
#471 = DIRECTION( '', ( 0.000000000000000, 0.000000000000000, 1.00000000000000 ) );
#472 = DIRECTION( '', ( 1.00000000000000, -6.12323399573676E-17, -0.000000000000000 ) );
#473 = DIRECTION( '', ( 1.00000000000000, -6.12323399573676E-17, -0.000000000000000 ) );
#474 = CARTESIAN_POINT( '', ( 2.99999999999999, -1.20695797586039E-14, 0.000000000000000 ) );
#475 = DIRECTION( '', ( -1.00000000000000, 0.000000000000000, 0.000000000000000 ) );
#476 = DIRECTION( '', ( 0.000000000000000, 0.000000000000000, 1.00000000000000 ) );
#477 = DIRECTION( '', ( 1.00000000000000, -6.12323399573676E-17, -0.000000000000000 ) );
#478 = DIRECTION( '', ( 0.000000000000000, 0.000000000000000, 1.00000000000000 ) );
#479 = DIRECTION( '', ( 0.000000000000000, 0.000000000000000, -1.00000000000000 ) );
ENDSEC;
END-ISO-10303-21;
