ISO-10303-21;
HEADER;
FILE_DESCRIPTION( ( 'STEP AP214' ), '1' );
FILE_NAME( '//goodhand-server/Shared Folders/GoodHand Data/Kipp CAD/K0415/K0415.12040.stp', '2020-12-07T14:30:44', ( '' ), ( '' ), ' ', 'PARTsolutions', ' ' );
FILE_SCHEMA( ( 'AUTOMOTIVE_DESIGN { 1 0 10303 214 1 1 1 1 }' ) );
ENDSEC;
DATA;
#1 = MECHANICAL_DESIGN_GEOMETRIC_PRESENTATION_REPRESENTATION( ' ', ( #10, #11, #12, #13, #14, #15, #16, #17 ), #6 );
#2 = PRODUCT_DEFINITION_CONTEXT( '', #18, 'design' );
#3 = APPLICATION_PROTOCOL_DEFINITION( 'international standard', 'automotive_design', 2001, #18 );
#4 = PRODUCT_CATEGORY_RELATIONSHIP( 'NONE', 'NONE', #19, #20 );
#5 = SHAPE_DEFINITION_REPRESENTATION( #21, #22 );
#6 =  ( GEOMETRIC_REPRESENTATION_CONTEXT( 3 )GLOBAL_UNCERTAINTY_ASSIGNED_CONTEXT( ( #25 ) )GLOBAL_UNIT_ASSIGNED_CONTEXT( ( #27, #28, #29 ) )REPRESENTATION_CONTEXT( 'NONE', 'WORKSPACE' ) );
#10 = STYLED_ITEM( '', ( #31 ), #32 );
#11 = STYLED_ITEM( '', ( #33 ), #34 );
#12 = STYLED_ITEM( '', ( #35 ), #36 );
#13 = STYLED_ITEM( '', ( #37 ), #38 );
#14 = STYLED_ITEM( '', ( #39 ), #40 );
#15 = STYLED_ITEM( '', ( #41 ), #42 );
#16 = STYLED_ITEM( '', ( #43 ), #44 );
#17 = STYLED_ITEM( '', ( #45 ), #46 );
#18 = APPLICATION_CONTEXT( 'core data for automotive mechanical design processes' );
#19 = PRODUCT_CATEGORY( 'part', 'NONE' );
#20 = PRODUCT_RELATED_PRODUCT_CATEGORY( 'detail', ' ', ( #47 ) );
#21 = PRODUCT_DEFINITION_SHAPE( 'NONE', 'NONE', #48 );
#22 = ADVANCED_BREP_SHAPE_REPRESENTATION( '_K0415.12040', ( #49, #50 ), #6 );
#25 = UNCERTAINTY_MEASURE_WITH_UNIT( LENGTH_MEASURE( 0.00100000000000000 ), #27, '', '' );
#27 =  ( CONVERSION_BASED_UNIT( 'MILLIMETRE', #53 )LENGTH_UNIT(  )NAMED_UNIT( #56 ) );
#28 =  ( NAMED_UNIT( #58 )PLANE_ANGLE_UNIT(  )SI_UNIT( $, .RADIAN. ) );
#29 =  ( NAMED_UNIT( #58 )SI_UNIT( $, .STERADIAN. )SOLID_ANGLE_UNIT(  ) );
#31 = PRESENTATION_STYLE_ASSIGNMENT( ( #64 ) );
#32 = ADVANCED_FACE( '', ( #65, #66 ), #67, .T. );
#33 = PRESENTATION_STYLE_ASSIGNMENT( ( #68 ) );
#34 = ADVANCED_FACE( '', ( #69, #70 ), #71, .T. );
#35 = PRESENTATION_STYLE_ASSIGNMENT( ( #72 ) );
#36 = ADVANCED_FACE( '', ( #73, #74 ), #75, .T. );
#37 = PRESENTATION_STYLE_ASSIGNMENT( ( #76 ) );
#38 = ADVANCED_FACE( '', ( #77, #78 ), #79, .T. );
#39 = PRESENTATION_STYLE_ASSIGNMENT( ( #80 ) );
#40 = ADVANCED_FACE( '', ( #81 ), #82, .F. );
#41 = PRESENTATION_STYLE_ASSIGNMENT( ( #83 ) );
#42 = ADVANCED_FACE( '', ( #84, #85 ), #86, .F. );
#43 = PRESENTATION_STYLE_ASSIGNMENT( ( #87 ) );
#44 = ADVANCED_FACE( '', ( #88, #89 ), #90, .F. );
#45 = PRESENTATION_STYLE_ASSIGNMENT( ( #91 ) );
#46 = ADVANCED_FACE( '', ( #92, #93 ), #94, .F. );
#47 = PRODUCT( '_K0415.12040', '_K0415.12040', 'PART-_K0415.12040-DESC', ( #95 ) );
#48 = PRODUCT_DEFINITION( 'NONE', 'NONE', #96, #2 );
#49 = MANIFOLD_SOLID_BREP( '_K0415.12040', #97 );
#50 = AXIS2_PLACEMENT_3D( '', #98, #99, #100 );
#53 = LENGTH_MEASURE_WITH_UNIT( LENGTH_MEASURE( 1.00000000000000 ), #101 );
#56 = DIMENSIONAL_EXPONENTS( 1.00000000000000, 0.000000000000000, 0.000000000000000, 0.000000000000000, 0.000000000000000, 0.000000000000000, 0.000000000000000 );
#58 = DIMENSIONAL_EXPONENTS( 0.000000000000000, 0.000000000000000, 0.000000000000000, 0.000000000000000, 0.000000000000000, 0.000000000000000, 0.000000000000000 );
#64 = SURFACE_STYLE_USAGE( .BOTH., #102 );
#65 = FACE_OUTER_BOUND( '', #103, .T. );
#66 = FACE_OUTER_BOUND( '', #104, .T. );
#67 = TOROIDAL_SURFACE( '', #105, 16.0000000000000, 4.00000000000000 );
#68 = SURFACE_STYLE_USAGE( .BOTH., #106 );
#69 = FACE_OUTER_BOUND( '', #107, .T. );
#70 = FACE_OUTER_BOUND( '', #108, .T. );
#71 = ( BOUNDED_SURFACE(  )B_SPLINE_SURFACE( 3, 3, ( ( #111, #112, #113, #114, #115, #116, #117 ), ( #118, #119, #120, #121, #122, #123, #124 ), ( #125, #126, #127, #128, #129, #130, #131 ), ( #132, #133, #134, #135, #136, #137, #138 ) ), .UNSPECIFIED., .F., .T., .F. )B_SPLINE_SURFACE_WITH_KNOTS( ( 4, 4 ), ( 4, 3, 4 ), ( 0.000000000000000, 6.28318530717959 ), ( -1.30215898558165, -0.962209677171958, -0.622260368762261 ), .UNSPECIFIED. )GEOMETRIC_REPRESENTATION_ITEM(  )RATIONAL_B_SPLINE_SURFACE( ( ( 1.00000000000000, 0.333333333333333, 0.333333333333333, 1.00000000000000, 0.333333333333333, 0.333333333333333, 1.00000000000000 ), ( 0.961847712872078, 0.320615904290693, 0.320615904290693, 0.961847712872078, 0.320615904290693, 0.320615904290693, 0.961847712872078 ), ( 0.961847712872078, 0.320615904290693, 0.320615904290693, 0.961847712872078, 0.320615904290693, 0.320615904290693, 0.961847712872078 ), ( 1.00000000000000, 0.333333333333333, 0.333333333333333, 1.00000000000000, 0.333333333333333, 0.333333333333333, 1.00000000000000 ) ) )REPRESENTATION_ITEM( '' )SURFACE(  ) );
#72 = SURFACE_STYLE_USAGE( .BOTH., #144 );
#73 = FACE_OUTER_BOUND( '', #145, .T. );
#74 = FACE_OUTER_BOUND( '', #146, .T. );
#75 = CYLINDRICAL_SURFACE( '', #147, 17.6000000000000 );
#76 = SURFACE_STYLE_USAGE( .BOTH., #148 );
#77 = FACE_OUTER_BOUND( '', #149, .T. );
#78 = FACE_OUTER_BOUND( '', #150, .T. );
#79 = CYLINDRICAL_SURFACE( '', #151, 20.0000000000000 );
#80 = SURFACE_STYLE_USAGE( .BOTH., #152 );
#81 = FACE_OUTER_BOUND( '', #153, .T. );
#82 = PLANE( '', #154 );
#83 = SURFACE_STYLE_USAGE( .BOTH., #155 );
#84 = FACE_BOUND( '', #156, .T. );
#85 = FACE_OUTER_BOUND( '', #157, .T. );
#86 = PLANE( '', #158 );
#87 = SURFACE_STYLE_USAGE( .BOTH., #159 );
#88 = FACE_BOUND( '', #160, .T. );
#89 = FACE_OUTER_BOUND( '', #161, .T. );
#90 = SPHERICAL_SURFACE( '', #162, 7.50000000000000 );
#91 = SURFACE_STYLE_USAGE( .BOTH., #163 );
#92 = FACE_OUTER_BOUND( '', #164, .T. );
#93 = FACE_OUTER_BOUND( '', #165, .T. );
#94 = CYLINDRICAL_SURFACE( '', #166, 7.50000000000000 );
#95 = PRODUCT_CONTEXT( '', #18, 'mechanical' );
#96 = PRODUCT_DEFINITION_FORMATION_WITH_SPECIFIED_SOURCE( ' ', 'NONE', #47, .NOT_KNOWN. );
#97 = CLOSED_SHELL( '', ( #44, #46, #34, #32, #38, #42, #36, #40 ) );
#98 = CARTESIAN_POINT( '', ( 0.000000000000000, 0.000000000000000, 0.000000000000000 ) );
#99 = DIRECTION( '', ( 0.000000000000000, 0.000000000000000, 1.00000000000000 ) );
#100 = DIRECTION( '', ( 1.00000000000000, 0.000000000000000, 0.000000000000000 ) );
#101 =  ( LENGTH_UNIT(  )NAMED_UNIT( #56 )SI_UNIT( .MILLI., .METRE. ) );
#102 = SURFACE_SIDE_STYLE( '', ( #168 ) );
#103 = EDGE_LOOP( '', ( #169 ) );
#104 = EDGE_LOOP( '', ( #170 ) );
#105 = AXIS2_PLACEMENT_3D( '', #171, #172, #173 );
#106 = SURFACE_SIDE_STYLE( '', ( #174 ) );
#107 = EDGE_LOOP( '', ( #175 ) );
#108 = EDGE_LOOP( '', ( #176 ) );
#111 = CARTESIAN_POINT( '', ( 0.000000000000000, 9.11753576632573, -19.2502520995760 ) );
#112 = CARTESIAN_POINT( '', ( 38.5005041991520, 9.11753576632573, -19.2502520995760 ) );
#113 = CARTESIAN_POINT( '', ( 38.5005041991520, 9.11753576632573, 19.2502520995760 ) );
#114 = CARTESIAN_POINT( '', ( 0.000000000000000, 9.11753576632573, 19.2502520995760 ) );
#115 = CARTESIAN_POINT( '', ( -38.5005041991520, 9.11753576632573, 19.2502520995760 ) );
#116 = CARTESIAN_POINT( '', ( -38.5005041991520, 9.11753576632573, -19.2502520995760 ) );
#117 = CARTESIAN_POINT( '', ( 0.000000000000000, 9.11753576632573, -19.2502520995760 ) );
#118 = CARTESIAN_POINT( '', ( 0.000000000000000, 13.1504679388333, -16.3573212453704 ) );
#119 = CARTESIAN_POINT( '', ( 32.7146424907408, 13.1504679388333, -16.3573212453704 ) );
#120 = CARTESIAN_POINT( '', ( 32.7146424907408, 13.1504679388333, 16.3573212453704 ) );
#121 = CARTESIAN_POINT( '', ( 0.000000000000000, 13.1504679388333, 16.3573212453704 ) );
#122 = CARTESIAN_POINT( '', ( -32.7146424907408, 13.1504679388333, 16.3573212453704 ) );
#123 = CARTESIAN_POINT( '', ( -32.7146424907408, 13.1504679388333, -16.3573212453704 ) );
#124 = CARTESIAN_POINT( '', ( 0.000000000000000, 13.1504679388333, -16.3573212453704 ) );
#125 = CARTESIAN_POINT( '', ( 0.000000000000000, 15.9879848873214, -12.2852101955211 ) );
#126 = CARTESIAN_POINT( '', ( 24.5704203910422, 15.9879848873214, -12.2852101955211 ) );
#127 = CARTESIAN_POINT( '', ( 24.5704203910422, 15.9879848873214, 12.2852101955211 ) );
#128 = CARTESIAN_POINT( '', ( 0.000000000000000, 15.9879848873214, 12.2852101955211 ) );
#129 = CARTESIAN_POINT( '', ( -24.5704203910422, 15.9879848873214, 12.2852101955211 ) );
#130 = CARTESIAN_POINT( '', ( -24.5704203910422, 15.9879848873214, -12.2852101955211 ) );
#131 = CARTESIAN_POINT( '', ( 0.000000000000000, 15.9879848873214, -12.2852101955211 ) );
#132 = CARTESIAN_POINT( '', ( 0.000000000000000, 17.3053133277427, -7.50000000000000 ) );
#133 = CARTESIAN_POINT( '', ( 15.0000000000000, 17.3053133277427, -7.50000000000000 ) );
#134 = CARTESIAN_POINT( '', ( 15.0000000000000, 17.3053133277427, 7.50000000000000 ) );
#135 = CARTESIAN_POINT( '', ( 0.000000000000000, 17.3053133277427, 7.50000000000000 ) );
#136 = CARTESIAN_POINT( '', ( -15.0000000000000, 17.3053133277427, 7.50000000000000 ) );
#137 = CARTESIAN_POINT( '', ( -15.0000000000000, 17.3053133277427, -7.50000000000000 ) );
#138 = CARTESIAN_POINT( '', ( 0.000000000000000, 17.3053133277427, -7.50000000000000 ) );
#144 = SURFACE_SIDE_STYLE( '', ( #177 ) );
#145 = EDGE_LOOP( '', ( #178 ) );
#146 = EDGE_LOOP( '', ( #179 ) );
#147 = AXIS2_PLACEMENT_3D( '', #180, #181, #182 );
#148 = SURFACE_SIDE_STYLE( '', ( #183 ) );
#149 = EDGE_LOOP( '', ( #184 ) );
#150 = EDGE_LOOP( '', ( #185 ) );
#151 = AXIS2_PLACEMENT_3D( '', #186, #187, #188 );
#152 = SURFACE_SIDE_STYLE( '', ( #189 ) );
#153 = EDGE_LOOP( '', ( #190 ) );
#154 = AXIS2_PLACEMENT_3D( '', #191, #192, #193 );
#155 = SURFACE_SIDE_STYLE( '', ( #194 ) );
#156 = EDGE_LOOP( '', ( #195 ) );
#157 = EDGE_LOOP( '', ( #196 ) );
#158 = AXIS2_PLACEMENT_3D( '', #197, #198, #199 );
#159 = SURFACE_SIDE_STYLE( '', ( #200 ) );
#160 = VERTEX_LOOP( '', #201 );
#161 = EDGE_LOOP( '', ( #202 ) );
#162 = AXIS2_PLACEMENT_3D( '', #203, #204, #205 );
#163 = SURFACE_SIDE_STYLE( '', ( #206 ) );
#164 = EDGE_LOOP( '', ( #207 ) );
#165 = EDGE_LOOP( '', ( #208 ) );
#166 = AXIS2_PLACEMENT_3D( '', #209, #210, #211 );
#168 = SURFACE_STYLE_FILL_AREA( #212 );
#169 = ORIENTED_EDGE( '', *, *, #213, .T. );
#170 = ORIENTED_EDGE( '', *, *, #214, .F. );
#171 = CARTESIAN_POINT( '', ( 0.000000000000000, 6.78604240600883, 0.000000000000000 ) );
#172 = DIRECTION( '', ( 0.000000000000000, -1.00000000000000, -0.000000000000000 ) );
#173 = DIRECTION( '', ( 0.000000000000000, 0.000000000000000, -1.00000000000000 ) );
#174 = SURFACE_STYLE_FILL_AREA( #215 );
#175 = ORIENTED_EDGE( '', *, *, #216, .T. );
#176 = ORIENTED_EDGE( '', *, *, #213, .F. );
#177 = SURFACE_STYLE_FILL_AREA( #217 );
#178 = ORIENTED_EDGE( '', *, *, #218, .F. );
#179 = ORIENTED_EDGE( '', *, *, #219, .T. );
#180 = CARTESIAN_POINT( '', ( 0.000000000000000, -2.00000000000000, 0.000000000000000 ) );
#181 = DIRECTION( '', ( -0.000000000000000, 1.00000000000000, 0.000000000000000 ) );
#182 = DIRECTION( '', ( 0.000000000000000, 0.000000000000000, -1.00000000000000 ) );
#183 = SURFACE_STYLE_FILL_AREA( #220 );
#184 = ORIENTED_EDGE( '', *, *, #221, .F. );
#185 = ORIENTED_EDGE( '', *, *, #214, .T. );
#186 = CARTESIAN_POINT( '', ( 0.000000000000000, -2.00000000000000, 0.000000000000000 ) );
#187 = DIRECTION( '', ( -0.000000000000000, 1.00000000000000, 0.000000000000000 ) );
#188 = DIRECTION( '', ( 0.000000000000000, 0.000000000000000, -1.00000000000000 ) );
#189 = SURFACE_STYLE_FILL_AREA( #222 );
#190 = ORIENTED_EDGE( '', *, *, #218, .T. );
#191 = CARTESIAN_POINT( '', ( 17.6000000000000, -2.00000000000000, 0.000000000000000 ) );
#192 = DIRECTION( '', ( 0.000000000000000, 1.00000000000000, 0.000000000000000 ) );
#193 = DIRECTION( '', ( 0.000000000000000, -0.000000000000000, 1.00000000000000 ) );
#194 = SURFACE_STYLE_FILL_AREA( #223 );
#195 = ORIENTED_EDGE( '', *, *, #219, .F. );
#196 = ORIENTED_EDGE( '', *, *, #221, .T. );
#197 = CARTESIAN_POINT( '', ( 20.0000000000000, 0.000000000000000, 0.000000000000000 ) );
#198 = DIRECTION( '', ( 0.000000000000000, 1.00000000000000, 0.000000000000000 ) );
#199 = DIRECTION( '', ( 0.000000000000000, -0.000000000000000, 1.00000000000000 ) );
#200 = SURFACE_STYLE_FILL_AREA( #224 );
#201 = VERTEX_POINT( '', #225 );
#202 = ORIENTED_EDGE( '', *, *, #226, .F. );
#203 = CARTESIAN_POINT( '', ( -1.73472347597681E-15, 15.5000000000000, 0.000000000000000 ) );
#204 = DIRECTION( '', ( 0.000000000000000, -1.00000000000000, 0.000000000000000 ) );
#205 = DIRECTION( '', ( -1.00000000000000, 0.000000000000000, 0.000000000000000 ) );
#206 = SURFACE_STYLE_FILL_AREA( #227 );
#207 = ORIENTED_EDGE( '', *, *, #226, .T. );
#208 = ORIENTED_EDGE( '', *, *, #216, .F. );
#209 = CARTESIAN_POINT( '', ( 0.000000000000000, 8.00000000000000, 0.000000000000000 ) );
#210 = DIRECTION( '', ( -0.000000000000000, 1.00000000000000, 0.000000000000000 ) );
#211 = DIRECTION( '', ( 0.000000000000000, 0.000000000000000, -1.00000000000000 ) );
#212 = FILL_AREA_STYLE( '', ( #228 ) );
#213 = EDGE_CURVE( '', #229, #229, #230, .T. );
#214 = EDGE_CURVE( '', #231, #231, #232, .T. );
#215 = FILL_AREA_STYLE( '', ( #233 ) );
#216 = EDGE_CURVE( '', #234, #234, #235, .T. );
#217 = FILL_AREA_STYLE( '', ( #236 ) );
#218 = EDGE_CURVE( '', #237, #237, #238, .T. );
#219 = EDGE_CURVE( '', #239, #239, #240, .T. );
#220 = FILL_AREA_STYLE( '', ( #241 ) );
#221 = EDGE_CURVE( '', #242, #242, #243, .T. );
#222 = FILL_AREA_STYLE( '', ( #244 ) );
#223 = FILL_AREA_STYLE( '', ( #245 ) );
#224 = FILL_AREA_STYLE( '', ( #246 ) );
#225 = CARTESIAN_POINT( '', ( -2.19396602565706E-15, 8.00000000000000, 0.000000000000000 ) );
#226 = EDGE_CURVE( '', #247, #247, #248, .T. );
#227 = FILL_AREA_STYLE( '', ( #249 ) );
#228 = FILL_AREA_STYLE_COLOUR( '', #250 );
#229 = VERTEX_POINT( '', #251 );
#230 = CIRCLE( '', #252, 19.2502520996000 );
#231 = VERTEX_POINT( '', #253 );
#232 = CIRCLE( '', #254, 20.0000000000000 );
#233 = FILL_AREA_STYLE_COLOUR( '', #255 );
#234 = VERTEX_POINT( '', #256 );
#235 = CIRCLE( '', #257, 7.50000000000000 );
#236 = FILL_AREA_STYLE_COLOUR( '', #258 );
#237 = VERTEX_POINT( '', #259 );
#238 = CIRCLE( '', #260, 17.6000000000000 );
#239 = VERTEX_POINT( '', #261 );
#240 = CIRCLE( '', #262, 17.6000000000000 );
#241 = FILL_AREA_STYLE_COLOUR( '', #263 );
#242 = VERTEX_POINT( '', #264 );
#243 = CIRCLE( '', #265, 20.0000000000000 );
#244 = FILL_AREA_STYLE_COLOUR( '', #266 );
#245 = FILL_AREA_STYLE_COLOUR( '', #267 );
#246 = FILL_AREA_STYLE_COLOUR( '', #268 );
#247 = VERTEX_POINT( '', #269 );
#248 = CIRCLE( '', #270, 7.50000000000000 );
#249 = FILL_AREA_STYLE_COLOUR( '', #271 );
#250 = COLOUR_RGB( '', 0.689999997600000, 0.689999997600000, 0.689999997600000 );
#251 = CARTESIAN_POINT( '', ( 0.000000000000000, 9.11753576632572, -19.2502520995760 ) );
#252 = AXIS2_PLACEMENT_3D( '', #272, #273, #274 );
#253 = CARTESIAN_POINT( '', ( 0.000000000000000, 6.78604240600881, -20.0000000000000 ) );
#254 = AXIS2_PLACEMENT_3D( '', #275, #276, #277 );
#255 = COLOUR_RGB( '', 0.689999997600000, 0.689999997600000, 0.689999997600000 );
#256 = CARTESIAN_POINT( '', ( 0.000000000000000, 17.3053133277427, -7.50000000000000 ) );
#257 = AXIS2_PLACEMENT_3D( '', #278, #279, #280 );
#258 = COLOUR_RGB( '', 0.689999997600000, 0.689999997600000, 0.689999997600000 );
#259 = CARTESIAN_POINT( '', ( 0.000000000000000, -2.00000000000000, -17.6000000000000 ) );
#260 = AXIS2_PLACEMENT_3D( '', #281, #282, #283 );
#261 = CARTESIAN_POINT( '', ( 0.000000000000000, 0.000000000000000, -17.6000000000000 ) );
#262 = AXIS2_PLACEMENT_3D( '', #284, #285, #286 );
#263 = COLOUR_RGB( '', 0.689999997600000, 0.689999997600000, 0.689999997600000 );
#264 = CARTESIAN_POINT( '', ( 0.000000000000000, 0.000000000000000, -20.0000000000000 ) );
#265 = AXIS2_PLACEMENT_3D( '', #287, #288, #289 );
#266 = COLOUR_RGB( '', 0.689999997600000, 0.689999997600000, 0.689999997600000 );
#267 = COLOUR_RGB( '', 0.689999997600000, 0.689999997600000, 0.689999997600000 );
#268 = COLOUR_RGB( '', 0.689999997600000, 0.689999997600000, 0.689999997600000 );
#269 = CARTESIAN_POINT( '', ( 0.000000000000000, 15.5000000000000, -7.50000000000000 ) );
#270 = AXIS2_PLACEMENT_3D( '', #290, #291, #292 );
#271 = COLOUR_RGB( '', 0.689999997600000, 0.689999997600000, 0.689999997600000 );
#272 = CARTESIAN_POINT( '', ( 0.000000000000000, 9.11753576632572, 0.000000000000000 ) );
#273 = DIRECTION( '', ( 0.000000000000000, -1.00000000000000, -0.000000000000000 ) );
#274 = DIRECTION( '', ( 0.000000000000000, 0.000000000000000, -1.00000000000000 ) );
#275 = CARTESIAN_POINT( '', ( 0.000000000000000, 6.78604240600881, 0.000000000000000 ) );
#276 = DIRECTION( '', ( 0.000000000000000, -1.00000000000000, -0.000000000000000 ) );
#277 = DIRECTION( '', ( 0.000000000000000, 0.000000000000000, -1.00000000000000 ) );
#278 = CARTESIAN_POINT( '', ( 0.000000000000000, 17.3053133277427, 0.000000000000000 ) );
#279 = DIRECTION( '', ( 0.000000000000000, -1.00000000000000, -0.000000000000000 ) );
#280 = DIRECTION( '', ( 0.000000000000000, 0.000000000000000, -1.00000000000000 ) );
#281 = CARTESIAN_POINT( '', ( 0.000000000000000, -2.00000000000000, 0.000000000000000 ) );
#282 = DIRECTION( '', ( 0.000000000000000, -1.00000000000000, -0.000000000000000 ) );
#283 = DIRECTION( '', ( 0.000000000000000, 0.000000000000000, -1.00000000000000 ) );
#284 = CARTESIAN_POINT( '', ( 0.000000000000000, 0.000000000000000, 0.000000000000000 ) );
#285 = DIRECTION( '', ( 0.000000000000000, -1.00000000000000, -0.000000000000000 ) );
#286 = DIRECTION( '', ( 0.000000000000000, 0.000000000000000, -1.00000000000000 ) );
#287 = CARTESIAN_POINT( '', ( 0.000000000000000, 0.000000000000000, 0.000000000000000 ) );
#288 = DIRECTION( '', ( 0.000000000000000, -1.00000000000000, -0.000000000000000 ) );
#289 = DIRECTION( '', ( 0.000000000000000, 0.000000000000000, -1.00000000000000 ) );
#290 = CARTESIAN_POINT( '', ( 0.000000000000000, 15.5000000000000, 0.000000000000000 ) );
#291 = DIRECTION( '', ( 0.000000000000000, -1.00000000000000, -0.000000000000000 ) );
#292 = DIRECTION( '', ( 0.000000000000000, 0.000000000000000, -1.00000000000000 ) );
ENDSEC;
END-ISO-10303-21;
