ISO-10303-21;
HEADER;
FILE_DESCRIPTION( ( 'STEP AP214' ), '1' );
FILE_NAME( '//goodhand-server/Shared Folders/GoodHand Data/Kipp CAD/K0393/K0393.10.stp', '2020-12-07T10:24:10', ( '' ), ( '' ), ' ', 'PARTsolutions', ' ' );
FILE_SCHEMA( ( 'AUTOMOTIVE_DESIGN { 1 0 10303 214 1 1 1 1 }' ) );
ENDSEC;
DATA;
#1 = MECHANICAL_DESIGN_GEOMETRIC_PRESENTATION_REPRESENTATION( ' ', ( #10, #11, #12, #13, #14, #15, #16, #17, #18, #19, #20, #21, #22, #23, #24 ), #6 );
#2 = PRODUCT_DEFINITION_CONTEXT( '', #25, 'design' );
#3 = APPLICATION_PROTOCOL_DEFINITION( 'international standard', 'automotive_design', 2001, #25 );
#4 = PRODUCT_CATEGORY_RELATIONSHIP( 'NONE', 'NONE', #26, #27 );
#5 = SHAPE_DEFINITION_REPRESENTATION( #28, #29 );
#6 =  ( GEOMETRIC_REPRESENTATION_CONTEXT( 3 )GLOBAL_UNCERTAINTY_ASSIGNED_CONTEXT( ( #32 ) )GLOBAL_UNIT_ASSIGNED_CONTEXT( ( #34, #35, #36 ) )REPRESENTATION_CONTEXT( 'NONE', 'WORKSPACE' ) );
#10 = STYLED_ITEM( '', ( #38 ), #39 );
#11 = STYLED_ITEM( '', ( #40 ), #41 );
#12 = STYLED_ITEM( '', ( #42 ), #43 );
#13 = STYLED_ITEM( '', ( #44 ), #45 );
#14 = STYLED_ITEM( '', ( #46 ), #47 );
#15 = STYLED_ITEM( '', ( #48 ), #49 );
#16 = STYLED_ITEM( '', ( #50 ), #51 );
#17 = STYLED_ITEM( '', ( #52 ), #53 );
#18 = STYLED_ITEM( '', ( #54 ), #55 );
#19 = STYLED_ITEM( '', ( #56 ), #57 );
#20 = STYLED_ITEM( '', ( #58 ), #59 );
#21 = STYLED_ITEM( '', ( #60 ), #61 );
#22 = STYLED_ITEM( '', ( #62 ), #63 );
#23 = STYLED_ITEM( '', ( #64 ), #65 );
#24 = STYLED_ITEM( '', ( #66 ), #67 );
#25 = APPLICATION_CONTEXT( 'core data for automotive mechanical design processes' );
#26 = PRODUCT_CATEGORY( 'part', 'NONE' );
#27 = PRODUCT_RELATED_PRODUCT_CATEGORY( 'detail', ' ', ( #68 ) );
#28 = PRODUCT_DEFINITION_SHAPE( 'NONE', 'NONE', #69 );
#29 = ADVANCED_BREP_SHAPE_REPRESENTATION( '_K0393.10', ( #70, #71 ), #6 );
#32 = UNCERTAINTY_MEASURE_WITH_UNIT( LENGTH_MEASURE( 0.00100000000000000 ), #34, '', '' );
#34 =  ( CONVERSION_BASED_UNIT( 'MILLIMETRE', #74 )LENGTH_UNIT(  )NAMED_UNIT( #77 ) );
#35 =  ( NAMED_UNIT( #79 )PLANE_ANGLE_UNIT(  )SI_UNIT( $, .RADIAN. ) );
#36 =  ( NAMED_UNIT( #79 )SI_UNIT( $, .STERADIAN. )SOLID_ANGLE_UNIT(  ) );
#38 = PRESENTATION_STYLE_ASSIGNMENT( ( #85 ) );
#39 = ADVANCED_FACE( '', ( #86, #87 ), #88, .F. );
#40 = PRESENTATION_STYLE_ASSIGNMENT( ( #89 ) );
#41 = ADVANCED_FACE( '', ( #90, #91 ), #92, .F. );
#42 = PRESENTATION_STYLE_ASSIGNMENT( ( #93 ) );
#43 = ADVANCED_FACE( '', ( #94, #95 ), #96, .F. );
#44 = PRESENTATION_STYLE_ASSIGNMENT( ( #97 ) );
#45 = ADVANCED_FACE( '', ( #98, #99 ), #100, .F. );
#46 = PRESENTATION_STYLE_ASSIGNMENT( ( #101 ) );
#47 = ADVANCED_FACE( '', ( #102, #103 ), #104, .F. );
#48 = PRESENTATION_STYLE_ASSIGNMENT( ( #105 ) );
#49 = ADVANCED_FACE( '', ( #106, #107 ), #108, .T. );
#50 = PRESENTATION_STYLE_ASSIGNMENT( ( #109 ) );
#51 = ADVANCED_FACE( '', ( #110 ), #111, .F. );
#52 = PRESENTATION_STYLE_ASSIGNMENT( ( #112 ) );
#53 = ADVANCED_FACE( '', ( #113, #114 ), #115, .F. );
#54 = PRESENTATION_STYLE_ASSIGNMENT( ( #116 ) );
#55 = ADVANCED_FACE( '', ( #117, #118 ), #119, .T. );
#56 = PRESENTATION_STYLE_ASSIGNMENT( ( #120 ) );
#57 = ADVANCED_FACE( '', ( #121, #122 ), #123, .F. );
#58 = PRESENTATION_STYLE_ASSIGNMENT( ( #124 ) );
#59 = ADVANCED_FACE( '', ( #125, #126 ), #127, .T. );
#60 = PRESENTATION_STYLE_ASSIGNMENT( ( #128 ) );
#61 = ADVANCED_FACE( '', ( #129, #130 ), #131, .T. );
#62 = PRESENTATION_STYLE_ASSIGNMENT( ( #132 ) );
#63 = ADVANCED_FACE( '', ( #133, #134 ), #135, .F. );
#64 = PRESENTATION_STYLE_ASSIGNMENT( ( #136 ) );
#65 = ADVANCED_FACE( '', ( #137, #138 ), #139, .T. );
#66 = PRESENTATION_STYLE_ASSIGNMENT( ( #140 ) );
#67 = ADVANCED_FACE( '', ( #141, #142 ), #143, .T. );
#68 = PRODUCT( '_K0393.10', '_K0393.10', 'PART-_K0393.10-DESC', ( #144 ) );
#69 = PRODUCT_DEFINITION( 'NONE', 'NONE', #145, #2 );
#70 = MANIFOLD_SOLID_BREP( '_K0393.10', #146 );
#71 = AXIS2_PLACEMENT_3D( '', #147, #148, #149 );
#74 = LENGTH_MEASURE_WITH_UNIT( LENGTH_MEASURE( 1.00000000000000 ), #150 );
#77 = DIMENSIONAL_EXPONENTS( 1.00000000000000, 0.000000000000000, 0.000000000000000, 0.000000000000000, 0.000000000000000, 0.000000000000000, 0.000000000000000 );
#79 = DIMENSIONAL_EXPONENTS( 0.000000000000000, 0.000000000000000, 0.000000000000000, 0.000000000000000, 0.000000000000000, 0.000000000000000, 0.000000000000000 );
#85 = SURFACE_STYLE_USAGE( .BOTH., #151 );
#86 = FACE_BOUND( '', #152, .T. );
#87 = FACE_OUTER_BOUND( '', #153, .T. );
#88 = CONICAL_SURFACE( '', #154, 4.25000000000000, 0.785398163400000 );
#89 = SURFACE_STYLE_USAGE( .BOTH., #155 );
#90 = FACE_OUTER_BOUND( '', #156, .T. );
#91 = FACE_OUTER_BOUND( '', #157, .T. );
#92 = CYLINDRICAL_SURFACE( '', #158, 3.95000000000000 );
#93 = SURFACE_STYLE_USAGE( .BOTH., #159 );
#94 = FACE_BOUND( '', #160, .T. );
#95 = FACE_OUTER_BOUND( '', #161, .T. );
#96 = CONICAL_SURFACE( '', #162, 3.95000000000000, 1.22173047640000 );
#97 = SURFACE_STYLE_USAGE( .BOTH., #163 );
#98 = FACE_OUTER_BOUND( '', #164, .T. );
#99 = FACE_BOUND( '', #165, .T. );
#100 = CONICAL_SURFACE( '', #166, 3.95000000000000, 0.785398163400000 );
#101 = SURFACE_STYLE_USAGE( .BOTH., #167 );
#102 = FACE_OUTER_BOUND( '', #168, .T. );
#103 = FACE_BOUND( '', #169, .T. );
#104 = PLANE( '', #170 );
#105 = SURFACE_STYLE_USAGE( .BOTH., #171 );
#106 = FACE_OUTER_BOUND( '', #172, .T. );
#107 = FACE_BOUND( '', #173, .T. );
#108 = CONICAL_SURFACE( '', #174, 7.14644660940000, 0.785398163400000 );
#109 = SURFACE_STYLE_USAGE( .BOTH., #175 );
#110 = FACE_OUTER_BOUND( '', #176, .T. );
#111 = PLANE( '', #177 );
#112 = SURFACE_STYLE_USAGE( .BOTH., #178 );
#113 = FACE_BOUND( '', #179, .T. );
#114 = FACE_OUTER_BOUND( '', #180, .T. );
#115 = PLANE( '', #181 );
#116 = SURFACE_STYLE_USAGE( .BOTH., #182 );
#117 = FACE_BOUND( '', #183, .T. );
#118 = FACE_OUTER_BOUND( '', #184, .T. );
#119 = CONICAL_SURFACE( '', #185, 10.5000000000000, 0.785398163400000 );
#120 = SURFACE_STYLE_USAGE( .BOTH., #186 );
#121 = FACE_OUTER_BOUND( '', #187, .T. );
#122 = FACE_OUTER_BOUND( '', #188, .T. );
#123 = CYLINDRICAL_SURFACE( '', #189, 4.15000000000000 );
#124 = SURFACE_STYLE_USAGE( .BOTH., #190 );
#125 = FACE_OUTER_BOUND( '', #191, .T. );
#126 = FACE_OUTER_BOUND( '', #192, .T. );
#127 = CYLINDRICAL_SURFACE( '', #193, 10.5000000000000 );
#128 = SURFACE_STYLE_USAGE( .BOTH., #194 );
#129 = FACE_BOUND( '', #195, .T. );
#130 = FACE_OUTER_BOUND( '', #196, .T. );
#131 = PLANE( '', #197 );
#132 = SURFACE_STYLE_USAGE( .BOTH., #198 );
#133 = FACE_OUTER_BOUND( '', #199, .T. );
#134 = FACE_OUTER_BOUND( '', #200, .T. );
#135 = CYLINDRICAL_SURFACE( '', #201, 4.00000000000000 );
#136 = SURFACE_STYLE_USAGE( .BOTH., #202 );
#137 = FACE_OUTER_BOUND( '', #203, .T. );
#138 = FACE_BOUND( '', #204, .T. );
#139 = CONICAL_SURFACE( '', #205, 7.50000000000000, 1.16188849780000 );
#140 = SURFACE_STYLE_USAGE( .BOTH., #206 );
#141 = FACE_OUTER_BOUND( '', #207, .T. );
#142 = FACE_OUTER_BOUND( '', #208, .T. );
#143 = CYLINDRICAL_SURFACE( '', #209, 7.50000000000000 );
#144 = PRODUCT_CONTEXT( '', #25, 'mechanical' );
#145 = PRODUCT_DEFINITION_FORMATION_WITH_SPECIFIED_SOURCE( ' ', 'NONE', #68, .NOT_KNOWN. );
#146 = CLOSED_SHELL( '', ( #43, #49, #47, #39, #41, #51, #63, #53, #55, #59, #65, #67, #45, #57, #61 ) );
#147 = CARTESIAN_POINT( '', ( 0.000000000000000, 0.000000000000000, 0.000000000000000 ) );
#148 = DIRECTION( '', ( 0.000000000000000, 0.000000000000000, 1.00000000000000 ) );
#149 = DIRECTION( '', ( 1.00000000000000, 0.000000000000000, 0.000000000000000 ) );
#150 =  ( LENGTH_UNIT(  )NAMED_UNIT( #77 )SI_UNIT( .MILLI., .METRE. ) );
#151 = SURFACE_SIDE_STYLE( '', ( #211 ) );
#152 = EDGE_LOOP( '', ( #212 ) );
#153 = EDGE_LOOP( '', ( #213 ) );
#154 = AXIS2_PLACEMENT_3D( '', #214, #215, #216 );
#155 = SURFACE_SIDE_STYLE( '', ( #217 ) );
#156 = EDGE_LOOP( '', ( #218 ) );
#157 = EDGE_LOOP( '', ( #219 ) );
#158 = AXIS2_PLACEMENT_3D( '', #220, #221, #222 );
#159 = SURFACE_SIDE_STYLE( '', ( #223 ) );
#160 = VERTEX_LOOP( '', #224 );
#161 = EDGE_LOOP( '', ( #225 ) );
#162 = AXIS2_PLACEMENT_3D( '', #226, #227, #228 );
#163 = SURFACE_SIDE_STYLE( '', ( #229 ) );
#164 = EDGE_LOOP( '', ( #230 ) );
#165 = EDGE_LOOP( '', ( #231 ) );
#166 = AXIS2_PLACEMENT_3D( '', #232, #233, #234 );
#167 = SURFACE_SIDE_STYLE( '', ( #235 ) );
#168 = EDGE_LOOP( '', ( #236 ) );
#169 = EDGE_LOOP( '', ( #237 ) );
#170 = AXIS2_PLACEMENT_3D( '', #238, #239, #240 );
#171 = SURFACE_SIDE_STYLE( '', ( #241 ) );
#172 = EDGE_LOOP( '', ( #242 ) );
#173 = EDGE_LOOP( '', ( #243 ) );
#174 = AXIS2_PLACEMENT_3D( '', #244, #245, #246 );
#175 = SURFACE_SIDE_STYLE( '', ( #247 ) );
#176 = EDGE_LOOP( '', ( #248 ) );
#177 = AXIS2_PLACEMENT_3D( '', #249, #250, #251 );
#178 = SURFACE_SIDE_STYLE( '', ( #252 ) );
#179 = EDGE_LOOP( '', ( #253 ) );
#180 = EDGE_LOOP( '', ( #254 ) );
#181 = AXIS2_PLACEMENT_3D( '', #255, #256, #257 );
#182 = SURFACE_SIDE_STYLE( '', ( #258 ) );
#183 = EDGE_LOOP( '', ( #259 ) );
#184 = EDGE_LOOP( '', ( #260 ) );
#185 = AXIS2_PLACEMENT_3D( '', #261, #262, #263 );
#186 = SURFACE_SIDE_STYLE( '', ( #264 ) );
#187 = EDGE_LOOP( '', ( #265 ) );
#188 = EDGE_LOOP( '', ( #266 ) );
#189 = AXIS2_PLACEMENT_3D( '', #267, #268, #269 );
#190 = SURFACE_SIDE_STYLE( '', ( #270 ) );
#191 = EDGE_LOOP( '', ( #271 ) );
#192 = EDGE_LOOP( '', ( #272 ) );
#193 = AXIS2_PLACEMENT_3D( '', #273, #274, #275 );
#194 = SURFACE_SIDE_STYLE( '', ( #276 ) );
#195 = EDGE_LOOP( '', ( #277 ) );
#196 = EDGE_LOOP( '', ( #278 ) );
#197 = AXIS2_PLACEMENT_3D( '', #279, #280, #281 );
#198 = SURFACE_SIDE_STYLE( '', ( #282 ) );
#199 = EDGE_LOOP( '', ( #283 ) );
#200 = EDGE_LOOP( '', ( #284 ) );
#201 = AXIS2_PLACEMENT_3D( '', #285, #286, #287 );
#202 = SURFACE_SIDE_STYLE( '', ( #288 ) );
#203 = EDGE_LOOP( '', ( #289 ) );
#204 = EDGE_LOOP( '', ( #290 ) );
#205 = AXIS2_PLACEMENT_3D( '', #291, #292, #293 );
#206 = SURFACE_SIDE_STYLE( '', ( #294 ) );
#207 = EDGE_LOOP( '', ( #295 ) );
#208 = EDGE_LOOP( '', ( #296 ) );
#209 = AXIS2_PLACEMENT_3D( '', #297, #298, #299 );
#211 = SURFACE_STYLE_FILL_AREA( #300 );
#212 = ORIENTED_EDGE( '', *, *, #301, .T. );
#213 = ORIENTED_EDGE( '', *, *, #302, .F. );
#214 = CARTESIAN_POINT( '', ( 0.000000000000000, 0.000000000000000, 0.000000000000000 ) );
#215 = DIRECTION( '', ( -7.47916742657003E-17, 1.00000000000000, -0.000000000000000 ) );
#216 = DIRECTION( '', ( -1.00000000000000, -7.47916742657003E-17, 0.000000000000000 ) );
#217 = SURFACE_STYLE_FILL_AREA( #303 );
#218 = ORIENTED_EDGE( '', *, *, #304, .T. );
#219 = ORIENTED_EDGE( '', *, *, #301, .F. );
#220 = CARTESIAN_POINT( '', ( 4.44089209850063E-16, -5.93768242535150, 0.000000000000000 ) );
#221 = DIRECTION( '', ( -7.47916742657003E-17, 1.00000000000000, 0.000000000000000 ) );
#222 = DIRECTION( '', ( 1.00000000000000, 7.47916742657003E-17, 0.000000000000000 ) );
#223 = SURFACE_STYLE_FILL_AREA( #305 );
#224 = VERTEX_POINT( '', #306 );
#225 = ORIENTED_EDGE( '', *, *, #307, .F. );
#226 = CARTESIAN_POINT( '', ( 3.36562534195651E-16, -4.50000000000000, 0.000000000000000 ) );
#227 = DIRECTION( '', ( -7.47916742657003E-17, 1.00000000000000, -0.000000000000000 ) );
#228 = DIRECTION( '', ( -1.00000000000000, -7.47916742657003E-17, 0.000000000000000 ) );
#229 = SURFACE_STYLE_FILL_AREA( #308 );
#230 = ORIENTED_EDGE( '', *, *, #309, .T. );
#231 = ORIENTED_EDGE( '', *, *, #304, .F. );
#232 = CARTESIAN_POINT( '', ( 4.48750045594199E-17, -0.599999999999997, 0.000000000000000 ) );
#233 = DIRECTION( '', ( 7.47916742657003E-17, -1.00000000000000, -0.000000000000000 ) );
#234 = DIRECTION( '', ( 1.00000000000000, 7.47916742657003E-17, 0.000000000000000 ) );
#235 = SURFACE_STYLE_FILL_AREA( #310 );
#236 = ORIENTED_EDGE( '', *, *, #311, .F. );
#237 = ORIENTED_EDGE( '', *, *, #302, .T. );
#238 = CARTESIAN_POINT( '', ( 0.000000000000000, 0.000000000000000, 0.000000000000000 ) );
#239 = DIRECTION( '', ( 0.000000000000000, -1.00000000000000, -0.000000000000000 ) );
#240 = DIRECTION( '', ( 0.000000000000000, 0.000000000000000, -1.00000000000000 ) );
#241 = SURFACE_STYLE_FILL_AREA( #312 );
#242 = ORIENTED_EDGE( '', *, *, #313, .F. );
#243 = ORIENTED_EDGE( '', *, *, #311, .T. );
#244 = CARTESIAN_POINT( '', ( 0.000000000000000, 0.000000000000000, 0.000000000000000 ) );
#245 = DIRECTION( '', ( -0.000000000000000, -1.00000000000000, -0.000000000000000 ) );
#246 = DIRECTION( '', ( 0.000000000000000, 0.000000000000000, -1.00000000000000 ) );
#247 = SURFACE_STYLE_FILL_AREA( #314 );
#248 = ORIENTED_EDGE( '', *, *, #315, .T. );
#249 = CARTESIAN_POINT( '', ( 4.00000000000000, -10.5000000000000, 0.000000000000000 ) );
#250 = DIRECTION( '', ( 0.000000000000000, 1.00000000000000, 0.000000000000000 ) );
#251 = DIRECTION( '', ( 0.000000000000000, -0.000000000000000, 1.00000000000000 ) );
#252 = SURFACE_STYLE_FILL_AREA( #316 );
#253 = ORIENTED_EDGE( '', *, *, #317, .F. );
#254 = ORIENTED_EDGE( '', *, *, #318, .T. );
#255 = CARTESIAN_POINT( '', ( 10.1464466094067, -11.0000000000000, 0.000000000000000 ) );
#256 = DIRECTION( '', ( 0.000000000000000, 1.00000000000000, 0.000000000000000 ) );
#257 = DIRECTION( '', ( 0.000000000000000, -0.000000000000000, 1.00000000000000 ) );
#258 = SURFACE_STYLE_FILL_AREA( #319 );
#259 = ORIENTED_EDGE( '', *, *, #318, .F. );
#260 = ORIENTED_EDGE( '', *, *, #320, .T. );
#261 = CARTESIAN_POINT( '', ( 0.000000000000000, -10.6464466094067, 0.000000000000000 ) );
#262 = DIRECTION( '', ( -0.000000000000000, 1.00000000000000, 0.000000000000000 ) );
#263 = DIRECTION( '', ( 0.000000000000000, -0.000000000000000, 1.00000000000000 ) );
#264 = SURFACE_STYLE_FILL_AREA( #321 );
#265 = ORIENTED_EDGE( '', *, *, #322, .T. );
#266 = ORIENTED_EDGE( '', *, *, #309, .F. );
#267 = CARTESIAN_POINT( '', ( 4.44089209850063E-16, -5.93768242535150, 0.000000000000000 ) );
#268 = DIRECTION( '', ( -7.47916742657003E-17, 1.00000000000000, 0.000000000000000 ) );
#269 = DIRECTION( '', ( 1.00000000000000, 7.47916742657003E-17, 0.000000000000000 ) );
#270 = SURFACE_STYLE_FILL_AREA( #323 );
#271 = ORIENTED_EDGE( '', *, *, #320, .F. );
#272 = ORIENTED_EDGE( '', *, *, #324, .T. );
#273 = CARTESIAN_POINT( '', ( 0.000000000000000, -10.5000000000000, 0.000000000000000 ) );
#274 = DIRECTION( '', ( -0.000000000000000, 1.00000000000000, 0.000000000000000 ) );
#275 = DIRECTION( '', ( 0.000000000000000, 0.000000000000000, -1.00000000000000 ) );
#276 = SURFACE_STYLE_FILL_AREA( #325 );
#277 = ORIENTED_EDGE( '', *, *, #307, .T. );
#278 = ORIENTED_EDGE( '', *, *, #322, .F. );
#279 = CARTESIAN_POINT( '', ( 4.15000000000000, -4.50000000000000, 0.000000000000000 ) );
#280 = DIRECTION( '', ( -7.47916742657003E-17, 1.00000000000000, 0.000000000000000 ) );
#281 = DIRECTION( '', ( -1.00000000000000, -7.47916742657003E-17, 0.000000000000000 ) );
#282 = SURFACE_STYLE_FILL_AREA( #326 );
#283 = ORIENTED_EDGE( '', *, *, #315, .F. );
#284 = ORIENTED_EDGE( '', *, *, #317, .T. );
#285 = CARTESIAN_POINT( '', ( 0.000000000000000, -10.5000000000000, 0.000000000000000 ) );
#286 = DIRECTION( '', ( -0.000000000000000, 1.00000000000000, 0.000000000000000 ) );
#287 = DIRECTION( '', ( 0.000000000000000, 0.000000000000000, -1.00000000000000 ) );
#288 = SURFACE_STYLE_FILL_AREA( #327 );
#289 = ORIENTED_EDGE( '', *, *, #324, .F. );
#290 = ORIENTED_EDGE( '', *, *, #328, .T. );
#291 = CARTESIAN_POINT( '', ( 0.000000000000000, -5.70000000000001, 0.000000000000000 ) );
#292 = DIRECTION( '', ( -0.000000000000000, -1.00000000000000, -0.000000000000000 ) );
#293 = DIRECTION( '', ( 0.000000000000000, 0.000000000000000, -1.00000000000000 ) );
#294 = SURFACE_STYLE_FILL_AREA( #329 );
#295 = ORIENTED_EDGE( '', *, *, #328, .F. );
#296 = ORIENTED_EDGE( '', *, *, #313, .T. );
#297 = CARTESIAN_POINT( '', ( 0.000000000000000, -10.5000000000000, 0.000000000000000 ) );
#298 = DIRECTION( '', ( -0.000000000000000, 1.00000000000000, 0.000000000000000 ) );
#299 = DIRECTION( '', ( 0.000000000000000, 0.000000000000000, -1.00000000000000 ) );
#300 = FILL_AREA_STYLE( '', ( #330 ) );
#301 = EDGE_CURVE( '', #331, #331, #332, .T. );
#302 = EDGE_CURVE( '', #333, #333, #334, .T. );
#303 = FILL_AREA_STYLE( '', ( #335 ) );
#304 = EDGE_CURVE( '', #336, #336, #337, .T. );
#305 = FILL_AREA_STYLE( '', ( #338 ) );
#306 = CARTESIAN_POINT( '', ( 8.67361737988404E-16, -5.93768242535150, 0.000000000000000 ) );
#307 = EDGE_CURVE( '', #339, #339, #340, .T. );
#308 = FILL_AREA_STYLE( '', ( #341 ) );
#309 = EDGE_CURVE( '', #342, #342, #343, .T. );
#310 = FILL_AREA_STYLE( '', ( #344 ) );
#311 = EDGE_CURVE( '', #345, #345, #346, .T. );
#312 = FILL_AREA_STYLE( '', ( #347 ) );
#313 = EDGE_CURVE( '', #348, #348, #349, .T. );
#314 = FILL_AREA_STYLE( '', ( #350 ) );
#315 = EDGE_CURVE( '', #351, #351, #352, .T. );
#316 = FILL_AREA_STYLE( '', ( #353 ) );
#317 = EDGE_CURVE( '', #354, #354, #355, .T. );
#318 = EDGE_CURVE( '', #356, #356, #357, .T. );
#319 = FILL_AREA_STYLE( '', ( #358 ) );
#320 = EDGE_CURVE( '', #359, #359, #360, .T. );
#321 = FILL_AREA_STYLE( '', ( #361 ) );
#322 = EDGE_CURVE( '', #362, #362, #363, .T. );
#323 = FILL_AREA_STYLE( '', ( #364 ) );
#324 = EDGE_CURVE( '', #365, #365, #366, .T. );
#325 = FILL_AREA_STYLE( '', ( #367 ) );
#326 = FILL_AREA_STYLE( '', ( #368 ) );
#327 = FILL_AREA_STYLE( '', ( #369 ) );
#328 = EDGE_CURVE( '', #370, #370, #371, .T. );
#329 = FILL_AREA_STYLE( '', ( #372 ) );
#330 = FILL_AREA_STYLE_COLOUR( '', #373 );
#331 = VERTEX_POINT( '', #374 );
#332 = CIRCLE( '', #375, 3.95000000000000 );
#333 = VERTEX_POINT( '', #376 );
#334 = CIRCLE( '', #377, 4.25000000000000 );
#335 = FILL_AREA_STYLE_COLOUR( '', #378 );
#336 = VERTEX_POINT( '', #379 );
#337 = CIRCLE( '', #380, 3.95000000000000 );
#338 = FILL_AREA_STYLE_COLOUR( '', #381 );
#339 = VERTEX_POINT( '', #382 );
#340 = CIRCLE( '', #383, 3.95000000000000 );
#341 = FILL_AREA_STYLE_COLOUR( '', #384 );
#342 = VERTEX_POINT( '', #385 );
#343 = CIRCLE( '', #386, 4.15000000000000 );
#344 = FILL_AREA_STYLE_COLOUR( '', #387 );
#345 = VERTEX_POINT( '', #388 );
#346 = CIRCLE( '', #389, 7.14644660940000 );
#347 = FILL_AREA_STYLE_COLOUR( '', #390 );
#348 = VERTEX_POINT( '', #391 );
#349 = CIRCLE( '', #392, 7.50000000000000 );
#350 = FILL_AREA_STYLE_COLOUR( '', #393 );
#351 = VERTEX_POINT( '', #394 );
#352 = CIRCLE( '', #395, 4.00000000000000 );
#353 = FILL_AREA_STYLE_COLOUR( '', #396 );
#354 = VERTEX_POINT( '', #397 );
#355 = CIRCLE( '', #398, 4.00000000000000 );
#356 = VERTEX_POINT( '', #399 );
#357 = CIRCLE( '', #400, 10.1464466094000 );
#358 = FILL_AREA_STYLE_COLOUR( '', #401 );
#359 = VERTEX_POINT( '', #402 );
#360 = CIRCLE( '', #403, 10.5000000000000 );
#361 = FILL_AREA_STYLE_COLOUR( '', #404 );
#362 = VERTEX_POINT( '', #405 );
#363 = CIRCLE( '', #406, 4.15000000000000 );
#364 = FILL_AREA_STYLE_COLOUR( '', #407 );
#365 = VERTEX_POINT( '', #408 );
#366 = CIRCLE( '', #409, 10.5000000000000 );
#367 = FILL_AREA_STYLE_COLOUR( '', #410 );
#368 = FILL_AREA_STYLE_COLOUR( '', #411 );
#369 = FILL_AREA_STYLE_COLOUR( '', #412 );
#370 = VERTEX_POINT( '', #413 );
#371 = CIRCLE( '', #414, 7.50000000000000 );
#372 = FILL_AREA_STYLE_COLOUR( '', #415 );
#373 = COLOUR_RGB( '', 0.689999997600000, 0.689999997600000, 0.689999997600000 );
#374 = CARTESIAN_POINT( '', ( 3.95000000000000, -0.300000000000000, 0.000000000000000 ) );
#375 = AXIS2_PLACEMENT_3D( '', #416, #417, #418 );
#376 = CARTESIAN_POINT( '', ( 4.25000000000000, 3.17864615629226E-16, 0.000000000000000 ) );
#377 = AXIS2_PLACEMENT_3D( '', #419, #420, #421 );
#378 = COLOUR_RGB( '', 0.689999997600000, 0.689999997600000, 0.689999997600000 );
#379 = CARTESIAN_POINT( '', ( 3.95000000000000, -0.599999999999997, 0.000000000000000 ) );
#380 = AXIS2_PLACEMENT_3D( '', #422, #423, #424 );
#381 = COLOUR_RGB( '', 0.689999997600000, 0.689999997600000, 0.689999997600000 );
#382 = CARTESIAN_POINT( '', ( 3.95000000000000, -4.50000000000000, 0.000000000000000 ) );
#383 = AXIS2_PLACEMENT_3D( '', #425, #426, #427 );
#384 = COLOUR_RGB( '', 0.689999997600000, 0.689999997600000, 0.689999997600000 );
#385 = CARTESIAN_POINT( '', ( 4.15000000000000, -0.799999999999997, 0.000000000000000 ) );
#386 = AXIS2_PLACEMENT_3D( '', #428, #429, #430 );
#387 = COLOUR_RGB( '', 0.689999997600000, 0.689999997600000, 0.689999997600000 );
#388 = CARTESIAN_POINT( '', ( 0.000000000000000, 0.000000000000000, -7.14644660940672 ) );
#389 = AXIS2_PLACEMENT_3D( '', #431, #432, #433 );
#390 = COLOUR_RGB( '', 0.689999997600000, 0.689999997600000, 0.689999997600000 );
#391 = CARTESIAN_POINT( '', ( 0.000000000000000, -0.353553390593274, -7.49999999999999 ) );
#392 = AXIS2_PLACEMENT_3D( '', #434, #435, #436 );
#393 = COLOUR_RGB( '', 0.689999997600000, 0.689999997600000, 0.689999997600000 );
#394 = CARTESIAN_POINT( '', ( 0.000000000000000, -10.5000000000000, -4.00000000000000 ) );
#395 = AXIS2_PLACEMENT_3D( '', #437, #438, #439 );
#396 = COLOUR_RGB( '', 0.689999997600000, 0.689999997600000, 0.689999997600000 );
#397 = CARTESIAN_POINT( '', ( 0.000000000000000, -11.0000000000000, -4.00000000000000 ) );
#398 = AXIS2_PLACEMENT_3D( '', #440, #441, #442 );
#399 = CARTESIAN_POINT( '', ( 0.000000000000000, -11.0000000000000, -10.1464466094067 ) );
#400 = AXIS2_PLACEMENT_3D( '', #443, #444, #445 );
#401 = COLOUR_RGB( '', 0.689999997600000, 0.689999997600000, 0.689999997600000 );
#402 = CARTESIAN_POINT( '', ( 0.000000000000000, -10.6464466094067, -10.5000000000000 ) );
#403 = AXIS2_PLACEMENT_3D( '', #446, #447, #448 );
#404 = COLOUR_RGB( '', 0.689999997600000, 0.689999997600000, 0.689999997600000 );
#405 = CARTESIAN_POINT( '', ( 4.15000000000000, -4.50000000000000, 0.000000000000000 ) );
#406 = AXIS2_PLACEMENT_3D( '', #449, #450, #451 );
#407 = COLOUR_RGB( '', 0.689999997600000, 0.689999997600000, 0.689999997600000 );
#408 = CARTESIAN_POINT( '', ( 0.000000000000000, -7.00000000000000, -10.5000000000000 ) );
#409 = AXIS2_PLACEMENT_3D( '', #452, #453, #454 );
#410 = COLOUR_RGB( '', 0.689999997600000, 0.689999997600000, 0.689999997600000 );
#411 = COLOUR_RGB( '', 0.689999997600000, 0.689999997600000, 0.689999997600000 );
#412 = COLOUR_RGB( '', 0.689999997600000, 0.689999997600000, 0.689999997600000 );
#413 = CARTESIAN_POINT( '', ( 0.000000000000000, -5.70000000000001, -7.49999999999999 ) );
#414 = AXIS2_PLACEMENT_3D( '', #455, #456, #457 );
#415 = COLOUR_RGB( '', 0.689999997600000, 0.689999997600000, 0.689999997600000 );
#416 = CARTESIAN_POINT( '', ( 2.24375022797100E-17, -0.300000000000000, 0.000000000000000 ) );
#417 = DIRECTION( '', ( 7.47916742657003E-17, -1.00000000000000, -0.000000000000000 ) );
#418 = DIRECTION( '', ( 1.00000000000000, 7.47916742657003E-17, 0.000000000000000 ) );
#419 = CARTESIAN_POINT( '', ( 0.000000000000000, 0.000000000000000, 0.000000000000000 ) );
#420 = DIRECTION( '', ( 7.47916742657003E-17, -1.00000000000000, -0.000000000000000 ) );
#421 = DIRECTION( '', ( 1.00000000000000, 7.47916742657003E-17, 0.000000000000000 ) );
#422 = CARTESIAN_POINT( '', ( 4.48750045594199E-17, -0.599999999999997, 0.000000000000000 ) );
#423 = DIRECTION( '', ( 7.47916742657003E-17, -1.00000000000000, -0.000000000000000 ) );
#424 = DIRECTION( '', ( 1.00000000000000, 7.47916742657003E-17, 0.000000000000000 ) );
#425 = CARTESIAN_POINT( '', ( 3.36562534195651E-16, -4.50000000000000, 0.000000000000000 ) );
#426 = DIRECTION( '', ( 7.47916742657003E-17, -1.00000000000000, -0.000000000000000 ) );
#427 = DIRECTION( '', ( 1.00000000000000, 7.47916742657003E-17, 0.000000000000000 ) );
#428 = CARTESIAN_POINT( '', ( 5.98333394125600E-17, -0.799999999999997, 0.000000000000000 ) );
#429 = DIRECTION( '', ( 7.47916742657003E-17, -1.00000000000000, -0.000000000000000 ) );
#430 = DIRECTION( '', ( 1.00000000000000, 7.47916742657003E-17, 0.000000000000000 ) );
#431 = CARTESIAN_POINT( '', ( 0.000000000000000, 0.000000000000000, 0.000000000000000 ) );
#432 = DIRECTION( '', ( 0.000000000000000, -1.00000000000000, -0.000000000000000 ) );
#433 = DIRECTION( '', ( 0.000000000000000, 0.000000000000000, -1.00000000000000 ) );
#434 = CARTESIAN_POINT( '', ( 0.000000000000000, -0.353553390593274, 0.000000000000000 ) );
#435 = DIRECTION( '', ( 0.000000000000000, -1.00000000000000, -0.000000000000000 ) );
#436 = DIRECTION( '', ( 0.000000000000000, 0.000000000000000, -1.00000000000000 ) );
#437 = CARTESIAN_POINT( '', ( 0.000000000000000, -10.5000000000000, 0.000000000000000 ) );
#438 = DIRECTION( '', ( 0.000000000000000, -1.00000000000000, -0.000000000000000 ) );
#439 = DIRECTION( '', ( 0.000000000000000, 0.000000000000000, -1.00000000000000 ) );
#440 = CARTESIAN_POINT( '', ( 0.000000000000000, -11.0000000000000, 0.000000000000000 ) );
#441 = DIRECTION( '', ( 0.000000000000000, -1.00000000000000, -0.000000000000000 ) );
#442 = DIRECTION( '', ( 0.000000000000000, 0.000000000000000, -1.00000000000000 ) );
#443 = CARTESIAN_POINT( '', ( 0.000000000000000, -11.0000000000000, 0.000000000000000 ) );
#444 = DIRECTION( '', ( 0.000000000000000, -1.00000000000000, -0.000000000000000 ) );
#445 = DIRECTION( '', ( 0.000000000000000, 0.000000000000000, -1.00000000000000 ) );
#446 = CARTESIAN_POINT( '', ( 0.000000000000000, -10.6464466094067, 0.000000000000000 ) );
#447 = DIRECTION( '', ( 0.000000000000000, -1.00000000000000, -0.000000000000000 ) );
#448 = DIRECTION( '', ( 0.000000000000000, 0.000000000000000, -1.00000000000000 ) );
#449 = CARTESIAN_POINT( '', ( 3.36562534195651E-16, -4.50000000000000, 0.000000000000000 ) );
#450 = DIRECTION( '', ( 7.47916742657003E-17, -1.00000000000000, -0.000000000000000 ) );
#451 = DIRECTION( '', ( 1.00000000000000, 7.47916742657003E-17, 0.000000000000000 ) );
#452 = CARTESIAN_POINT( '', ( 0.000000000000000, -7.00000000000000, 0.000000000000000 ) );
#453 = DIRECTION( '', ( 0.000000000000000, -1.00000000000000, -0.000000000000000 ) );
#454 = DIRECTION( '', ( 0.000000000000000, 0.000000000000000, -1.00000000000000 ) );
#455 = CARTESIAN_POINT( '', ( 0.000000000000000, -5.70000000000001, 0.000000000000000 ) );
#456 = DIRECTION( '', ( 0.000000000000000, -1.00000000000000, -0.000000000000000 ) );
#457 = DIRECTION( '', ( 0.000000000000000, 0.000000000000000, -1.00000000000000 ) );
ENDSEC;
END-ISO-10303-21;
