ISO-10303-21;
HEADER;
FILE_DESCRIPTION( ( 'STEP AP214' ), '1' );
FILE_NAME( '//goodhand-server/Shared Folders/GoodHand Data/Kipp CAD/K0170/K0170.1310011.stp', '2020-11-26T10:50:47', ( '' ), ( '' ), ' ', 'PARTsolutions', ' ' );
FILE_SCHEMA( ( 'AUTOMOTIVE_DESIGN { 1 0 10303 214 1 1 1 1 }' ) );
ENDSEC;
DATA;
#1 = MECHANICAL_DESIGN_GEOMETRIC_PRESENTATION_REPRESENTATION( ' ', ( #10, #11, #12, #13, #14, #15, #16, #17, #18, #19, #20, #21, #22 ), #6 );
#2 = PRODUCT_DEFINITION_CONTEXT( '', #23, 'design' );
#3 = APPLICATION_PROTOCOL_DEFINITION( 'international standard', 'automotive_design', 2001, #23 );
#4 = PRODUCT_CATEGORY_RELATIONSHIP( 'NONE', 'NONE', #24, #25 );
#5 = SHAPE_DEFINITION_REPRESENTATION( #26, #27 );
#6 =  ( GEOMETRIC_REPRESENTATION_CONTEXT( 3 )GLOBAL_UNCERTAINTY_ASSIGNED_CONTEXT( ( #30 ) )GLOBAL_UNIT_ASSIGNED_CONTEXT( ( #32, #33, #34 ) )REPRESENTATION_CONTEXT( 'NONE', 'WORKSPACE' ) );
#10 = STYLED_ITEM( '', ( #36 ), #37 );
#11 = STYLED_ITEM( '', ( #38 ), #39 );
#12 = STYLED_ITEM( '', ( #40 ), #41 );
#13 = STYLED_ITEM( '', ( #42 ), #43 );
#14 = STYLED_ITEM( '', ( #44 ), #45 );
#15 = STYLED_ITEM( '', ( #46 ), #47 );
#16 = STYLED_ITEM( '', ( #48 ), #49 );
#17 = STYLED_ITEM( '', ( #50 ), #51 );
#18 = STYLED_ITEM( '', ( #52 ), #53 );
#19 = STYLED_ITEM( '', ( #54 ), #55 );
#20 = STYLED_ITEM( '', ( #56 ), #57 );
#21 = STYLED_ITEM( '', ( #58 ), #59 );
#22 = STYLED_ITEM( '', ( #60 ), #61 );
#23 = APPLICATION_CONTEXT( 'core data for automotive mechanical design processes' );
#24 = PRODUCT_CATEGORY( 'part', 'NONE' );
#25 = PRODUCT_RELATED_PRODUCT_CATEGORY( 'detail', ' ', ( #62 ) );
#26 = PRODUCT_DEFINITION_SHAPE( 'NONE', 'NONE', #63 );
#27 = ADVANCED_BREP_SHAPE_REPRESENTATION( '_K0170.1310011', ( #64, #65 ), #6 );
#30 = UNCERTAINTY_MEASURE_WITH_UNIT( LENGTH_MEASURE( 0.00100000000000000 ), #32, '', '' );
#32 =  ( CONVERSION_BASED_UNIT( 'MILLIMETRE', #68 )LENGTH_UNIT(  )NAMED_UNIT( #71 ) );
#33 =  ( NAMED_UNIT( #73 )PLANE_ANGLE_UNIT(  )SI_UNIT( $, .RADIAN. ) );
#34 =  ( NAMED_UNIT( #73 )SI_UNIT( $, .STERADIAN. )SOLID_ANGLE_UNIT(  ) );
#36 = PRESENTATION_STYLE_ASSIGNMENT( ( #79 ) );
#37 = ADVANCED_FACE( '', ( #80 ), #81, .T. );
#38 = PRESENTATION_STYLE_ASSIGNMENT( ( #82 ) );
#39 = ADVANCED_FACE( '', ( #83, #84 ), #85, .F. );
#40 = PRESENTATION_STYLE_ASSIGNMENT( ( #86 ) );
#41 = ADVANCED_FACE( '', ( #87 ), #88, .F. );
#42 = PRESENTATION_STYLE_ASSIGNMENT( ( #89 ) );
#43 = ADVANCED_FACE( '', ( #90, #91 ), #92, .T. );
#44 = PRESENTATION_STYLE_ASSIGNMENT( ( #93 ) );
#45 = ADVANCED_FACE( '', ( #94, #95 ), #96, .T. );
#46 = PRESENTATION_STYLE_ASSIGNMENT( ( #97 ) );
#47 = ADVANCED_FACE( '', ( #98 ), #99, .F. );
#48 = PRESENTATION_STYLE_ASSIGNMENT( ( #100 ) );
#49 = ADVANCED_FACE( '', ( #101, #102 ), #103, .T. );
#50 = PRESENTATION_STYLE_ASSIGNMENT( ( #104 ) );
#51 = ADVANCED_FACE( '', ( #105 ), #106, .F. );
#52 = PRESENTATION_STYLE_ASSIGNMENT( ( #107 ) );
#53 = ADVANCED_FACE( '', ( #108, #109 ), #110, .T. );
#54 = PRESENTATION_STYLE_ASSIGNMENT( ( #111 ) );
#55 = ADVANCED_FACE( '', ( #112, #113 ), #114, .T. );
#56 = PRESENTATION_STYLE_ASSIGNMENT( ( #115 ) );
#57 = ADVANCED_FACE( '', ( #116, #117 ), #118, .T. );
#58 = PRESENTATION_STYLE_ASSIGNMENT( ( #119 ) );
#59 = ADVANCED_FACE( '', ( #120 ), #121, .T. );
#60 = PRESENTATION_STYLE_ASSIGNMENT( ( #122 ) );
#61 = ADVANCED_FACE( '', ( #123, #124 ), #125, .T. );
#62 = PRODUCT( '_K0170.1310011', '_K0170.1310011', 'PART-_K0170.1310011-DESC', ( #126 ) );
#63 = PRODUCT_DEFINITION( 'NONE', 'NONE', #127, #2 );
#64 = MANIFOLD_SOLID_BREP( '_K0170.1310011', #128 );
#65 = AXIS2_PLACEMENT_3D( '', #129, #130, #131 );
#68 = LENGTH_MEASURE_WITH_UNIT( LENGTH_MEASURE( 1.00000000000000 ), #132 );
#71 = DIMENSIONAL_EXPONENTS( 1.00000000000000, 0.000000000000000, 0.000000000000000, 0.000000000000000, 0.000000000000000, 0.000000000000000, 0.000000000000000 );
#73 = DIMENSIONAL_EXPONENTS( 0.000000000000000, 0.000000000000000, 0.000000000000000, 0.000000000000000, 0.000000000000000, 0.000000000000000, 0.000000000000000 );
#79 = SURFACE_STYLE_USAGE( .BOTH., #133 );
#80 = FACE_OUTER_BOUND( '', #134, .T. );
#81 = PLANE( '', #135 );
#82 = SURFACE_STYLE_USAGE( .BOTH., #136 );
#83 = FACE_OUTER_BOUND( '', #137, .T. );
#84 = FACE_BOUND( '', #138, .T. );
#85 = PLANE( '', #139 );
#86 = SURFACE_STYLE_USAGE( .BOTH., #140 );
#87 = FACE_OUTER_BOUND( '', #141, .T. );
#88 = PLANE( '', #142 );
#89 = SURFACE_STYLE_USAGE( .BOTH., #143 );
#90 = FACE_OUTER_BOUND( '', #144, .T. );
#91 = FACE_OUTER_BOUND( '', #145, .T. );
#92 = CYLINDRICAL_SURFACE( '', #146, 14.0000000000000 );
#93 = SURFACE_STYLE_USAGE( .BOTH., #147 );
#94 = FACE_OUTER_BOUND( '', #148, .T. );
#95 = FACE_BOUND( '', #149, .T. );
#96 = ( BOUNDED_SURFACE(  )B_SPLINE_SURFACE( 3, 3, ( ( #152, #153, #154, #155, #156, #157, #158 ), ( #159, #160, #161, #162, #163, #164, #165 ), ( #166, #167, #168, #169, #170, #171, #172 ), ( #173, #174, #175, #176, #177, #178, #179 ) ), .UNSPECIFIED., .F., .T., .F. )B_SPLINE_SURFACE_WITH_KNOTS( ( 4, 4 ), ( 4, 3, 4 ), ( 0.000000000000000, 6.28318530717959 ), ( 1.31447715652061, 1.46666161024563, 1.61884606397066 ), .UNSPECIFIED. )GEOMETRIC_REPRESENTATION_ITEM(  )RATIONAL_B_SPLINE_SURFACE( ( ( 1.00000000000000, 0.333333333333333, 0.333333333333333, 1.00000000000000, 0.333333333333333, 0.333333333333333, 1.00000000000000 ), ( 0.992294852255812, 0.330764950751937, 0.330764950751937, 0.992294852255812, 0.330764950751937, 0.330764950751937, 0.992294852255812 ), ( 0.992294852255812, 0.330764950751937, 0.330764950751937, 0.992294852255812, 0.330764950751937, 0.330764950751937, 0.992294852255812 ), ( 1.00000000000000, 0.333333333333333, 0.333333333333333, 1.00000000000000, 0.333333333333333, 0.333333333333333, 1.00000000000000 ) ) )REPRESENTATION_ITEM( '' )SURFACE(  ) );
#97 = SURFACE_STYLE_USAGE( .BOTH., #185 );
#98 = FACE_OUTER_BOUND( '', #186, .T. );
#99 = PLANE( '', #187 );
#100 = SURFACE_STYLE_USAGE( .BOTH., #188 );
#101 = FACE_OUTER_BOUND( '', #189, .T. );
#102 = FACE_OUTER_BOUND( '', #190, .T. );
#103 = CYLINDRICAL_SURFACE( '', #191, 10.5000000000000 );
#104 = SURFACE_STYLE_USAGE( .BOTH., #192 );
#105 = FACE_OUTER_BOUND( '', #193, .T. );
#106 = PLANE( '', #194 );
#107 = SURFACE_STYLE_USAGE( .BOTH., #195 );
#108 = FACE_OUTER_BOUND( '', #196, .T. );
#109 = FACE_BOUND( '', #197, .T. );
#110 = CONICAL_SURFACE( '', #198, 4.08000000000000, 0.785398163400000 );
#111 = SURFACE_STYLE_USAGE( .BOTH., #199 );
#112 = FACE_OUTER_BOUND( '', #200, .T. );
#113 = FACE_OUTER_BOUND( '', #201, .T. );
#114 = CYLINDRICAL_SURFACE( '', #202, 5.00000000000000 );
#115 = SURFACE_STYLE_USAGE( .BOTH., #203 );
#116 = FACE_OUTER_BOUND( '', #204, .T. );
#117 = FACE_BOUND( '', #205, .T. );
#118 = CONICAL_SURFACE( '', #206, 10.5000000000000, 0.0971858990000000 );
#119 = SURFACE_STYLE_USAGE( .BOTH., #207 );
#120 = FACE_OUTER_BOUND( '', #208, .T. );
#121 = PLANE( '', #209 );
#122 = SURFACE_STYLE_USAGE( .BOTH., #210 );
#123 = FACE_OUTER_BOUND( '', #211, .T. );
#124 = FACE_OUTER_BOUND( '', #212, .T. );
#125 = TOROIDAL_SURFACE( '', #213, 11.0000000000000, 3.00000000000000 );
#126 = PRODUCT_CONTEXT( '', #23, 'mechanical' );
#127 = PRODUCT_DEFINITION_FORMATION_WITH_SPECIFIED_SOURCE( ' ', 'NONE', #62, .NOT_KNOWN. );
#128 = CLOSED_SHELL( '', ( #51, #37, #59, #39, #49, #55, #53, #41, #57, #43, #61, #45, #47 ) );
#129 = CARTESIAN_POINT( '', ( 0.000000000000000, 0.000000000000000, 0.000000000000000 ) );
#130 = DIRECTION( '', ( 0.000000000000000, 0.000000000000000, 1.00000000000000 ) );
#131 = DIRECTION( '', ( 1.00000000000000, 0.000000000000000, 0.000000000000000 ) );
#132 =  ( LENGTH_UNIT(  )NAMED_UNIT( #71 )SI_UNIT( .MILLI., .METRE. ) );
#133 = SURFACE_SIDE_STYLE( '', ( #215 ) );
#134 = EDGE_LOOP( '', ( #216, #217, #218, #219 ) );
#135 = AXIS2_PLACEMENT_3D( '', #220, #221, #222 );
#136 = SURFACE_SIDE_STYLE( '', ( #223 ) );
#137 = EDGE_LOOP( '', ( #224, #225, #226, #227 ) );
#138 = EDGE_LOOP( '', ( #228 ) );
#139 = AXIS2_PLACEMENT_3D( '', #229, #230, #231 );
#140 = SURFACE_SIDE_STYLE( '', ( #232 ) );
#141 = EDGE_LOOP( '', ( #233 ) );
#142 = AXIS2_PLACEMENT_3D( '', #234, #235, #236 );
#143 = SURFACE_SIDE_STYLE( '', ( #237 ) );
#144 = EDGE_LOOP( '', ( #238 ) );
#145 = EDGE_LOOP( '', ( #239 ) );
#146 = AXIS2_PLACEMENT_3D( '', #240, #241, #242 );
#147 = SURFACE_SIDE_STYLE( '', ( #243 ) );
#148 = EDGE_LOOP( '', ( #244 ) );
#149 = VERTEX_LOOP( '', #245 );
#152 = CARTESIAN_POINT( '', ( 78.0000000000000, 0.000000000000000, -2.16840434497101E-16 ) );
#153 = CARTESIAN_POINT( '', ( 78.0000000000000, 4.33680868994202E-16, -2.16840434497101E-16 ) );
#154 = CARTESIAN_POINT( '', ( 78.0000000000000, 4.33680868994202E-16, 2.16840434497101E-16 ) );
#155 = CARTESIAN_POINT( '', ( 78.0000000000000, 0.000000000000000, 2.16840434497101E-16 ) );
#156 = CARTESIAN_POINT( '', ( 78.0000000000000, -4.33680868994202E-16, 2.16840434497101E-16 ) );
#157 = CARTESIAN_POINT( '', ( 78.0000000000000, -4.33680868994202E-16, -2.16840434497101E-16 ) );
#158 = CARTESIAN_POINT( '', ( 78.0000000000000, 0.000000000000000, -2.16840434497101E-16 ) );
#159 = CARTESIAN_POINT( '', ( 78.1907871442746, 0.000000000000000, -3.96756162544123 ) );
#160 = CARTESIAN_POINT( '', ( 78.1907871442746, 7.93512325088247, -3.96756162544123 ) );
#161 = CARTESIAN_POINT( '', ( 78.1907871442746, 7.93512325088247, 3.96756162544123 ) );
#162 = CARTESIAN_POINT( '', ( 78.1907871442746, 0.000000000000000, 3.96756162544123 ) );
#163 = CARTESIAN_POINT( '', ( 78.1907871442746, -7.93512325088247, 3.96756162544123 ) );
#164 = CARTESIAN_POINT( '', ( 78.1907871442746, -7.93512325088247, -3.96756162544123 ) );
#165 = CARTESIAN_POINT( '', ( 78.1907871442746, 0.000000000000000, -3.96756162544123 ) );
#166 = CARTESIAN_POINT( '', ( 77.7778960112939, 0.000000000000000, -7.91819017016677 ) );
#167 = CARTESIAN_POINT( '', ( 77.7778960112939, 15.8363803403335, -7.91819017016677 ) );
#168 = CARTESIAN_POINT( '', ( 77.7778960112939, 15.8363803403335, 7.91819017016677 ) );
#169 = CARTESIAN_POINT( '', ( 77.7778960112939, 0.000000000000000, 7.91819017016677 ) );
#170 = CARTESIAN_POINT( '', ( 77.7778960112939, -15.8363803403335, 7.91819017016677 ) );
#171 = CARTESIAN_POINT( '', ( 77.7778960112939, -15.8363803403335, -7.91819017016677 ) );
#172 = CARTESIAN_POINT( '', ( 77.7778960112939, 0.000000000000000, -7.91819017016677 ) );
#173 = CARTESIAN_POINT( '', ( 76.7708707626033, 0.000000000000000, -11.7605651043181 ) );
#174 = CARTESIAN_POINT( '', ( 76.7708707626033, 23.5211302086361, -11.7605651043181 ) );
#175 = CARTESIAN_POINT( '', ( 76.7708707626033, 23.5211302086361, 11.7605651043181 ) );
#176 = CARTESIAN_POINT( '', ( 76.7708707626033, 0.000000000000000, 11.7605651043181 ) );
#177 = CARTESIAN_POINT( '', ( 76.7708707626033, -23.5211302086361, 11.7605651043181 ) );
#178 = CARTESIAN_POINT( '', ( 76.7708707626033, -23.5211302086361, -11.7605651043181 ) );
#179 = CARTESIAN_POINT( '', ( 76.7708707626033, 0.000000000000000, -11.7605651043181 ) );
#185 = SURFACE_SIDE_STYLE( '', ( #246 ) );
#186 = EDGE_LOOP( '', ( #247, #248 ) );
#187 = AXIS2_PLACEMENT_3D( '', #249, #250, #251 );
#188 = SURFACE_SIDE_STYLE( '', ( #252 ) );
#189 = EDGE_LOOP( '', ( #253 ) );
#190 = EDGE_LOOP( '', ( #254, #255, #256, #257, #258, #259, #260, #261 ) );
#191 = AXIS2_PLACEMENT_3D( '', #262, #263, #264 );
#192 = SURFACE_SIDE_STYLE( '', ( #265 ) );
#193 = EDGE_LOOP( '', ( #266, #267 ) );
#194 = AXIS2_PLACEMENT_3D( '', #268, #269, #270 );
#195 = SURFACE_SIDE_STYLE( '', ( #271 ) );
#196 = EDGE_LOOP( '', ( #272 ) );
#197 = EDGE_LOOP( '', ( #273 ) );
#198 = AXIS2_PLACEMENT_3D( '', #274, #275, #276 );
#199 = SURFACE_SIDE_STYLE( '', ( #277 ) );
#200 = EDGE_LOOP( '', ( #278 ) );
#201 = EDGE_LOOP( '', ( #279 ) );
#202 = AXIS2_PLACEMENT_3D( '', #280, #281, #282 );
#203 = SURFACE_SIDE_STYLE( '', ( #283 ) );
#204 = EDGE_LOOP( '', ( #284 ) );
#205 = EDGE_LOOP( '', ( #285 ) );
#206 = AXIS2_PLACEMENT_3D( '', #286, #287, #288 );
#207 = SURFACE_SIDE_STYLE( '', ( #289 ) );
#208 = EDGE_LOOP( '', ( #290, #291, #292, #293 ) );
#209 = AXIS2_PLACEMENT_3D( '', #294, #295, #296 );
#210 = SURFACE_SIDE_STYLE( '', ( #297 ) );
#211 = EDGE_LOOP( '', ( #298 ) );
#212 = EDGE_LOOP( '', ( #299 ) );
#213 = AXIS2_PLACEMENT_3D( '', #300, #301, #302 );
#215 = SURFACE_STYLE_FILL_AREA( #303 );
#216 = ORIENTED_EDGE( '', *, *, #304, .T. );
#217 = ORIENTED_EDGE( '', *, *, #305, .T. );
#218 = ORIENTED_EDGE( '', *, *, #306, .T. );
#219 = ORIENTED_EDGE( '', *, *, #307, .T. );
#220 = CARTESIAN_POINT( '', ( 6.99000000000000, -9.50000000000000, -28.0000000000000 ) );
#221 = DIRECTION( '', ( 0.000000000000000, -1.00000000000000, 0.000000000000000 ) );
#222 = DIRECTION( '', ( 0.000000000000000, 0.000000000000000, -1.00000000000000 ) );
#223 = SURFACE_STYLE_FILL_AREA( #308 );
#224 = ORIENTED_EDGE( '', *, *, #309, .F. );
#225 = ORIENTED_EDGE( '', *, *, #310, .F. );
#226 = ORIENTED_EDGE( '', *, *, #307, .F. );
#227 = ORIENTED_EDGE( '', *, *, #311, .F. );
#228 = ORIENTED_EDGE( '', *, *, #312, .T. );
#229 = CARTESIAN_POINT( '', ( 0.000000000000000, 5.00000000000000, 0.000000000000000 ) );
#230 = DIRECTION( '', ( 1.00000000000000, 0.000000000000000, -0.000000000000000 ) );
#231 = DIRECTION( '', ( -0.000000000000000, 0.000000000000000, -1.00000000000000 ) );
#232 = SURFACE_STYLE_FILL_AREA( #313 );
#233 = ORIENTED_EDGE( '', *, *, #314, .F. );
#234 = CARTESIAN_POINT( '', ( -11.0000000000000, 0.000000000000000, 0.000000000000000 ) );
#235 = DIRECTION( '', ( 1.00000000000000, 0.000000000000000, -0.000000000000000 ) );
#236 = DIRECTION( '', ( -0.000000000000000, 0.000000000000000, -1.00000000000000 ) );
#237 = SURFACE_STYLE_FILL_AREA( #315 );
#238 = ORIENTED_EDGE( '', *, *, #316, .F. );
#239 = ORIENTED_EDGE( '', *, *, #317, .T. );
#240 = CARTESIAN_POINT( '', ( 78.0000000000000, 0.000000000000000, 0.000000000000000 ) );
#241 = DIRECTION( '', ( -1.00000000000000, -0.000000000000000, 0.000000000000000 ) );
#242 = DIRECTION( '', ( -0.000000000000000, 0.000000000000000, -1.00000000000000 ) );
#243 = SURFACE_STYLE_FILL_AREA( #318 );
#244 = ORIENTED_EDGE( '', *, *, #319, .T. );
#245 = VERTEX_POINT( '', #320 );
#246 = SURFACE_STYLE_FILL_AREA( #321 );
#247 = ORIENTED_EDGE( '', *, *, #305, .F. );
#248 = ORIENTED_EDGE( '', *, *, #322, .F. );
#249 = CARTESIAN_POINT( '', ( 6.99000000000000, 0.000000000000000, 0.000000000000000 ) );
#250 = DIRECTION( '', ( 1.00000000000000, 0.000000000000000, -0.000000000000000 ) );
#251 = DIRECTION( '', ( -0.000000000000000, 0.000000000000000, -1.00000000000000 ) );
#252 = SURFACE_STYLE_FILL_AREA( #323 );
#253 = ORIENTED_EDGE( '', *, *, #324, .F. );
#254 = ORIENTED_EDGE( '', *, *, #304, .F. );
#255 = ORIENTED_EDGE( '', *, *, #310, .T. );
#256 = ORIENTED_EDGE( '', *, *, #325, .F. );
#257 = ORIENTED_EDGE( '', *, *, #326, .T. );
#258 = ORIENTED_EDGE( '', *, *, #327, .F. );
#259 = ORIENTED_EDGE( '', *, *, #311, .T. );
#260 = ORIENTED_EDGE( '', *, *, #306, .F. );
#261 = ORIENTED_EDGE( '', *, *, #322, .T. );
#262 = CARTESIAN_POINT( '', ( 78.0000000000000, 0.000000000000000, 0.000000000000000 ) );
#263 = DIRECTION( '', ( -1.00000000000000, -0.000000000000000, 0.000000000000000 ) );
#264 = DIRECTION( '', ( -0.000000000000000, 0.000000000000000, -1.00000000000000 ) );
#265 = SURFACE_STYLE_FILL_AREA( #328 );
#266 = ORIENTED_EDGE( '', *, *, #329, .F. );
#267 = ORIENTED_EDGE( '', *, *, #326, .F. );
#268 = CARTESIAN_POINT( '', ( 6.99000000000000, 0.000000000000000, 0.000000000000000 ) );
#269 = DIRECTION( '', ( 1.00000000000000, 0.000000000000000, 0.000000000000000 ) );
#270 = DIRECTION( '', ( 0.000000000000000, 0.000000000000000, -1.00000000000000 ) );
#271 = SURFACE_STYLE_FILL_AREA( #330 );
#272 = ORIENTED_EDGE( '', *, *, #331, .F. );
#273 = ORIENTED_EDGE( '', *, *, #314, .T. );
#274 = CARTESIAN_POINT( '', ( -11.0000000000000, 0.000000000000000, 0.000000000000000 ) );
#275 = DIRECTION( '', ( 1.00000000000000, -0.000000000000000, -0.000000000000000 ) );
#276 = DIRECTION( '', ( -0.000000000000000, 0.000000000000000, -1.00000000000000 ) );
#277 = SURFACE_STYLE_FILL_AREA( #332 );
#278 = ORIENTED_EDGE( '', *, *, #312, .F. );
#279 = ORIENTED_EDGE( '', *, *, #331, .T. );
#280 = CARTESIAN_POINT( '', ( 78.0000000000000, 0.000000000000000, 0.000000000000000 ) );
#281 = DIRECTION( '', ( -1.00000000000000, -0.000000000000000, 0.000000000000000 ) );
#282 = DIRECTION( '', ( -0.000000000000000, 0.000000000000000, -1.00000000000000 ) );
#283 = SURFACE_STYLE_FILL_AREA( #333 );
#284 = ORIENTED_EDGE( '', *, *, #317, .F. );
#285 = ORIENTED_EDGE( '', *, *, #324, .T. );
#286 = CARTESIAN_POINT( '', ( 7.00000000000001, 0.000000000000000, 0.000000000000000 ) );
#287 = DIRECTION( '', ( 1.00000000000000, -0.000000000000000, -0.000000000000000 ) );
#288 = DIRECTION( '', ( -0.000000000000000, 0.000000000000000, -1.00000000000000 ) );
#289 = SURFACE_STYLE_FILL_AREA( #334 );
#290 = ORIENTED_EDGE( '', *, *, #327, .T. );
#291 = ORIENTED_EDGE( '', *, *, #329, .T. );
#292 = ORIENTED_EDGE( '', *, *, #325, .T. );
#293 = ORIENTED_EDGE( '', *, *, #309, .T. );
#294 = CARTESIAN_POINT( '', ( 6.99000000000000, 9.50000000000000, 28.0000000000000 ) );
#295 = DIRECTION( '', ( -0.000000000000000, 1.00000000000000, 0.000000000000000 ) );
#296 = DIRECTION( '', ( 0.000000000000000, -0.000000000000000, 1.00000000000000 ) );
#297 = SURFACE_STYLE_FILL_AREA( #335 );
#298 = ORIENTED_EDGE( '', *, *, #316, .T. );
#299 = ORIENTED_EDGE( '', *, *, #319, .F. );
#300 = CARTESIAN_POINT( '', ( 73.8688816650887, 0.000000000000000, 0.000000000000000 ) );
#301 = DIRECTION( '', ( 1.00000000000000, 0.000000000000000, -0.000000000000000 ) );
#302 = DIRECTION( '', ( -0.000000000000000, 0.000000000000000, -1.00000000000000 ) );
#303 = FILL_AREA_STYLE( '', ( #336 ) );
#304 = EDGE_CURVE( '', #337, #338, #339, .T. );
#305 = EDGE_CURVE( '', #338, #340, #341, .T. );
#306 = EDGE_CURVE( '', #340, #342, #343, .F. );
#307 = EDGE_CURVE( '', #342, #337, #344, .T. );
#308 = FILL_AREA_STYLE( '', ( #345 ) );
#309 = EDGE_CURVE( '', #346, #347, #348, .T. );
#310 = EDGE_CURVE( '', #337, #346, #349, .T. );
#311 = EDGE_CURVE( '', #347, #342, #350, .T. );
#312 = EDGE_CURVE( '', #351, #351, #352, .T. );
#313 = FILL_AREA_STYLE( '', ( #353 ) );
#314 = EDGE_CURVE( '', #354, #354, #355, .T. );
#315 = FILL_AREA_STYLE( '', ( #356 ) );
#316 = EDGE_CURVE( '', #357, #357, #358, .T. );
#317 = EDGE_CURVE( '', #359, #359, #360, .T. );
#318 = FILL_AREA_STYLE( '', ( #361 ) );
#319 = EDGE_CURVE( '', #362, #362, #363, .T. );
#320 = CARTESIAN_POINT( '', ( 78.0000000000000, -3.75133951679985E-14, 0.000000000000000 ) );
#321 = FILL_AREA_STYLE( '', ( #364 ) );
#322 = EDGE_CURVE( '', #340, #338, #365, .T. );
#323 = FILL_AREA_STYLE( '', ( #366 ) );
#324 = EDGE_CURVE( '', #367, #367, #368, .T. );
#325 = EDGE_CURVE( '', #369, #346, #370, .F. );
#326 = EDGE_CURVE( '', #369, #371, #372, .T. );
#327 = EDGE_CURVE( '', #347, #371, #373, .T. );
#328 = FILL_AREA_STYLE( '', ( #374 ) );
#329 = EDGE_CURVE( '', #371, #369, #375, .T. );
#330 = FILL_AREA_STYLE( '', ( #376 ) );
#331 = EDGE_CURVE( '', #377, #377, #378, .T. );
#332 = FILL_AREA_STYLE( '', ( #379 ) );
#333 = FILL_AREA_STYLE( '', ( #380 ) );
#334 = FILL_AREA_STYLE( '', ( #381 ) );
#335 = FILL_AREA_STYLE( '', ( #382 ) );
#336 = FILL_AREA_STYLE_COLOUR( '', #383 );
#337 = VERTEX_POINT( '', #384 );
#338 = VERTEX_POINT( '', #385 );
#339 = LINE( '', #386, #387 );
#340 = VERTEX_POINT( '', #388 );
#341 = LINE( '', #389, #390 );
#342 = VERTEX_POINT( '', #391 );
#343 = LINE( '', #392, #393 );
#344 = LINE( '', #394, #395 );
#345 = FILL_AREA_STYLE_COLOUR( '', #396 );
#346 = VERTEX_POINT( '', #397 );
#347 = VERTEX_POINT( '', #398 );
#348 = LINE( '', #399, #400 );
#349 = CIRCLE( '', #401, 10.5000000000000 );
#350 = CIRCLE( '', #402, 10.5000000000000 );
#351 = VERTEX_POINT( '', #403 );
#352 = CIRCLE( '', #404, 5.00000000000000 );
#353 = FILL_AREA_STYLE_COLOUR( '', #405 );
#354 = VERTEX_POINT( '', #406 );
#355 = CIRCLE( '', #407, 4.08000000000000 );
#356 = FILL_AREA_STYLE_COLOUR( '', #408 );
#357 = VERTEX_POINT( '', #409 );
#358 = CIRCLE( '', #410, 14.0000000000000 );
#359 = VERTEX_POINT( '', #411 );
#360 = CIRCLE( '', #412, 14.0000000000000 );
#361 = FILL_AREA_STYLE_COLOUR( '', #413 );
#362 = VERTEX_POINT( '', #414 );
#363 = CIRCLE( '', #415, 11.7605651043000 );
#364 = FILL_AREA_STYLE_COLOUR( '', #416 );
#365 = CIRCLE( '', #417, 10.5000000000000 );
#366 = FILL_AREA_STYLE_COLOUR( '', #418 );
#367 = VERTEX_POINT( '', #419 );
#368 = CIRCLE( '', #420, 10.5000000000000 );
#369 = VERTEX_POINT( '', #421 );
#370 = LINE( '', #422, #423 );
#371 = VERTEX_POINT( '', #424 );
#372 = CIRCLE( '', #425, 10.5000000000000 );
#373 = LINE( '', #426, #427 );
#374 = FILL_AREA_STYLE_COLOUR( '', #428 );
#375 = LINE( '', #429, #430 );
#376 = FILL_AREA_STYLE_COLOUR( '', #431 );
#377 = VERTEX_POINT( '', #432 );
#378 = CIRCLE( '', #433, 5.00000000000000 );
#379 = FILL_AREA_STYLE_COLOUR( '', #434 );
#380 = FILL_AREA_STYLE_COLOUR( '', #435 );
#381 = FILL_AREA_STYLE_COLOUR( '', #436 );
#382 = FILL_AREA_STYLE_COLOUR( '', #437 );
#383 = COLOUR_RGB( '', 0.689999997600000, 0.689999997600000, 0.689999997600000 );
#384 = CARTESIAN_POINT( '', ( 0.000000000000000, -9.50000000000000, -4.47213595499958 ) );
#385 = CARTESIAN_POINT( '', ( 6.99000000000000, -9.50000000000000, -4.47213595499958 ) );
#386 = CARTESIAN_POINT( '', ( 78.0000000000000, -9.50000000000000, -4.47213595499958 ) );
#387 = VECTOR( '', #438, 1000.00000000000 );
#388 = CARTESIAN_POINT( '', ( 6.99000000000000, -9.50000000000000, 4.47213595499958 ) );
#389 = CARTESIAN_POINT( '', ( 6.99000000000000, -9.50000000000000, -28.0000000000000 ) );
#390 = VECTOR( '', #439, 1000.00000000000 );
#391 = CARTESIAN_POINT( '', ( 0.000000000000000, -9.50000000000000, 4.47213595499958 ) );
#392 = CARTESIAN_POINT( '', ( 78.0000000000000, -9.50000000000000, 4.47213595499958 ) );
#393 = VECTOR( '', #440, 1000.00000000000 );
#394 = CARTESIAN_POINT( '', ( 0.000000000000000, -9.50000000000000, 0.000000000000000 ) );
#395 = VECTOR( '', #441, 1000.00000000000 );
#396 = COLOUR_RGB( '', 0.689999997600000, 0.689999997600000, 0.689999997600000 );
#397 = CARTESIAN_POINT( '', ( 0.000000000000000, 9.50000000000000, -4.47213595499958 ) );
#398 = CARTESIAN_POINT( '', ( 0.000000000000000, 9.50000000000000, 4.47213595499958 ) );
#399 = CARTESIAN_POINT( '', ( 0.000000000000000, 9.50000000000000, 0.000000000000000 ) );
#400 = VECTOR( '', #442, 1000.00000000000 );
#401 = AXIS2_PLACEMENT_3D( '', #443, #444, #445 );
#402 = AXIS2_PLACEMENT_3D( '', #446, #447, #448 );
#403 = CARTESIAN_POINT( '', ( 0.000000000000000, 0.000000000000000, -5.00000000000000 ) );
#404 = AXIS2_PLACEMENT_3D( '', #449, #450, #451 );
#405 = COLOUR_RGB( '', 0.689999997600000, 0.689999997600000, 0.689999997600000 );
#406 = CARTESIAN_POINT( '', ( -11.0000000000000, 0.000000000000000, -4.08000000000000 ) );
#407 = AXIS2_PLACEMENT_3D( '', #452, #453, #454 );
#408 = COLOUR_RGB( '', 0.689999997600000, 0.689999997600000, 0.689999997600000 );
#409 = CARTESIAN_POINT( '', ( 73.8688816650887, 0.000000000000000, -14.0000000000000 ) );
#410 = AXIS2_PLACEMENT_3D( '', #455, #456, #457 );
#411 = CARTESIAN_POINT( '', ( 42.9000000000000, 0.000000000000000, -14.0000000000000 ) );
#412 = AXIS2_PLACEMENT_3D( '', #458, #459, #460 );
#413 = COLOUR_RGB( '', 0.689999997600000, 0.689999997600000, 0.689999997600000 );
#414 = CARTESIAN_POINT( '', ( 76.7708707626033, 0.000000000000000, -11.7605651043181 ) );
#415 = AXIS2_PLACEMENT_3D( '', #461, #462, #463 );
#416 = COLOUR_RGB( '', 0.689999997600000, 0.689999997600000, 0.689999997600000 );
#417 = AXIS2_PLACEMENT_3D( '', #464, #465, #466 );
#418 = COLOUR_RGB( '', 0.689999997600000, 0.689999997600000, 0.689999997600000 );
#419 = CARTESIAN_POINT( '', ( 7.00000000000001, 0.000000000000000, -10.5000000000000 ) );
#420 = AXIS2_PLACEMENT_3D( '', #467, #468, #469 );
#421 = CARTESIAN_POINT( '', ( 6.99000000000000, 9.50000000000000, -4.47213595499958 ) );
#422 = CARTESIAN_POINT( '', ( 78.0000000000000, 9.50000000000000, -4.47213595499958 ) );
#423 = VECTOR( '', #470, 1000.00000000000 );
#424 = CARTESIAN_POINT( '', ( 6.99000000000000, 9.50000000000000, 4.47213595499958 ) );
#425 = AXIS2_PLACEMENT_3D( '', #471, #472, #473 );
#426 = CARTESIAN_POINT( '', ( 78.0000000000000, 9.50000000000000, 4.47213595499958 ) );
#427 = VECTOR( '', #474, 1000.00000000000 );
#428 = COLOUR_RGB( '', 0.689999997600000, 0.689999997600000, 0.689999997600000 );
#429 = CARTESIAN_POINT( '', ( 6.99000000000000, 9.50000000000000, 28.0000000000000 ) );
#430 = VECTOR( '', #475, 1000.00000000000 );
#431 = COLOUR_RGB( '', 0.689999997600000, 0.689999997600000, 0.689999997600000 );
#432 = CARTESIAN_POINT( '', ( -10.0800000000000, 0.000000000000000, -5.00000000000000 ) );
#433 = AXIS2_PLACEMENT_3D( '', #476, #477, #478 );
#434 = COLOUR_RGB( '', 0.689999997600000, 0.689999997600000, 0.689999997600000 );
#435 = COLOUR_RGB( '', 0.689999997600000, 0.689999997600000, 0.689999997600000 );
#436 = COLOUR_RGB( '', 0.689999997600000, 0.689999997600000, 0.689999997600000 );
#437 = COLOUR_RGB( '', 0.689999997600000, 0.689999997600000, 0.689999997600000 );
#438 = DIRECTION( '', ( 1.00000000000000, -0.000000000000000, -0.000000000000000 ) );
#439 = DIRECTION( '', ( 0.000000000000000, 0.000000000000000, 1.00000000000000 ) );
#440 = DIRECTION( '', ( 1.00000000000000, -0.000000000000000, -0.000000000000000 ) );
#441 = DIRECTION( '', ( 0.000000000000000, 0.000000000000000, -1.00000000000000 ) );
#442 = DIRECTION( '', ( 0.000000000000000, 0.000000000000000, 1.00000000000000 ) );
#443 = CARTESIAN_POINT( '', ( 0.000000000000000, 0.000000000000000, 0.000000000000000 ) );
#444 = DIRECTION( '', ( 1.00000000000000, 0.000000000000000, -0.000000000000000 ) );
#445 = DIRECTION( '', ( -0.000000000000000, 0.000000000000000, -1.00000000000000 ) );
#446 = CARTESIAN_POINT( '', ( 0.000000000000000, 0.000000000000000, 0.000000000000000 ) );
#447 = DIRECTION( '', ( 1.00000000000000, 0.000000000000000, -0.000000000000000 ) );
#448 = DIRECTION( '', ( -0.000000000000000, 0.000000000000000, -1.00000000000000 ) );
#449 = CARTESIAN_POINT( '', ( 0.000000000000000, 0.000000000000000, 0.000000000000000 ) );
#450 = DIRECTION( '', ( 1.00000000000000, 0.000000000000000, -0.000000000000000 ) );
#451 = DIRECTION( '', ( -0.000000000000000, 0.000000000000000, -1.00000000000000 ) );
#452 = CARTESIAN_POINT( '', ( -11.0000000000000, 0.000000000000000, 0.000000000000000 ) );
#453 = DIRECTION( '', ( 1.00000000000000, 0.000000000000000, -0.000000000000000 ) );
#454 = DIRECTION( '', ( -0.000000000000000, 0.000000000000000, -1.00000000000000 ) );
#455 = CARTESIAN_POINT( '', ( 73.8688816650887, 0.000000000000000, 0.000000000000000 ) );
#456 = DIRECTION( '', ( 1.00000000000000, 0.000000000000000, -0.000000000000000 ) );
#457 = DIRECTION( '', ( -0.000000000000000, 0.000000000000000, -1.00000000000000 ) );
#458 = CARTESIAN_POINT( '', ( 42.9000000000000, 0.000000000000000, 0.000000000000000 ) );
#459 = DIRECTION( '', ( 1.00000000000000, 0.000000000000000, -0.000000000000000 ) );
#460 = DIRECTION( '', ( -0.000000000000000, 0.000000000000000, -1.00000000000000 ) );
#461 = CARTESIAN_POINT( '', ( 76.7708707626033, 0.000000000000000, 0.000000000000000 ) );
#462 = DIRECTION( '', ( 1.00000000000000, 0.000000000000000, -0.000000000000000 ) );
#463 = DIRECTION( '', ( -0.000000000000000, 0.000000000000000, -1.00000000000000 ) );
#464 = CARTESIAN_POINT( '', ( 6.99000000000000, 0.000000000000000, 0.000000000000000 ) );
#465 = DIRECTION( '', ( 1.00000000000000, 0.000000000000000, -0.000000000000000 ) );
#466 = DIRECTION( '', ( -0.000000000000000, 0.000000000000000, -1.00000000000000 ) );
#467 = CARTESIAN_POINT( '', ( 7.00000000000001, 0.000000000000000, 0.000000000000000 ) );
#468 = DIRECTION( '', ( 1.00000000000000, 0.000000000000000, -0.000000000000000 ) );
#469 = DIRECTION( '', ( -0.000000000000000, 0.000000000000000, -1.00000000000000 ) );
#470 = DIRECTION( '', ( 1.00000000000000, -0.000000000000000, -0.000000000000000 ) );
#471 = CARTESIAN_POINT( '', ( 6.99000000000000, 0.000000000000000, 0.000000000000000 ) );
#472 = DIRECTION( '', ( 1.00000000000000, 0.000000000000000, 0.000000000000000 ) );
#473 = DIRECTION( '', ( 0.000000000000000, 0.000000000000000, -1.00000000000000 ) );
#474 = DIRECTION( '', ( 1.00000000000000, -0.000000000000000, -0.000000000000000 ) );
#475 = DIRECTION( '', ( 0.000000000000000, 0.000000000000000, -1.00000000000000 ) );
#476 = CARTESIAN_POINT( '', ( -10.0800000000000, 0.000000000000000, 0.000000000000000 ) );
#477 = DIRECTION( '', ( 1.00000000000000, 0.000000000000000, -0.000000000000000 ) );
#478 = DIRECTION( '', ( -0.000000000000000, 0.000000000000000, -1.00000000000000 ) );
ENDSEC;
END-ISO-10303-21;
