ISO-10303-21;
HEADER;
FILE_DESCRIPTION( ( 'STEP AP214' ), '1' );
FILE_NAME( '//goodhand-server/Shared Folders/GoodHand Data/Kipp CAD/K0390/K0390.12X70.stp', '2020-12-07T10:14:42', ( '' ), ( '' ), ' ', 'PARTsolutions', ' ' );
FILE_SCHEMA( ( 'AUTOMOTIVE_DESIGN { 1 0 10303 214 1 1 1 1 }' ) );
ENDSEC;
DATA;
#1 = MECHANICAL_DESIGN_GEOMETRIC_PRESENTATION_REPRESENTATION( ' ', ( #10, #11, #12, #13, #14, #15, #16, #17, #18, #19, #20, #21, #22 ), #6 );
#2 = PRODUCT_DEFINITION_CONTEXT( '', #23, 'design' );
#3 = APPLICATION_PROTOCOL_DEFINITION( 'international standard', 'automotive_design', 2001, #23 );
#4 = PRODUCT_CATEGORY_RELATIONSHIP( 'NONE', 'NONE', #24, #25 );
#5 = SHAPE_DEFINITION_REPRESENTATION( #26, #27 );
#6 =  ( GEOMETRIC_REPRESENTATION_CONTEXT( 3 )GLOBAL_UNCERTAINTY_ASSIGNED_CONTEXT( ( #30 ) )GLOBAL_UNIT_ASSIGNED_CONTEXT( ( #32, #33, #34 ) )REPRESENTATION_CONTEXT( 'NONE', 'WORKSPACE' ) );
#10 = STYLED_ITEM( '', ( #36 ), #37 );
#11 = STYLED_ITEM( '', ( #38 ), #39 );
#12 = STYLED_ITEM( '', ( #40 ), #41 );
#13 = STYLED_ITEM( '', ( #42 ), #43 );
#14 = STYLED_ITEM( '', ( #44 ), #45 );
#15 = STYLED_ITEM( '', ( #46 ), #47 );
#16 = STYLED_ITEM( '', ( #48 ), #49 );
#17 = STYLED_ITEM( '', ( #50 ), #51 );
#18 = STYLED_ITEM( '', ( #52 ), #53 );
#19 = STYLED_ITEM( '', ( #54 ), #55 );
#20 = STYLED_ITEM( '', ( #56 ), #57 );
#21 = STYLED_ITEM( '', ( #58 ), #59 );
#22 = STYLED_ITEM( '', ( #60 ), #61 );
#23 = APPLICATION_CONTEXT( 'core data for automotive mechanical design processes' );
#24 = PRODUCT_CATEGORY( 'part', 'NONE' );
#25 = PRODUCT_RELATED_PRODUCT_CATEGORY( 'detail', ' ', ( #62 ) );
#26 = PRODUCT_DEFINITION_SHAPE( 'NONE', 'NONE', #63 );
#27 = ADVANCED_BREP_SHAPE_REPRESENTATION( '_K0390.12X70', ( #64, #65 ), #6 );
#30 = UNCERTAINTY_MEASURE_WITH_UNIT( LENGTH_MEASURE( 0.00100000000000000 ), #32, '', '' );
#32 =  ( CONVERSION_BASED_UNIT( 'MILLIMETRE', #68 )LENGTH_UNIT(  )NAMED_UNIT( #71 ) );
#33 =  ( NAMED_UNIT( #73 )PLANE_ANGLE_UNIT(  )SI_UNIT( $, .RADIAN. ) );
#34 =  ( NAMED_UNIT( #73 )SI_UNIT( $, .STERADIAN. )SOLID_ANGLE_UNIT(  ) );
#36 = PRESENTATION_STYLE_ASSIGNMENT( ( #79 ) );
#37 = ADVANCED_FACE( '', ( #80 ), #81, .T. );
#38 = PRESENTATION_STYLE_ASSIGNMENT( ( #82 ) );
#39 = ADVANCED_FACE( '', ( #83 ), #84, .F. );
#40 = PRESENTATION_STYLE_ASSIGNMENT( ( #85 ) );
#41 = ADVANCED_FACE( '', ( #86 ), #87, .F. );
#42 = PRESENTATION_STYLE_ASSIGNMENT( ( #88 ) );
#43 = ADVANCED_FACE( '', ( #89 ), #90, .F. );
#44 = PRESENTATION_STYLE_ASSIGNMENT( ( #91 ) );
#45 = ADVANCED_FACE( '', ( #92 ), #93, .F. );
#46 = PRESENTATION_STYLE_ASSIGNMENT( ( #94 ) );
#47 = ADVANCED_FACE( '', ( #95, #96 ), #97, .T. );
#48 = PRESENTATION_STYLE_ASSIGNMENT( ( #98 ) );
#49 = ADVANCED_FACE( '', ( #99, #100 ), #101, .T. );
#50 = PRESENTATION_STYLE_ASSIGNMENT( ( #102 ) );
#51 = ADVANCED_FACE( '', ( #103, #104 ), #105, .T. );
#52 = PRESENTATION_STYLE_ASSIGNMENT( ( #106 ) );
#53 = ADVANCED_FACE( '', ( #107 ), #108, .T. );
#54 = PRESENTATION_STYLE_ASSIGNMENT( ( #109 ) );
#55 = ADVANCED_FACE( '', ( #110, #111 ), #112, .T. );
#56 = PRESENTATION_STYLE_ASSIGNMENT( ( #113 ) );
#57 = ADVANCED_FACE( '', ( #114 ), #115, .T. );
#58 = PRESENTATION_STYLE_ASSIGNMENT( ( #116 ) );
#59 = ADVANCED_FACE( '', ( #117, #118 ), #119, .T. );
#60 = PRESENTATION_STYLE_ASSIGNMENT( ( #120 ) );
#61 = ADVANCED_FACE( '', ( #121, #122 ), #123, .F. );
#62 = PRODUCT( '_K0390.12X70', '_K0390.12X70', 'PART-_K0390.12X70-DESC', ( #124 ) );
#63 = PRODUCT_DEFINITION( 'NONE', 'NONE', #125, #2 );
#64 = MANIFOLD_SOLID_BREP( '_K0390.12X70', #126 );
#65 = AXIS2_PLACEMENT_3D( '', #127, #128, #129 );
#68 = LENGTH_MEASURE_WITH_UNIT( LENGTH_MEASURE( 1.00000000000000 ), #130 );
#71 = DIMENSIONAL_EXPONENTS( 1.00000000000000, 0.000000000000000, 0.000000000000000, 0.000000000000000, 0.000000000000000, 0.000000000000000, 0.000000000000000 );
#73 = DIMENSIONAL_EXPONENTS( 0.000000000000000, 0.000000000000000, 0.000000000000000, 0.000000000000000, 0.000000000000000, 0.000000000000000, 0.000000000000000 );
#79 = SURFACE_STYLE_USAGE( .BOTH., #131 );
#80 = FACE_OUTER_BOUND( '', #132, .T. );
#81 = CONICAL_SURFACE( '', #133, 4.92650000000000, 0.785398163400000 );
#82 = SURFACE_STYLE_USAGE( .BOTH., #134 );
#83 = FACE_OUTER_BOUND( '', #135, .T. );
#84 = PLANE( '', #136 );
#85 = SURFACE_STYLE_USAGE( .BOTH., #137 );
#86 = FACE_OUTER_BOUND( '', #138, .T. );
#87 = PLANE( '', #139 );
#88 = SURFACE_STYLE_USAGE( .BOTH., #140 );
#89 = FACE_OUTER_BOUND( '', #141, .T. );
#90 = PLANE( '', #142 );
#91 = SURFACE_STYLE_USAGE( .BOTH., #143 );
#92 = FACE_OUTER_BOUND( '', #144, .T. );
#93 = PLANE( '', #145 );
#94 = SURFACE_STYLE_USAGE( .BOTH., #146 );
#95 = FACE_OUTER_BOUND( '', #147, .T. );
#96 = FACE_OUTER_BOUND( '', #148, .T. );
#97 = CYLINDRICAL_SURFACE( '', #149, 4.00000000000000 );
#98 = SURFACE_STYLE_USAGE( .BOTH., #150 );
#99 = FACE_BOUND( '', #151, .T. );
#100 = FACE_OUTER_BOUND( '', #152, .T. );
#101 = SPHERICAL_SURFACE( '', #153, 6.70960000000000 );
#102 = SURFACE_STYLE_USAGE( .BOTH., #154 );
#103 = FACE_BOUND( '', #155, .T. );
#104 = FACE_OUTER_BOUND( '', #156, .T. );
#105 = CONICAL_SURFACE( '', #157, 6.00000000000000, 1.18946407340000 );
#106 = SURFACE_STYLE_USAGE( .BOTH., #158 );
#107 = FACE_OUTER_BOUND( '', #159, .T. );
#108 = PLANE( '', #160 );
#109 = SURFACE_STYLE_USAGE( .BOTH., #161 );
#110 = FACE_OUTER_BOUND( '', #162, .T. );
#111 = FACE_OUTER_BOUND( '', #163, .T. );
#112 = CYLINDRICAL_SURFACE( '', #164, 6.00000000000000 );
#113 = SURFACE_STYLE_USAGE( .BOTH., #165 );
#114 = FACE_OUTER_BOUND( '', #166, .T. );
#115 = CONICAL_SURFACE( '', #167, 4.92650000000000, 0.785398163400000 );
#116 = SURFACE_STYLE_USAGE( .BOTH., #168 );
#117 = FACE_OUTER_BOUND( '', #169, .T. );
#118 = FACE_OUTER_BOUND( '', #170, .T. );
#119 = CYLINDRICAL_SURFACE( '', #171, 3.60000000000000 );
#120 = SURFACE_STYLE_USAGE( .BOTH., #172 );
#121 = FACE_OUTER_BOUND( '', #173, .T. );
#122 = FACE_BOUND( '', #174, .T. );
#123 = PLANE( '', #175 );
#124 = PRODUCT_CONTEXT( '', #23, 'mechanical' );
#125 = PRODUCT_DEFINITION_FORMATION_WITH_SPECIFIED_SOURCE( ' ', 'NONE', #62, .NOT_KNOWN. );
#126 = CLOSED_SHELL( '', ( #43, #39, #49, #47, #61, #59, #51, #55, #37, #41, #57, #45, #53 ) );
#127 = CARTESIAN_POINT( '', ( 0.000000000000000, 0.000000000000000, 0.000000000000000 ) );
#128 = DIRECTION( '', ( 0.000000000000000, 0.000000000000000, 1.00000000000000 ) );
#129 = DIRECTION( '', ( 1.00000000000000, 0.000000000000000, 0.000000000000000 ) );
#130 =  ( LENGTH_UNIT(  )NAMED_UNIT( #71 )SI_UNIT( .MILLI., .METRE. ) );
#131 = SURFACE_SIDE_STYLE( '', ( #177 ) );
#132 = EDGE_LOOP( '', ( #178, #179, #180, #181 ) );
#133 = AXIS2_PLACEMENT_3D( '', #182, #183, #184 );
#134 = SURFACE_SIDE_STYLE( '', ( #185 ) );
#135 = EDGE_LOOP( '', ( #186, #187, #188, #189, #190, #191 ) );
#136 = AXIS2_PLACEMENT_3D( '', #192, #193, #194 );
#137 = SURFACE_SIDE_STYLE( '', ( #195 ) );
#138 = EDGE_LOOP( '', ( #196, #197 ) );
#139 = AXIS2_PLACEMENT_3D( '', #198, #199, #200 );
#140 = SURFACE_SIDE_STYLE( '', ( #201 ) );
#141 = EDGE_LOOP( '', ( #202, #203, #204, #205, #206, #207 ) );
#142 = AXIS2_PLACEMENT_3D( '', #208, #209, #210 );
#143 = SURFACE_SIDE_STYLE( '', ( #211 ) );
#144 = EDGE_LOOP( '', ( #212, #213 ) );
#145 = AXIS2_PLACEMENT_3D( '', #214, #215, #216 );
#146 = SURFACE_SIDE_STYLE( '', ( #217 ) );
#147 = EDGE_LOOP( '', ( #218 ) );
#148 = EDGE_LOOP( '', ( #219 ) );
#149 = AXIS2_PLACEMENT_3D( '', #220, #221, #222 );
#150 = SURFACE_SIDE_STYLE( '', ( #223 ) );
#151 = VERTEX_LOOP( '', #224 );
#152 = EDGE_LOOP( '', ( #225 ) );
#153 = AXIS2_PLACEMENT_3D( '', #226, #227, #228 );
#154 = SURFACE_SIDE_STYLE( '', ( #229 ) );
#155 = EDGE_LOOP( '', ( #230 ) );
#156 = EDGE_LOOP( '', ( #231 ) );
#157 = AXIS2_PLACEMENT_3D( '', #232, #233, #234 );
#158 = SURFACE_SIDE_STYLE( '', ( #235 ) );
#159 = EDGE_LOOP( '', ( #236, #237, #238, #239 ) );
#160 = AXIS2_PLACEMENT_3D( '', #240, #241, #242 );
#161 = SURFACE_SIDE_STYLE( '', ( #243 ) );
#162 = EDGE_LOOP( '', ( #244 ) );
#163 = EDGE_LOOP( '', ( #245, #246, #247, #248, #249, #250, #251, #252 ) );
#164 = AXIS2_PLACEMENT_3D( '', #253, #254, #255 );
#165 = SURFACE_SIDE_STYLE( '', ( #256 ) );
#166 = EDGE_LOOP( '', ( #257, #258, #259, #260 ) );
#167 = AXIS2_PLACEMENT_3D( '', #261, #262, #263 );
#168 = SURFACE_SIDE_STYLE( '', ( #264 ) );
#169 = EDGE_LOOP( '', ( #265 ) );
#170 = EDGE_LOOP( '', ( #266 ) );
#171 = AXIS2_PLACEMENT_3D( '', #267, #268, #269 );
#172 = SURFACE_SIDE_STYLE( '', ( #270 ) );
#173 = EDGE_LOOP( '', ( #271 ) );
#174 = EDGE_LOOP( '', ( #272 ) );
#175 = AXIS2_PLACEMENT_3D( '', #273, #274, #275 );
#177 = SURFACE_STYLE_FILL_AREA( #276 );
#178 = ORIENTED_EDGE( '', *, *, #277, .T. );
#179 = ORIENTED_EDGE( '', *, *, #278, .T. );
#180 = ORIENTED_EDGE( '', *, *, #279, .F. );
#181 = ORIENTED_EDGE( '', *, *, #280, .T. );
#182 = CARTESIAN_POINT( '', ( 1.38777878078145E-14, 1.31680479940170E-14, 0.000000000000000 ) );
#183 = DIRECTION( '', ( 1.00000000000000, -6.12323399573677E-17, -0.000000000000000 ) );
#184 = DIRECTION( '', ( 6.12323399573677E-17, 1.00000000000000, 0.000000000000000 ) );
#185 = SURFACE_STYLE_FILL_AREA( #281 );
#186 = ORIENTED_EDGE( '', *, *, #282, .T. );
#187 = ORIENTED_EDGE( '', *, *, #283, .F. );
#188 = ORIENTED_EDGE( '', *, *, #284, .F. );
#189 = ORIENTED_EDGE( '', *, *, #285, .F. );
#190 = ORIENTED_EDGE( '', *, *, #286, .F. );
#191 = ORIENTED_EDGE( '', *, *, #287, .F. );
#192 = CARTESIAN_POINT( '', ( 3.00000000000001, -0.899999999999987, -10.5000000000000 ) );
#193 = DIRECTION( '', ( 0.000000000000000, -1.00000000000000, 0.000000000000000 ) );
#194 = DIRECTION( '', ( 0.000000000000000, 0.000000000000000, -1.00000000000000 ) );
#195 = SURFACE_STYLE_FILL_AREA( #288 );
#196 = ORIENTED_EDGE( '', *, *, #289, .F. );
#197 = ORIENTED_EDGE( '', *, *, #282, .F. );
#198 = CARTESIAN_POINT( '', ( 1.40600241538020E-14, 1.31680479940170E-14, 0.000000000000000 ) );
#199 = DIRECTION( '', ( 1.00000000000000, -6.12323399573677E-17, -0.000000000000000 ) );
#200 = DIRECTION( '', ( 6.12323399573677E-17, 1.00000000000000, 0.000000000000000 ) );
#201 = SURFACE_STYLE_FILL_AREA( #290 );
#202 = ORIENTED_EDGE( '', *, *, #278, .F. );
#203 = ORIENTED_EDGE( '', *, *, #291, .T. );
#204 = ORIENTED_EDGE( '', *, *, #280, .F. );
#205 = ORIENTED_EDGE( '', *, *, #292, .F. );
#206 = ORIENTED_EDGE( '', *, *, #293, .F. );
#207 = ORIENTED_EDGE( '', *, *, #294, .F. );
#208 = CARTESIAN_POINT( '', ( 3.00000000000001, 0.900000000000013, 10.5000000000000 ) );
#209 = DIRECTION( '', ( 0.000000000000000, 1.00000000000000, 0.000000000000000 ) );
#210 = DIRECTION( '', ( 0.000000000000000, -0.000000000000000, 1.00000000000000 ) );
#211 = SURFACE_STYLE_FILL_AREA( #295 );
#212 = ORIENTED_EDGE( '', *, *, #277, .F. );
#213 = ORIENTED_EDGE( '', *, *, #291, .F. );
#214 = CARTESIAN_POINT( '', ( 1.40600241538020E-14, 1.31680479940170E-14, 0.000000000000000 ) );
#215 = DIRECTION( '', ( 1.00000000000000, -6.12323399573677E-17, -0.000000000000000 ) );
#216 = DIRECTION( '', ( 6.12323399573677E-17, 1.00000000000000, 0.000000000000000 ) );
#217 = SURFACE_STYLE_FILL_AREA( #296 );
#218 = ORIENTED_EDGE( '', *, *, #297, .F. );
#219 = ORIENTED_EDGE( '', *, *, #298, .T. );
#220 = CARTESIAN_POINT( '', ( 70.0000000000000, 8.88178419700125E-15, 0.000000000000000 ) );
#221 = DIRECTION( '', ( -1.00000000000000, 6.12323399573677E-17, 0.000000000000000 ) );
#222 = DIRECTION( '', ( 6.12323399573677E-17, 1.00000000000000, 0.000000000000000 ) );
#223 = SURFACE_STYLE_FILL_AREA( #299 );
#224 = VERTEX_POINT( '', #300 );
#225 = ORIENTED_EDGE( '', *, *, #297, .T. );
#226 = CARTESIAN_POINT( '', ( 63.2904000000000, 5.63785129692462E-15, 0.000000000000000 ) );
#227 = DIRECTION( '', ( 1.00000000000000, 0.000000000000000, 0.000000000000000 ) );
#228 = DIRECTION( '', ( 0.000000000000000, 1.00000000000000, 0.000000000000000 ) );
#229 = SURFACE_STYLE_FILL_AREA( #301 );
#230 = ORIENTED_EDGE( '', *, *, #302, .F. );
#231 = ORIENTED_EDGE( '', *, *, #303, .T. );
#232 = CARTESIAN_POINT( '', ( 60.0000000000000, 9.49410759657493E-15, 0.000000000000000 ) );
#233 = DIRECTION( '', ( -1.00000000000000, 6.12323399573677E-17, -0.000000000000000 ) );
#234 = DIRECTION( '', ( -6.12323399573677E-17, -1.00000000000000, 0.000000000000000 ) );
#235 = SURFACE_STYLE_FILL_AREA( #304 );
#236 = ORIENTED_EDGE( '', *, *, #305, .T. );
#237 = ORIENTED_EDGE( '', *, *, #285, .T. );
#238 = ORIENTED_EDGE( '', *, *, #306, .T. );
#239 = ORIENTED_EDGE( '', *, *, #293, .T. );
#240 = CARTESIAN_POINT( '', ( 3.00000000000001, -0.000000000000000, -0.000000000000000 ) );
#241 = DIRECTION( '', ( -1.00000000000000, 0.000000000000000, 0.000000000000000 ) );
#242 = DIRECTION( '', ( 0.000000000000000, 0.000000000000000, 1.00000000000000 ) );
#243 = SURFACE_STYLE_FILL_AREA( #307 );
#244 = ORIENTED_EDGE( '', *, *, #303, .F. );
#245 = ORIENTED_EDGE( '', *, *, #308, .T. );
#246 = ORIENTED_EDGE( '', *, *, #286, .T. );
#247 = ORIENTED_EDGE( '', *, *, #305, .F. );
#248 = ORIENTED_EDGE( '', *, *, #292, .T. );
#249 = ORIENTED_EDGE( '', *, *, #279, .T. );
#250 = ORIENTED_EDGE( '', *, *, #294, .T. );
#251 = ORIENTED_EDGE( '', *, *, #306, .F. );
#252 = ORIENTED_EDGE( '', *, *, #284, .T. );
#253 = CARTESIAN_POINT( '', ( 70.0000000000000, 8.88178419700125E-15, 0.000000000000000 ) );
#254 = DIRECTION( '', ( -1.00000000000000, 6.12323399573677E-17, 0.000000000000000 ) );
#255 = DIRECTION( '', ( 6.12323399573677E-17, 1.00000000000000, 0.000000000000000 ) );
#256 = SURFACE_STYLE_FILL_AREA( #309 );
#257 = ORIENTED_EDGE( '', *, *, #308, .F. );
#258 = ORIENTED_EDGE( '', *, *, #283, .T. );
#259 = ORIENTED_EDGE( '', *, *, #289, .T. );
#260 = ORIENTED_EDGE( '', *, *, #287, .T. );
#261 = CARTESIAN_POINT( '', ( 1.38777878078145E-14, 1.31680479940170E-14, 0.000000000000000 ) );
#262 = DIRECTION( '', ( 1.00000000000000, -6.12323399573677E-17, -0.000000000000000 ) );
#263 = DIRECTION( '', ( 6.12323399573677E-17, 1.00000000000000, 0.000000000000000 ) );
#264 = SURFACE_STYLE_FILL_AREA( #310 );
#265 = ORIENTED_EDGE( '', *, *, #311, .F. );
#266 = ORIENTED_EDGE( '', *, *, #302, .T. );
#267 = CARTESIAN_POINT( '', ( 70.0000000000000, 8.88178419700125E-15, 0.000000000000000 ) );
#268 = DIRECTION( '', ( -1.00000000000000, 6.12323399573677E-17, 0.000000000000000 ) );
#269 = DIRECTION( '', ( 6.12323399573677E-17, 1.00000000000000, 0.000000000000000 ) );
#270 = SURFACE_STYLE_FILL_AREA( #312 );
#271 = ORIENTED_EDGE( '', *, *, #298, .F. );
#272 = ORIENTED_EDGE( '', *, *, #311, .T. );
#273 = CARTESIAN_POINT( '', ( 65.5000000000000, 3.60000000000001, 0.000000000000000 ) );
#274 = DIRECTION( '', ( 1.00000000000000, -6.12323399573677E-17, -0.000000000000000 ) );
#275 = DIRECTION( '', ( 6.12323399573677E-17, 1.00000000000000, 0.000000000000000 ) );
#276 = FILL_AREA_STYLE( '', ( #313 ) );
#277 = EDGE_CURVE( '', #314, #315, #316, .T. );
#278 = EDGE_CURVE( '', #315, #317, #318, .T. );
#279 = EDGE_CURVE( '', #319, #317, #320, .T. );
#280 = EDGE_CURVE( '', #319, #314, #321, .T. );
#281 = FILL_AREA_STYLE( '', ( #322 ) );
#282 = EDGE_CURVE( '', #323, #324, #325, .T. );
#283 = EDGE_CURVE( '', #326, #324, #327, .T. );
#284 = EDGE_CURVE( '', #328, #326, #329, .F. );
#285 = EDGE_CURVE( '', #330, #328, #331, .T. );
#286 = EDGE_CURVE( '', #332, #330, #333, .T. );
#287 = EDGE_CURVE( '', #323, #332, #334, .T. );
#288 = FILL_AREA_STYLE( '', ( #335 ) );
#289 = EDGE_CURVE( '', #324, #323, #336, .T. );
#290 = FILL_AREA_STYLE( '', ( #337 ) );
#291 = EDGE_CURVE( '', #315, #314, #338, .T. );
#292 = EDGE_CURVE( '', #339, #319, #340, .F. );
#293 = EDGE_CURVE( '', #341, #339, #342, .T. );
#294 = EDGE_CURVE( '', #317, #341, #343, .T. );
#295 = FILL_AREA_STYLE( '', ( #344 ) );
#296 = FILL_AREA_STYLE( '', ( #345 ) );
#297 = EDGE_CURVE( '', #346, #346, #347, .T. );
#298 = EDGE_CURVE( '', #348, #348, #349, .T. );
#299 = FILL_AREA_STYLE( '', ( #350 ) );
#300 = CARTESIAN_POINT( '', ( 70.0000000000000, 5.63785129692462E-15, 0.000000000000000 ) );
#301 = FILL_AREA_STYLE( '', ( #351 ) );
#302 = EDGE_CURVE( '', #352, #352, #353, .T. );
#303 = EDGE_CURVE( '', #354, #354, #355, .T. );
#304 = FILL_AREA_STYLE( '', ( #356 ) );
#305 = EDGE_CURVE( '', #339, #330, #357, .T. );
#306 = EDGE_CURVE( '', #328, #341, #358, .T. );
#307 = FILL_AREA_STYLE( '', ( #359 ) );
#308 = EDGE_CURVE( '', #326, #332, #360, .T. );
#309 = FILL_AREA_STYLE( '', ( #361 ) );
#310 = FILL_AREA_STYLE( '', ( #362 ) );
#311 = EDGE_CURVE( '', #363, #363, #364, .T. );
#312 = FILL_AREA_STYLE( '', ( #365 ) );
#313 = FILL_AREA_STYLE_COLOUR( '', #366 );
#314 = VERTEX_POINT( '', #367 );
#315 = VERTEX_POINT( '', #368 );
#316 = CIRCLE( '', #369, 4.92650000000000 );
#317 = VERTEX_POINT( '', #370 );
#318 = B_SPLINE_CURVE_WITH_KNOTS( '', 3, ( #371, #372, #373, #374 ), .UNSPECIFIED., .F., .F., ( 4, 4 ), ( 0.0245656796122453, 0.0261075036220750 ), .UNSPECIFIED. );
#319 = VERTEX_POINT( '', #375 );
#320 = CIRCLE( '', #376, 6.00000000000000 );
#321 = B_SPLINE_CURVE_WITH_KNOTS( '', 3, ( #377, #378, #379, #380 ), .UNSPECIFIED., .F., .F., ( 4, 4 ), ( 0.0102495533465439, 0.0117783706769766 ), .UNSPECIFIED. );
#322 = FILL_AREA_STYLE_COLOUR( '', #381 );
#323 = VERTEX_POINT( '', #382 );
#324 = VERTEX_POINT( '', #383 );
#325 = LINE( '', #384, #385 );
#326 = VERTEX_POINT( '', #386 );
#327 = B_SPLINE_CURVE_WITH_KNOTS( '', 3, ( #387, #388, #389, #390 ), .UNSPECIFIED., .F., .F., ( 4, 4 ), ( 0.0102495533465439, 0.0117783706769766 ), .UNSPECIFIED. );
#328 = VERTEX_POINT( '', #391 );
#329 = LINE( '', #392, #393 );
#330 = VERTEX_POINT( '', #394 );
#331 = LINE( '', #395, #396 );
#332 = VERTEX_POINT( '', #397 );
#333 = LINE( '', #398, #399 );
#334 = B_SPLINE_CURVE_WITH_KNOTS( '', 3, ( #400, #401, #402, #403 ), .UNSPECIFIED., .F., .F., ( 4, 4 ), ( 0.0245656796122453, 0.0261075036220749 ), .UNSPECIFIED. );
#335 = FILL_AREA_STYLE_COLOUR( '', #404 );
#336 = CIRCLE( '', #405, 4.92650000000000 );
#337 = FILL_AREA_STYLE_COLOUR( '', #406 );
#338 = LINE( '', #407, #408 );
#339 = VERTEX_POINT( '', #409 );
#340 = LINE( '', #410, #411 );
#341 = VERTEX_POINT( '', #412 );
#342 = LINE( '', #413, #414 );
#343 = LINE( '', #415, #416 );
#344 = FILL_AREA_STYLE_COLOUR( '', #417 );
#345 = FILL_AREA_STYLE_COLOUR( '', #418 );
#346 = VERTEX_POINT( '', #419 );
#347 = CIRCLE( '', #420, 4.00000000000000 );
#348 = VERTEX_POINT( '', #421 );
#349 = CIRCLE( '', #422, 4.00000000000000 );
#350 = FILL_AREA_STYLE_COLOUR( '', #423 );
#351 = FILL_AREA_STYLE_COLOUR( '', #424 );
#352 = VERTEX_POINT( '', #425 );
#353 = CIRCLE( '', #426, 3.60000000000000 );
#354 = VERTEX_POINT( '', #427 );
#355 = CIRCLE( '', #428, 6.00000000000000 );
#356 = FILL_AREA_STYLE_COLOUR( '', #429 );
#357 = CIRCLE( '', #430, 6.00000000000000 );
#358 = CIRCLE( '', #431, 6.00000000000000 );
#359 = FILL_AREA_STYLE_COLOUR( '', #432 );
#360 = CIRCLE( '', #433, 6.00000000000000 );
#361 = FILL_AREA_STYLE_COLOUR( '', #434 );
#362 = FILL_AREA_STYLE_COLOUR( '', #435 );
#363 = VERTEX_POINT( '', #436 );
#364 = CIRCLE( '', #437, 3.60000000000000 );
#365 = FILL_AREA_STYLE_COLOUR( '', #438 );
#366 = COLOUR_RGB( '', 0.689999997600000, 0.689999997600000, 0.689999997600000 );
#367 = CARTESIAN_POINT( '', ( 1.42108547152020E-14, 0.900000000000013, -4.84359393942143 ) );
#368 = CARTESIAN_POINT( '', ( 1.42108547152020E-14, 0.900000000000013, 4.84359393942143 ) );
#369 = AXIS2_PLACEMENT_3D( '', #439, #440, #441 );
#370 = CARTESIAN_POINT( '', ( 1.07350000000002, 0.900000000000017, 5.93211597998556 ) );
#371 = CARTESIAN_POINT( '', ( 1.37167623932757E-14, 0.900000000000013, 4.84359393942143 ) );
#372 = CARTESIAN_POINT( '', ( 0.357276898579824, 0.900000000000013, 5.20698621855697 ) );
#373 = CARTESIAN_POINT( '', ( 0.715211048721695, 0.900000000000013, 5.56972695810484 ) );
#374 = CARTESIAN_POINT( '', ( 1.07350000000002, 0.900000000000013, 5.93211597998556 ) );
#375 = CARTESIAN_POINT( '', ( 1.07350000000002, 0.900000000000017, -5.93211597998556 ) );
#376 = AXIS2_PLACEMENT_3D( '', #442, #443, #444 );
#377 = CARTESIAN_POINT( '', ( 1.07350000000002, 0.900000000000013, -5.93211597998556 ) );
#378 = CARTESIAN_POINT( '', ( 0.715209951210074, 0.900000000000013, -5.56972584803387 ) );
#379 = CARTESIAN_POINT( '', ( 0.357275562011640, 0.900000000000013, -5.20698485911122 ) );
#380 = CARTESIAN_POINT( '', ( 1.43129528655447E-14, 0.900000000000013, -4.84359393942143 ) );
#381 = COLOUR_RGB( '', 0.689999997600000, 0.689999997600000, 0.689999997600000 );
#382 = CARTESIAN_POINT( '', ( 1.42108547152020E-14, -0.899999999999987, -4.84359393942143 ) );
#383 = CARTESIAN_POINT( '', ( 1.42108547152020E-14, -0.899999999999987, 4.84359393942143 ) );
#384 = CARTESIAN_POINT( '', ( 1.42108547152020E-14, -0.899999999999987, -10.5000000000000 ) );
#385 = VECTOR( '', #445, 1000.00000000000 );
#386 = CARTESIAN_POINT( '', ( 1.07350000000002, -0.899999999999983, 5.93211597998556 ) );
#387 = CARTESIAN_POINT( '', ( 1.07350000000002, -0.899999999999987, 5.93211597998556 ) );
#388 = CARTESIAN_POINT( '', ( 0.715209951210074, -0.899999999999987, 5.56972584803387 ) );
#389 = CARTESIAN_POINT( '', ( 0.357275562011638, -0.899999999999987, 5.20698485911122 ) );
#390 = CARTESIAN_POINT( '', ( 1.29424752768897E-14, -0.899999999999987, 4.84359393942143 ) );
#391 = CARTESIAN_POINT( '', ( 3.00000000000002, -0.899999999999987, 5.93211597998556 ) );
#392 = CARTESIAN_POINT( '', ( 70.0000000000000, -0.899999999999987, 5.93211597998556 ) );
#393 = VECTOR( '', #446, 1000.00000000000 );
#394 = CARTESIAN_POINT( '', ( 3.00000000000002, -0.899999999999987, -5.93211597998556 ) );
#395 = CARTESIAN_POINT( '', ( 3.00000000000001, -0.899999999999987, -10.5000000000000 ) );
#396 = VECTOR( '', #447, 1000.00000000000 );
#397 = CARTESIAN_POINT( '', ( 1.07350000000002, -0.899999999999983, -5.93211597998556 ) );
#398 = CARTESIAN_POINT( '', ( 70.0000000000000, -0.899999999999987, -5.93211597998556 ) );
#399 = VECTOR( '', #448, 1000.00000000000 );
#400 = CARTESIAN_POINT( '', ( 1.35539518712764E-14, -0.899999999999987, -4.84359393942143 ) );
#401 = CARTESIAN_POINT( '', ( 0.357276898579824, -0.899999999999987, -5.20698621855697 ) );
#402 = CARTESIAN_POINT( '', ( 0.715211048721697, -0.899999999999987, -5.56972695810484 ) );
#403 = CARTESIAN_POINT( '', ( 1.07350000000002, -0.899999999999987, -5.93211597998556 ) );
#404 = COLOUR_RGB( '', 0.689999997600000, 0.689999997600000, 0.689999997600000 );
#405 = AXIS2_PLACEMENT_3D( '', #449, #450, #451 );
#406 = COLOUR_RGB( '', 0.689999997600000, 0.689999997600000, 0.689999997600000 );
#407 = CARTESIAN_POINT( '', ( 1.42108547152020E-14, 0.900000000000013, 10.5000000000000 ) );
#408 = VECTOR( '', #452, 1000.00000000000 );
#409 = CARTESIAN_POINT( '', ( 3.00000000000002, 0.900000000000013, -5.93211597998556 ) );
#410 = CARTESIAN_POINT( '', ( 70.0000000000000, 0.900000000000013, -5.93211597998556 ) );
#411 = VECTOR( '', #453, 1000.00000000000 );
#412 = CARTESIAN_POINT( '', ( 3.00000000000002, 0.900000000000013, 5.93211597998556 ) );
#413 = CARTESIAN_POINT( '', ( 3.00000000000001, 0.900000000000013, 10.5000000000000 ) );
#414 = VECTOR( '', #454, 1000.00000000000 );
#415 = CARTESIAN_POINT( '', ( 70.0000000000000, 0.900000000000013, 5.93211597998556 ) );
#416 = VECTOR( '', #455, 1000.00000000000 );
#417 = COLOUR_RGB( '', 0.689999997600000, 0.689999997600000, 0.689999997600000 );
#418 = COLOUR_RGB( '', 0.689999997600000, 0.689999997600000, 0.689999997600000 );
#419 = CARTESIAN_POINT( '', ( 68.6773037637589, 4.00000000000001, 0.000000000000000 ) );
#420 = AXIS2_PLACEMENT_3D( '', #456, #457, #458 );
#421 = CARTESIAN_POINT( '', ( 65.5000000000000, 4.00000000000001, 0.000000000000000 ) );
#422 = AXIS2_PLACEMENT_3D( '', #459, #460, #461 );
#423 = COLOUR_RGB( '', 0.689999997600000, 0.689999997600000, 0.689999997600000 );
#424 = COLOUR_RGB( '', 0.689999997600000, 0.689999997600000, 0.689999997600000 );
#425 = CARTESIAN_POINT( '', ( 60.9623000000000, 3.60000000000001, 0.000000000000000 ) );
#426 = AXIS2_PLACEMENT_3D( '', #462, #463, #464 );
#427 = CARTESIAN_POINT( '', ( 60.0000000000000, 6.00000000000001, 0.000000000000000 ) );
#428 = AXIS2_PLACEMENT_3D( '', #465, #466, #467 );
#429 = COLOUR_RGB( '', 0.689999997600000, 0.689999997600000, 0.689999997600000 );
#430 = AXIS2_PLACEMENT_3D( '', #468, #469, #470 );
#431 = AXIS2_PLACEMENT_3D( '', #471, #472, #473 );
#432 = COLOUR_RGB( '', 0.689999997600000, 0.689999997600000, 0.689999997600000 );
#433 = AXIS2_PLACEMENT_3D( '', #474, #475, #476 );
#434 = COLOUR_RGB( '', 0.689999997600000, 0.689999997600000, 0.689999997600000 );
#435 = COLOUR_RGB( '', 0.689999997600000, 0.689999997600000, 0.689999997600000 );
#436 = CARTESIAN_POINT( '', ( 65.5000000000000, 3.60000000000001, 0.000000000000000 ) );
#437 = AXIS2_PLACEMENT_3D( '', #477, #478, #479 );
#438 = COLOUR_RGB( '', 0.689999997600000, 0.689999997600000, 0.689999997600000 );
#439 = CARTESIAN_POINT( '', ( 1.38777878078145E-14, 1.31680479940170E-14, 0.000000000000000 ) );
#440 = DIRECTION( '', ( 1.00000000000000, -6.12323399573677E-17, -0.000000000000000 ) );
#441 = DIRECTION( '', ( 6.12323399573677E-17, 1.00000000000000, 0.000000000000000 ) );
#442 = CARTESIAN_POINT( '', ( 1.07350000000002, 1.31023150770728E-14, 0.000000000000000 ) );
#443 = DIRECTION( '', ( 1.00000000000000, -6.12323399573677E-17, -0.000000000000000 ) );
#444 = DIRECTION( '', ( 6.12323399573677E-17, 1.00000000000000, 0.000000000000000 ) );
#445 = DIRECTION( '', ( 0.000000000000000, 0.000000000000000, 1.00000000000000 ) );
#446 = DIRECTION( '', ( 1.00000000000000, -6.12323399573677E-17, -0.000000000000000 ) );
#447 = DIRECTION( '', ( 0.000000000000000, 0.000000000000000, 1.00000000000000 ) );
#448 = DIRECTION( '', ( 1.00000000000000, -6.12323399573677E-17, -0.000000000000000 ) );
#449 = CARTESIAN_POINT( '', ( 1.38777878078145E-14, 1.31680479940170E-14, 0.000000000000000 ) );
#450 = DIRECTION( '', ( 1.00000000000000, -6.12323399573677E-17, -0.000000000000000 ) );
#451 = DIRECTION( '', ( 6.12323399573677E-17, 1.00000000000000, 0.000000000000000 ) );
#452 = DIRECTION( '', ( 0.000000000000000, 0.000000000000000, -1.00000000000000 ) );
#453 = DIRECTION( '', ( 1.00000000000000, -6.12323399573677E-17, -0.000000000000000 ) );
#454 = DIRECTION( '', ( 0.000000000000000, 0.000000000000000, -1.00000000000000 ) );
#455 = DIRECTION( '', ( 1.00000000000000, -6.12323399573677E-17, -0.000000000000000 ) );
#456 = CARTESIAN_POINT( '', ( 68.6773037637589, 8.96277598259910E-15, 0.000000000000000 ) );
#457 = DIRECTION( '', ( 1.00000000000000, -6.12323399573677E-17, -0.000000000000000 ) );
#458 = DIRECTION( '', ( 6.12323399573677E-17, 1.00000000000000, 0.000000000000000 ) );
#459 = CARTESIAN_POINT( '', ( 65.5000000000000, 9.15732972680941E-15, 0.000000000000000 ) );
#460 = DIRECTION( '', ( 1.00000000000000, -6.12323399573677E-17, -0.000000000000000 ) );
#461 = DIRECTION( '', ( 6.12323399573677E-17, 1.00000000000000, 0.000000000000000 ) );
#462 = CARTESIAN_POINT( '', ( 60.9623000000000, 9.43518371583395E-15, 0.000000000000000 ) );
#463 = DIRECTION( '', ( 1.00000000000000, -6.12323399573677E-17, -0.000000000000000 ) );
#464 = DIRECTION( '', ( 6.12323399573677E-17, 1.00000000000000, 0.000000000000000 ) );
#465 = CARTESIAN_POINT( '', ( 60.0000000000000, 9.49410759657493E-15, 0.000000000000000 ) );
#466 = DIRECTION( '', ( 1.00000000000000, -6.12323399573677E-17, -0.000000000000000 ) );
#467 = DIRECTION( '', ( 6.12323399573677E-17, 1.00000000000000, 0.000000000000000 ) );
#468 = CARTESIAN_POINT( '', ( 3.00000000000002, 1.29843509741449E-14, 0.000000000000000 ) );
#469 = DIRECTION( '', ( -1.00000000000000, 0.000000000000000, 0.000000000000000 ) );
#470 = DIRECTION( '', ( 0.000000000000000, 0.000000000000000, 1.00000000000000 ) );
#471 = CARTESIAN_POINT( '', ( 3.00000000000002, 1.29843509741449E-14, 0.000000000000000 ) );
#472 = DIRECTION( '', ( -1.00000000000000, 0.000000000000000, 0.000000000000000 ) );
#473 = DIRECTION( '', ( 0.000000000000000, 0.000000000000000, 1.00000000000000 ) );
#474 = CARTESIAN_POINT( '', ( 1.07350000000002, 1.31023150770728E-14, 0.000000000000000 ) );
#475 = DIRECTION( '', ( 1.00000000000000, -6.12323399573677E-17, -0.000000000000000 ) );
#476 = DIRECTION( '', ( 6.12323399573677E-17, 1.00000000000000, 0.000000000000000 ) );
#477 = CARTESIAN_POINT( '', ( 65.5000000000000, 9.15732972680941E-15, 0.000000000000000 ) );
#478 = DIRECTION( '', ( 1.00000000000000, -6.12323399573677E-17, -0.000000000000000 ) );
#479 = DIRECTION( '', ( 6.12323399573677E-17, 1.00000000000000, 0.000000000000000 ) );
ENDSEC;
END-ISO-10303-21;
