ISO-10303-21;
HEADER;
FILE_DESCRIPTION( ( 'STEP AP214' ), '1' );
FILE_NAME( '//goodhand-server/Shared Folders/GoodHand Data/Kipp CAD/K1154/K1154.1341530.stp', '2020-12-10T10:26:55', ( '' ), ( '' ), ' ', 'PARTsolutions', ' ' );
FILE_SCHEMA( ( 'AUTOMOTIVE_DESIGN { 1 0 10303 214 1 1 1 1 }' ) );
ENDSEC;
DATA;
#1 = MECHANICAL_DESIGN_GEOMETRIC_PRESENTATION_REPRESENTATION( ' ', ( #10, #11, #12, #13, #14, #15, #16, #17, #18, #19, #20 ), #6 );
#2 = PRODUCT_DEFINITION_CONTEXT( '', #21, 'design' );
#3 = APPLICATION_PROTOCOL_DEFINITION( 'international standard', 'automotive_design', 2001, #21 );
#4 = PRODUCT_CATEGORY_RELATIONSHIP( 'NONE', 'NONE', #22, #23 );
#5 = SHAPE_DEFINITION_REPRESENTATION( #24, #25 );
#6 =  ( GEOMETRIC_REPRESENTATION_CONTEXT( 3 )GLOBAL_UNCERTAINTY_ASSIGNED_CONTEXT( ( #28 ) )GLOBAL_UNIT_ASSIGNED_CONTEXT( ( #30, #31, #32 ) )REPRESENTATION_CONTEXT( 'NONE', 'WORKSPACE' ) );
#10 = STYLED_ITEM( '', ( #34 ), #35 );
#11 = STYLED_ITEM( '', ( #36 ), #37 );
#12 = STYLED_ITEM( '', ( #38 ), #39 );
#13 = STYLED_ITEM( '', ( #40 ), #41 );
#14 = STYLED_ITEM( '', ( #42 ), #43 );
#15 = STYLED_ITEM( '', ( #44 ), #45 );
#16 = STYLED_ITEM( '', ( #46 ), #47 );
#17 = STYLED_ITEM( '', ( #48 ), #49 );
#18 = STYLED_ITEM( '', ( #50 ), #51 );
#19 = STYLED_ITEM( '', ( #52 ), #53 );
#20 = STYLED_ITEM( '', ( #54 ), #55 );
#21 = APPLICATION_CONTEXT( 'core data for automotive mechanical design processes' );
#22 = PRODUCT_CATEGORY( 'part', 'NONE' );
#23 = PRODUCT_RELATED_PRODUCT_CATEGORY( 'detail', ' ', ( #56 ) );
#24 = PRODUCT_DEFINITION_SHAPE( 'NONE', 'NONE', #57 );
#25 = ADVANCED_BREP_SHAPE_REPRESENTATION( '_K1154.1341530', ( #58, #59 ), #6 );
#28 = UNCERTAINTY_MEASURE_WITH_UNIT( LENGTH_MEASURE( 0.00100000000000000 ), #30, '', '' );
#30 =  ( CONVERSION_BASED_UNIT( 'MILLIMETRE', #62 )LENGTH_UNIT(  )NAMED_UNIT( #65 ) );
#31 =  ( NAMED_UNIT( #67 )PLANE_ANGLE_UNIT(  )SI_UNIT( $, .RADIAN. ) );
#32 =  ( NAMED_UNIT( #67 )SI_UNIT( $, .STERADIAN. )SOLID_ANGLE_UNIT(  ) );
#34 = PRESENTATION_STYLE_ASSIGNMENT( ( #73 ) );
#35 = ADVANCED_FACE( '', ( #74 ), #75, .T. );
#36 = PRESENTATION_STYLE_ASSIGNMENT( ( #76 ) );
#37 = ADVANCED_FACE( '', ( #77, #78 ), #79, .T. );
#38 = PRESENTATION_STYLE_ASSIGNMENT( ( #80 ) );
#39 = ADVANCED_FACE( '', ( #81, #82 ), #83, .F. );
#40 = PRESENTATION_STYLE_ASSIGNMENT( ( #84 ) );
#41 = ADVANCED_FACE( '', ( #85, #86, #87, #88, #89 ), #90, .F. );
#42 = PRESENTATION_STYLE_ASSIGNMENT( ( #91 ) );
#43 = ADVANCED_FACE( '', ( #92, #93 ), #94, .F. );
#44 = PRESENTATION_STYLE_ASSIGNMENT( ( #95 ) );
#45 = ADVANCED_FACE( '', ( #96, #97 ), #98, .T. );
#46 = PRESENTATION_STYLE_ASSIGNMENT( ( #99 ) );
#47 = ADVANCED_FACE( '', ( #100, #101 ), #102, .T. );
#48 = PRESENTATION_STYLE_ASSIGNMENT( ( #103 ) );
#49 = ADVANCED_FACE( '', ( #104, #105, #106, #107 ), #108, .F. );
#50 = PRESENTATION_STYLE_ASSIGNMENT( ( #109 ) );
#51 = ADVANCED_FACE( '', ( #110, #111 ), #112, .F. );
#52 = PRESENTATION_STYLE_ASSIGNMENT( ( #113 ) );
#53 = ADVANCED_FACE( '', ( #114, #115 ), #116, .F. );
#54 = PRESENTATION_STYLE_ASSIGNMENT( ( #117 ) );
#55 = ADVANCED_FACE( '', ( #118, #119 ), #120, .T. );
#56 = PRODUCT( '_K1154.1341530', '_K1154.1341530', 'PART-_K1154.1341530-DESC', ( #121 ) );
#57 = PRODUCT_DEFINITION( 'NONE', 'NONE', #122, #2 );
#58 = MANIFOLD_SOLID_BREP( '_K1154.1341530', #123 );
#59 = AXIS2_PLACEMENT_3D( '', #124, #125, #126 );
#62 = LENGTH_MEASURE_WITH_UNIT( LENGTH_MEASURE( 1.00000000000000 ), #127 );
#65 = DIMENSIONAL_EXPONENTS( 1.00000000000000, 0.000000000000000, 0.000000000000000, 0.000000000000000, 0.000000000000000, 0.000000000000000, 0.000000000000000 );
#67 = DIMENSIONAL_EXPONENTS( 0.000000000000000, 0.000000000000000, 0.000000000000000, 0.000000000000000, 0.000000000000000, 0.000000000000000, 0.000000000000000 );
#73 = SURFACE_STYLE_USAGE( .BOTH., #128 );
#74 = FACE_OUTER_BOUND( '', #129, .T. );
#75 = PLANE( '', #130 );
#76 = SURFACE_STYLE_USAGE( .BOTH., #131 );
#77 = FACE_OUTER_BOUND( '', #132, .T. );
#78 = FACE_OUTER_BOUND( '', #133, .T. );
#79 = CYLINDRICAL_SURFACE( '', #134, 25.0000000000000 );
#80 = SURFACE_STYLE_USAGE( .BOTH., #135 );
#81 = FACE_OUTER_BOUND( '', #136, .T. );
#82 = FACE_OUTER_BOUND( '', #137, .T. );
#83 = CYLINDRICAL_SURFACE( '', #138, 1.50000000000000 );
#84 = SURFACE_STYLE_USAGE( .BOTH., #139 );
#85 = FACE_OUTER_BOUND( '', #140, .T. );
#86 = FACE_BOUND( '', #141, .T. );
#87 = FACE_BOUND( '', #142, .T. );
#88 = FACE_BOUND( '', #143, .T. );
#89 = FACE_BOUND( '', #144, .T. );
#90 = PLANE( '', #145 );
#91 = SURFACE_STYLE_USAGE( .BOTH., #146 );
#92 = FACE_OUTER_BOUND( '', #147, .T. );
#93 = FACE_OUTER_BOUND( '', #148, .T. );
#94 = CYLINDRICAL_SURFACE( '', #149, 1.50000000000000 );
#95 = SURFACE_STYLE_USAGE( .BOTH., #150 );
#96 = FACE_OUTER_BOUND( '', #151, .T. );
#97 = FACE_OUTER_BOUND( '', #152, .T. );
#98 = CYLINDRICAL_SURFACE( '', #153, 17.0000000000000 );
#99 = SURFACE_STYLE_USAGE( .BOTH., #154 );
#100 = FACE_OUTER_BOUND( '', #155, .T. );
#101 = FACE_OUTER_BOUND( '', #156, .T. );
#102 = TOROIDAL_SURFACE( '', #157, 14.7500000000000, 1.55000000000000 );
#103 = SURFACE_STYLE_USAGE( .BOTH., #158 );
#104 = FACE_BOUND( '', #159, .T. );
#105 = FACE_BOUND( '', #160, .T. );
#106 = FACE_BOUND( '', #161, .T. );
#107 = FACE_OUTER_BOUND( '', #162, .T. );
#108 = PLANE( '', #163 );
#109 = SURFACE_STYLE_USAGE( .BOTH., #164 );
#110 = FACE_OUTER_BOUND( '', #165, .T. );
#111 = FACE_OUTER_BOUND( '', #166, .T. );
#112 = CYLINDRICAL_SURFACE( '', #167, 1.50000000000000 );
#113 = SURFACE_STYLE_USAGE( .BOTH., #168 );
#114 = FACE_BOUND( '', #169, .T. );
#115 = FACE_OUTER_BOUND( '', #170, .T. );
#116 = CONICAL_SURFACE( '', #171, 13.6822222222000, 0.810841241100000 );
#117 = SURFACE_STYLE_USAGE( .BOTH., #172 );
#118 = FACE_BOUND( '', #173, .T. );
#119 = FACE_OUTER_BOUND( '', #174, .T. );
#120 = CONICAL_SURFACE( '', #175, 17.0000000000000, 0.810841241100000 );
#121 = PRODUCT_CONTEXT( '', #21, 'mechanical' );
#122 = PRODUCT_DEFINITION_FORMATION_WITH_SPECIFIED_SOURCE( ' ', 'NONE', #56, .NOT_KNOWN. );
#123 = CLOSED_SHELL( '', ( #41, #43, #49, #37, #45, #55, #53, #47, #35, #39, #51 ) );
#124 = CARTESIAN_POINT( '', ( 0.000000000000000, 0.000000000000000, 0.000000000000000 ) );
#125 = DIRECTION( '', ( 0.000000000000000, 0.000000000000000, 1.00000000000000 ) );
#126 = DIRECTION( '', ( 1.00000000000000, 0.000000000000000, 0.000000000000000 ) );
#127 =  ( LENGTH_UNIT(  )NAMED_UNIT( #65 )SI_UNIT( .MILLI., .METRE. ) );
#128 = SURFACE_SIDE_STYLE( '', ( #177 ) );
#129 = EDGE_LOOP( '', ( #178 ) );
#130 = AXIS2_PLACEMENT_3D( '', #179, #180, #181 );
#131 = SURFACE_SIDE_STYLE( '', ( #182 ) );
#132 = EDGE_LOOP( '', ( #183 ) );
#133 = EDGE_LOOP( '', ( #184 ) );
#134 = AXIS2_PLACEMENT_3D( '', #185, #186, #187 );
#135 = SURFACE_SIDE_STYLE( '', ( #188 ) );
#136 = EDGE_LOOP( '', ( #189 ) );
#137 = EDGE_LOOP( '', ( #190 ) );
#138 = AXIS2_PLACEMENT_3D( '', #191, #192, #193 );
#139 = SURFACE_SIDE_STYLE( '', ( #194 ) );
#140 = EDGE_LOOP( '', ( #195 ) );
#141 = EDGE_LOOP( '', ( #196 ) );
#142 = EDGE_LOOP( '', ( #197 ) );
#143 = EDGE_LOOP( '', ( #198 ) );
#144 = EDGE_LOOP( '', ( #199 ) );
#145 = AXIS2_PLACEMENT_3D( '', #200, #201, #202 );
#146 = SURFACE_SIDE_STYLE( '', ( #203 ) );
#147 = EDGE_LOOP( '', ( #204 ) );
#148 = EDGE_LOOP( '', ( #205 ) );
#149 = AXIS2_PLACEMENT_3D( '', #206, #207, #208 );
#150 = SURFACE_SIDE_STYLE( '', ( #209 ) );
#151 = EDGE_LOOP( '', ( #210 ) );
#152 = EDGE_LOOP( '', ( #211 ) );
#153 = AXIS2_PLACEMENT_3D( '', #212, #213, #214 );
#154 = SURFACE_SIDE_STYLE( '', ( #215 ) );
#155 = EDGE_LOOP( '', ( #216 ) );
#156 = EDGE_LOOP( '', ( #217 ) );
#157 = AXIS2_PLACEMENT_3D( '', #218, #219, #220 );
#158 = SURFACE_SIDE_STYLE( '', ( #221 ) );
#159 = EDGE_LOOP( '', ( #222 ) );
#160 = EDGE_LOOP( '', ( #223 ) );
#161 = EDGE_LOOP( '', ( #224 ) );
#162 = EDGE_LOOP( '', ( #225 ) );
#163 = AXIS2_PLACEMENT_3D( '', #226, #227, #228 );
#164 = SURFACE_SIDE_STYLE( '', ( #229 ) );
#165 = EDGE_LOOP( '', ( #230 ) );
#166 = EDGE_LOOP( '', ( #231 ) );
#167 = AXIS2_PLACEMENT_3D( '', #232, #233, #234 );
#168 = SURFACE_SIDE_STYLE( '', ( #235 ) );
#169 = EDGE_LOOP( '', ( #236 ) );
#170 = EDGE_LOOP( '', ( #237 ) );
#171 = AXIS2_PLACEMENT_3D( '', #238, #239, #240 );
#172 = SURFACE_SIDE_STYLE( '', ( #241 ) );
#173 = EDGE_LOOP( '', ( #242 ) );
#174 = EDGE_LOOP( '', ( #243 ) );
#175 = AXIS2_PLACEMENT_3D( '', #244, #245, #246 );
#177 = SURFACE_STYLE_FILL_AREA( #247 );
#178 = ORIENTED_EDGE( '', *, *, #248, .F. );
#179 = CARTESIAN_POINT( '', ( 12.5000000000000, 13.4500000000000, 0.000000000000000 ) );
#180 = DIRECTION( '', ( 0.000000000000000, 1.00000000000000, 0.000000000000000 ) );
#181 = DIRECTION( '', ( 0.000000000000000, -0.000000000000000, 1.00000000000000 ) );
#182 = SURFACE_STYLE_FILL_AREA( #249 );
#183 = ORIENTED_EDGE( '', *, *, #250, .F. );
#184 = ORIENTED_EDGE( '', *, *, #251, .T. );
#185 = CARTESIAN_POINT( '', ( 0.000000000000000, 0.000000000000000, 0.000000000000000 ) );
#186 = DIRECTION( '', ( -0.000000000000000, 1.00000000000000, 0.000000000000000 ) );
#187 = DIRECTION( '', ( 0.000000000000000, 0.000000000000000, -1.00000000000000 ) );
#188 = SURFACE_STYLE_FILL_AREA( #252 );
#189 = ORIENTED_EDGE( '', *, *, #253, .T. );
#190 = ORIENTED_EDGE( '', *, *, #254, .F. );
#191 = CARTESIAN_POINT( '', ( 10.7500000000000, 5.00000000000000, 18.6195461813654 ) );
#192 = DIRECTION( '', ( -0.000000000000000, 1.00000000000000, -0.000000000000000 ) );
#193 = DIRECTION( '', ( -0.866025403784439, 0.000000000000000, 0.500000000000000 ) );
#194 = SURFACE_STYLE_FILL_AREA( #255 );
#195 = ORIENTED_EDGE( '', *, *, #251, .F. );
#196 = ORIENTED_EDGE( '', *, *, #256, .F. );
#197 = ORIENTED_EDGE( '', *, *, #253, .F. );
#198 = ORIENTED_EDGE( '', *, *, #257, .F. );
#199 = ORIENTED_EDGE( '', *, *, #258, .T. );
#200 = CARTESIAN_POINT( '', ( 17.0000000000000, 5.00000000000000, 0.000000000000000 ) );
#201 = DIRECTION( '', ( 0.000000000000000, -1.00000000000000, -0.000000000000000 ) );
#202 = DIRECTION( '', ( 0.000000000000000, 0.000000000000000, -1.00000000000000 ) );
#203 = SURFACE_STYLE_FILL_AREA( #259 );
#204 = ORIENTED_EDGE( '', *, *, #257, .T. );
#205 = ORIENTED_EDGE( '', *, *, #260, .F. );
#206 = CARTESIAN_POINT( '', ( -21.5000000000000, 5.00000000000000, 0.000000000000000 ) );
#207 = DIRECTION( '', ( -0.000000000000000, 1.00000000000000, 0.000000000000000 ) );
#208 = DIRECTION( '', ( 0.000000000000000, 0.000000000000000, -1.00000000000000 ) );
#209 = SURFACE_STYLE_FILL_AREA( #261 );
#210 = ORIENTED_EDGE( '', *, *, #258, .F. );
#211 = ORIENTED_EDGE( '', *, *, #262, .T. );
#212 = CARTESIAN_POINT( '', ( 0.000000000000000, 0.000000000000000, 0.000000000000000 ) );
#213 = DIRECTION( '', ( -0.000000000000000, 1.00000000000000, 0.000000000000000 ) );
#214 = DIRECTION( '', ( 0.000000000000000, 0.000000000000000, -1.00000000000000 ) );
#215 = SURFACE_STYLE_FILL_AREA( #263 );
#216 = ORIENTED_EDGE( '', *, *, #264, .T. );
#217 = ORIENTED_EDGE( '', *, *, #265, .F. );
#218 = CARTESIAN_POINT( '', ( 0.000000000000000, 13.4500000000000, 0.000000000000000 ) );
#219 = DIRECTION( '', ( 0.000000000000000, -1.00000000000000, -0.000000000000000 ) );
#220 = DIRECTION( '', ( 0.000000000000000, 0.000000000000000, -1.00000000000000 ) );
#221 = SURFACE_STYLE_FILL_AREA( #266 );
#222 = ORIENTED_EDGE( '', *, *, #267, .T. );
#223 = ORIENTED_EDGE( '', *, *, #254, .T. );
#224 = ORIENTED_EDGE( '', *, *, #260, .T. );
#225 = ORIENTED_EDGE( '', *, *, #250, .T. );
#226 = CARTESIAN_POINT( '', ( 25.0000000000000, 0.000000000000000, 0.000000000000000 ) );
#227 = DIRECTION( '', ( 0.000000000000000, 1.00000000000000, 0.000000000000000 ) );
#228 = DIRECTION( '', ( 0.000000000000000, -0.000000000000000, 1.00000000000000 ) );
#229 = SURFACE_STYLE_FILL_AREA( #268 );
#230 = ORIENTED_EDGE( '', *, *, #256, .T. );
#231 = ORIENTED_EDGE( '', *, *, #267, .F. );
#232 = CARTESIAN_POINT( '', ( 10.7500000000000, 5.00000000000000, -18.6195461813654 ) );
#233 = DIRECTION( '', ( -0.000000000000000, 1.00000000000000, -0.000000000000000 ) );
#234 = DIRECTION( '', ( 0.866025403784439, 0.000000000000000, 0.500000000000000 ) );
#235 = SURFACE_STYLE_FILL_AREA( #269 );
#236 = ORIENTED_EDGE( '', *, *, #248, .T. );
#237 = ORIENTED_EDGE( '', *, *, #264, .F. );
#238 = CARTESIAN_POINT( '', ( 0.000000000000000, 14.5735437763096, 0.000000000000000 ) );
#239 = DIRECTION( '', ( -0.000000000000000, 1.00000000000000, 0.000000000000000 ) );
#240 = DIRECTION( '', ( 0.000000000000000, -0.000000000000000, 1.00000000000000 ) );
#241 = SURFACE_STYLE_FILL_AREA( #270 );
#242 = ORIENTED_EDGE( '', *, *, #265, .T. );
#243 = ORIENTED_EDGE( '', *, *, #262, .F. );
#244 = CARTESIAN_POINT( '', ( 0.000000000000000, 13.4500000000000, 0.000000000000000 ) );
#245 = DIRECTION( '', ( -0.000000000000000, -1.00000000000000, -0.000000000000000 ) );
#246 = DIRECTION( '', ( 0.000000000000000, 0.000000000000000, -1.00000000000000 ) );
#247 = FILL_AREA_STYLE( '', ( #271 ) );
#248 = EDGE_CURVE( '', #272, #272, #273, .T. );
#249 = FILL_AREA_STYLE( '', ( #274 ) );
#250 = EDGE_CURVE( '', #275, #275, #276, .T. );
#251 = EDGE_CURVE( '', #277, #277, #278, .T. );
#252 = FILL_AREA_STYLE( '', ( #279 ) );
#253 = EDGE_CURVE( '', #280, #280, #281, .T. );
#254 = EDGE_CURVE( '', #282, #282, #283, .T. );
#255 = FILL_AREA_STYLE( '', ( #284 ) );
#256 = EDGE_CURVE( '', #285, #285, #286, .T. );
#257 = EDGE_CURVE( '', #287, #287, #288, .T. );
#258 = EDGE_CURVE( '', #289, #289, #290, .T. );
#259 = FILL_AREA_STYLE( '', ( #291 ) );
#260 = EDGE_CURVE( '', #292, #292, #293, .T. );
#261 = FILL_AREA_STYLE( '', ( #294 ) );
#262 = EDGE_CURVE( '', #295, #295, #296, .T. );
#263 = FILL_AREA_STYLE( '', ( #297 ) );
#264 = EDGE_CURVE( '', #298, #298, #299, .T. );
#265 = EDGE_CURVE( '', #300, #300, #301, .T. );
#266 = FILL_AREA_STYLE( '', ( #302 ) );
#267 = EDGE_CURVE( '', #303, #303, #304, .T. );
#268 = FILL_AREA_STYLE( '', ( #305 ) );
#269 = FILL_AREA_STYLE( '', ( #306 ) );
#270 = FILL_AREA_STYLE( '', ( #307 ) );
#271 = FILL_AREA_STYLE_COLOUR( '', #308 );
#272 = VERTEX_POINT( '', #309 );
#273 = CIRCLE( '', #310, 12.5000000000000 );
#274 = FILL_AREA_STYLE_COLOUR( '', #311 );
#275 = VERTEX_POINT( '', #312 );
#276 = CIRCLE( '', #313, 25.0000000000000 );
#277 = VERTEX_POINT( '', #314 );
#278 = CIRCLE( '', #315, 25.0000000000000 );
#279 = FILL_AREA_STYLE_COLOUR( '', #316 );
#280 = VERTEX_POINT( '', #317 );
#281 = CIRCLE( '', #318, 1.50000000000000 );
#282 = VERTEX_POINT( '', #319 );
#283 = CIRCLE( '', #320, 1.50000000000000 );
#284 = FILL_AREA_STYLE_COLOUR( '', #321 );
#285 = VERTEX_POINT( '', #322 );
#286 = CIRCLE( '', #323, 1.50000000000000 );
#287 = VERTEX_POINT( '', #324 );
#288 = CIRCLE( '', #325, 1.50000000000000 );
#289 = VERTEX_POINT( '', #326 );
#290 = CIRCLE( '', #327, 17.0000000000000 );
#291 = FILL_AREA_STYLE_COLOUR( '', #328 );
#292 = VERTEX_POINT( '', #329 );
#293 = CIRCLE( '', #330, 1.50000000000000 );
#294 = FILL_AREA_STYLE_COLOUR( '', #331 );
#295 = VERTEX_POINT( '', #332 );
#296 = CIRCLE( '', #333, 17.0000000000000 );
#297 = FILL_AREA_STYLE_COLOUR( '', #334 );
#298 = VERTEX_POINT( '', #335 );
#299 = CIRCLE( '', #336, 13.6822222222000 );
#300 = VERTEX_POINT( '', #337 );
#301 = CIRCLE( '', #338, 15.8177777778000 );
#302 = FILL_AREA_STYLE_COLOUR( '', #339 );
#303 = VERTEX_POINT( '', #340 );
#304 = CIRCLE( '', #341, 1.50000000000000 );
#305 = FILL_AREA_STYLE_COLOUR( '', #342 );
#306 = FILL_AREA_STYLE_COLOUR( '', #343 );
#307 = FILL_AREA_STYLE_COLOUR( '', #344 );
#308 = COLOUR_RGB( '', 0.689999997600000, 0.689999997600000, 0.689999997600000 );
#309 = CARTESIAN_POINT( '', ( 0.000000000000000, 13.4500000000000, -12.5000000000000 ) );
#310 = AXIS2_PLACEMENT_3D( '', #345, #346, #347 );
#311 = COLOUR_RGB( '', 0.689999997600000, 0.689999997600000, 0.689999997600000 );
#312 = CARTESIAN_POINT( '', ( 0.000000000000000, 0.000000000000000, -25.0000000000000 ) );
#313 = AXIS2_PLACEMENT_3D( '', #348, #349, #350 );
#314 = CARTESIAN_POINT( '', ( 0.000000000000000, 5.00000000000000, -25.0000000000000 ) );
#315 = AXIS2_PLACEMENT_3D( '', #351, #352, #353 );
#316 = COLOUR_RGB( '', 0.689999997600000, 0.689999997600000, 0.689999997600000 );
#317 = CARTESIAN_POINT( '', ( 10.0000000000000, 5.00000000000000, 17.3205080756888 ) );
#318 = AXIS2_PLACEMENT_3D( '', #354, #355, #356 );
#319 = CARTESIAN_POINT( '', ( 10.0000000000000, 0.000000000000000, 17.3205080756888 ) );
#320 = AXIS2_PLACEMENT_3D( '', #357, #358, #359 );
#321 = COLOUR_RGB( '', 0.689999997600000, 0.689999997600000, 0.689999997600000 );
#322 = CARTESIAN_POINT( '', ( 10.0000000000000, 5.00000000000000, -17.3205080756888 ) );
#323 = AXIS2_PLACEMENT_3D( '', #360, #361, #362 );
#324 = CARTESIAN_POINT( '', ( -20.0000000000000, 5.00000000000000, 0.000000000000000 ) );
#325 = AXIS2_PLACEMENT_3D( '', #363, #364, #365 );
#326 = CARTESIAN_POINT( '', ( 0.000000000000000, 5.00000000000000, -17.0000000000000 ) );
#327 = AXIS2_PLACEMENT_3D( '', #366, #367, #368 );
#328 = COLOUR_RGB( '', 0.689999997600000, 0.689999997600000, 0.689999997600000 );
#329 = CARTESIAN_POINT( '', ( -20.0000000000000, 0.000000000000000, 0.000000000000000 ) );
#330 = AXIS2_PLACEMENT_3D( '', #369, #370, #371 );
#331 = COLOUR_RGB( '', 0.689999997600000, 0.689999997600000, 0.689999997600000 );
#332 = CARTESIAN_POINT( '', ( 0.000000000000000, 13.4500000000000, -17.0000000000000 ) );
#333 = AXIS2_PLACEMENT_3D( '', #372, #373, #374 );
#334 = COLOUR_RGB( '', 0.689999997600000, 0.689999997600000, 0.689999997600000 );
#335 = CARTESIAN_POINT( '', ( 0.000000000000000, 14.5735437763096, -13.6822222222222 ) );
#336 = AXIS2_PLACEMENT_3D( '', #375, #376, #377 );
#337 = CARTESIAN_POINT( '', ( 0.000000000000000, 14.5735437763096, -15.8177777777778 ) );
#338 = AXIS2_PLACEMENT_3D( '', #378, #379, #380 );
#339 = COLOUR_RGB( '', 0.689999997600000, 0.689999997600000, 0.689999997600000 );
#340 = CARTESIAN_POINT( '', ( 10.0000000000000, 0.000000000000000, -17.3205080756888 ) );
#341 = AXIS2_PLACEMENT_3D( '', #381, #382, #383 );
#342 = COLOUR_RGB( '', 0.689999997600000, 0.689999997600000, 0.689999997600000 );
#343 = COLOUR_RGB( '', 0.689999997600000, 0.689999997600000, 0.689999997600000 );
#344 = COLOUR_RGB( '', 0.689999997600000, 0.689999997600000, 0.689999997600000 );
#345 = CARTESIAN_POINT( '', ( 0.000000000000000, 13.4500000000000, 0.000000000000000 ) );
#346 = DIRECTION( '', ( 0.000000000000000, -1.00000000000000, -0.000000000000000 ) );
#347 = DIRECTION( '', ( 0.000000000000000, 0.000000000000000, -1.00000000000000 ) );
#348 = CARTESIAN_POINT( '', ( 0.000000000000000, 0.000000000000000, 0.000000000000000 ) );
#349 = DIRECTION( '', ( 0.000000000000000, -1.00000000000000, -0.000000000000000 ) );
#350 = DIRECTION( '', ( 0.000000000000000, 0.000000000000000, -1.00000000000000 ) );
#351 = CARTESIAN_POINT( '', ( 0.000000000000000, 5.00000000000000, 0.000000000000000 ) );
#352 = DIRECTION( '', ( 0.000000000000000, -1.00000000000000, -0.000000000000000 ) );
#353 = DIRECTION( '', ( 0.000000000000000, 0.000000000000000, -1.00000000000000 ) );
#354 = CARTESIAN_POINT( '', ( 10.7500000000000, 5.00000000000000, 18.6195461813654 ) );
#355 = DIRECTION( '', ( 0.000000000000000, 1.00000000000000, 0.000000000000000 ) );
#356 = DIRECTION( '', ( -0.500000000000000, 0.000000000000000, -0.866025403784439 ) );
#357 = CARTESIAN_POINT( '', ( 10.7500000000000, 0.000000000000000, 18.6195461813654 ) );
#358 = DIRECTION( '', ( 0.000000000000000, 1.00000000000000, 0.000000000000000 ) );
#359 = DIRECTION( '', ( -0.500000000000000, 0.000000000000000, -0.866025403784439 ) );
#360 = CARTESIAN_POINT( '', ( 10.7500000000000, 5.00000000000000, -18.6195461813654 ) );
#361 = DIRECTION( '', ( 0.000000000000000, 1.00000000000000, 0.000000000000000 ) );
#362 = DIRECTION( '', ( -0.500000000000000, 0.000000000000000, 0.866025403784439 ) );
#363 = CARTESIAN_POINT( '', ( -21.5000000000000, 5.00000000000000, 0.000000000000000 ) );
#364 = DIRECTION( '', ( -0.000000000000000, 1.00000000000000, 0.000000000000000 ) );
#365 = DIRECTION( '', ( 1.00000000000000, 0.000000000000000, 0.000000000000000 ) );
#366 = CARTESIAN_POINT( '', ( 0.000000000000000, 5.00000000000000, 0.000000000000000 ) );
#367 = DIRECTION( '', ( 0.000000000000000, -1.00000000000000, -0.000000000000000 ) );
#368 = DIRECTION( '', ( 0.000000000000000, 0.000000000000000, -1.00000000000000 ) );
#369 = CARTESIAN_POINT( '', ( -21.5000000000000, 0.000000000000000, 0.000000000000000 ) );
#370 = DIRECTION( '', ( -0.000000000000000, 1.00000000000000, 0.000000000000000 ) );
#371 = DIRECTION( '', ( 1.00000000000000, 0.000000000000000, 0.000000000000000 ) );
#372 = CARTESIAN_POINT( '', ( 0.000000000000000, 13.4500000000000, 0.000000000000000 ) );
#373 = DIRECTION( '', ( 0.000000000000000, -1.00000000000000, -0.000000000000000 ) );
#374 = DIRECTION( '', ( 0.000000000000000, 0.000000000000000, -1.00000000000000 ) );
#375 = CARTESIAN_POINT( '', ( 0.000000000000000, 14.5735437763096, 0.000000000000000 ) );
#376 = DIRECTION( '', ( 0.000000000000000, -1.00000000000000, -0.000000000000000 ) );
#377 = DIRECTION( '', ( 0.000000000000000, 0.000000000000000, -1.00000000000000 ) );
#378 = CARTESIAN_POINT( '', ( 0.000000000000000, 14.5735437763096, 0.000000000000000 ) );
#379 = DIRECTION( '', ( 0.000000000000000, -1.00000000000000, -0.000000000000000 ) );
#380 = DIRECTION( '', ( 0.000000000000000, 0.000000000000000, -1.00000000000000 ) );
#381 = CARTESIAN_POINT( '', ( 10.7500000000000, 0.000000000000000, -18.6195461813654 ) );
#382 = DIRECTION( '', ( 0.000000000000000, 1.00000000000000, 0.000000000000000 ) );
#383 = DIRECTION( '', ( -0.500000000000000, 0.000000000000000, 0.866025403784439 ) );
ENDSEC;
END-ISO-10303-21;
