ISO-10303-21;
HEADER;
FILE_DESCRIPTION( ( 'STEP AP214' ), '1' );
FILE_NAME( '//goodhand-server/Shared Folders/GoodHand Data/Kipp CAD/K0390/K0390.20X125.stp', '2020-12-07T10:15:11', ( '' ), ( '' ), ' ', 'PARTsolutions', ' ' );
FILE_SCHEMA( ( 'AUTOMOTIVE_DESIGN { 1 0 10303 214 1 1 1 1 }' ) );
ENDSEC;
DATA;
#1 = MECHANICAL_DESIGN_GEOMETRIC_PRESENTATION_REPRESENTATION( ' ', ( #10, #11, #12, #13, #14, #15, #16, #17, #18, #19, #20, #21, #22 ), #6 );
#2 = PRODUCT_DEFINITION_CONTEXT( '', #23, 'design' );
#3 = APPLICATION_PROTOCOL_DEFINITION( 'international standard', 'automotive_design', 2001, #23 );
#4 = PRODUCT_CATEGORY_RELATIONSHIP( 'NONE', 'NONE', #24, #25 );
#5 = SHAPE_DEFINITION_REPRESENTATION( #26, #27 );
#6 =  ( GEOMETRIC_REPRESENTATION_CONTEXT( 3 )GLOBAL_UNCERTAINTY_ASSIGNED_CONTEXT( ( #30 ) )GLOBAL_UNIT_ASSIGNED_CONTEXT( ( #32, #33, #34 ) )REPRESENTATION_CONTEXT( 'NONE', 'WORKSPACE' ) );
#10 = STYLED_ITEM( '', ( #36 ), #37 );
#11 = STYLED_ITEM( '', ( #38 ), #39 );
#12 = STYLED_ITEM( '', ( #40 ), #41 );
#13 = STYLED_ITEM( '', ( #42 ), #43 );
#14 = STYLED_ITEM( '', ( #44 ), #45 );
#15 = STYLED_ITEM( '', ( #46 ), #47 );
#16 = STYLED_ITEM( '', ( #48 ), #49 );
#17 = STYLED_ITEM( '', ( #50 ), #51 );
#18 = STYLED_ITEM( '', ( #52 ), #53 );
#19 = STYLED_ITEM( '', ( #54 ), #55 );
#20 = STYLED_ITEM( '', ( #56 ), #57 );
#21 = STYLED_ITEM( '', ( #58 ), #59 );
#22 = STYLED_ITEM( '', ( #60 ), #61 );
#23 = APPLICATION_CONTEXT( 'core data for automotive mechanical design processes' );
#24 = PRODUCT_CATEGORY( 'part', 'NONE' );
#25 = PRODUCT_RELATED_PRODUCT_CATEGORY( 'detail', ' ', ( #62 ) );
#26 = PRODUCT_DEFINITION_SHAPE( 'NONE', 'NONE', #63 );
#27 = ADVANCED_BREP_SHAPE_REPRESENTATION( '_K0390.20X125', ( #64, #65 ), #6 );
#30 = UNCERTAINTY_MEASURE_WITH_UNIT( LENGTH_MEASURE( 0.00100000000000000 ), #32, '', '' );
#32 =  ( CONVERSION_BASED_UNIT( 'MILLIMETRE', #68 )LENGTH_UNIT(  )NAMED_UNIT( #71 ) );
#33 =  ( NAMED_UNIT( #73 )PLANE_ANGLE_UNIT(  )SI_UNIT( $, .RADIAN. ) );
#34 =  ( NAMED_UNIT( #73 )SI_UNIT( $, .STERADIAN. )SOLID_ANGLE_UNIT(  ) );
#36 = PRESENTATION_STYLE_ASSIGNMENT( ( #79 ) );
#37 = ADVANCED_FACE( '', ( #80, #81 ), #82, .T. );
#38 = PRESENTATION_STYLE_ASSIGNMENT( ( #83 ) );
#39 = ADVANCED_FACE( '', ( #84, #85 ), #86, .T. );
#40 = PRESENTATION_STYLE_ASSIGNMENT( ( #87 ) );
#41 = ADVANCED_FACE( '', ( #88 ), #89, .T. );
#42 = PRESENTATION_STYLE_ASSIGNMENT( ( #90 ) );
#43 = ADVANCED_FACE( '', ( #91, #92 ), #93, .F. );
#44 = PRESENTATION_STYLE_ASSIGNMENT( ( #94 ) );
#45 = ADVANCED_FACE( '', ( #95, #96 ), #97, .T. );
#46 = PRESENTATION_STYLE_ASSIGNMENT( ( #98 ) );
#47 = ADVANCED_FACE( '', ( #99 ), #100, .F. );
#48 = PRESENTATION_STYLE_ASSIGNMENT( ( #101 ) );
#49 = ADVANCED_FACE( '', ( #102 ), #103, .T. );
#50 = PRESENTATION_STYLE_ASSIGNMENT( ( #104 ) );
#51 = ADVANCED_FACE( '', ( #105 ), #106, .T. );
#52 = PRESENTATION_STYLE_ASSIGNMENT( ( #107 ) );
#53 = ADVANCED_FACE( '', ( #108 ), #109, .F. );
#54 = PRESENTATION_STYLE_ASSIGNMENT( ( #110 ) );
#55 = ADVANCED_FACE( '', ( #111 ), #112, .F. );
#56 = PRESENTATION_STYLE_ASSIGNMENT( ( #113 ) );
#57 = ADVANCED_FACE( '', ( #114, #115 ), #116, .T. );
#58 = PRESENTATION_STYLE_ASSIGNMENT( ( #117 ) );
#59 = ADVANCED_FACE( '', ( #118 ), #119, .F. );
#60 = PRESENTATION_STYLE_ASSIGNMENT( ( #120 ) );
#61 = ADVANCED_FACE( '', ( #121, #122 ), #123, .T. );
#62 = PRODUCT( '_K0390.20X125', '_K0390.20X125', 'PART-_K0390.20X125-DESC', ( #124 ) );
#63 = PRODUCT_DEFINITION( 'NONE', 'NONE', #125, #2 );
#64 = MANIFOLD_SOLID_BREP( '_K0390.20X125', #126 );
#65 = AXIS2_PLACEMENT_3D( '', #127, #128, #129 );
#68 = LENGTH_MEASURE_WITH_UNIT( LENGTH_MEASURE( 1.00000000000000 ), #130 );
#71 = DIMENSIONAL_EXPONENTS( 1.00000000000000, 0.000000000000000, 0.000000000000000, 0.000000000000000, 0.000000000000000, 0.000000000000000, 0.000000000000000 );
#73 = DIMENSIONAL_EXPONENTS( 0.000000000000000, 0.000000000000000, 0.000000000000000, 0.000000000000000, 0.000000000000000, 0.000000000000000, 0.000000000000000 );
#79 = SURFACE_STYLE_USAGE( .BOTH., #131 );
#80 = FACE_OUTER_BOUND( '', #132, .T. );
#81 = FACE_OUTER_BOUND( '', #133, .T. );
#82 = CYLINDRICAL_SURFACE( '', #134, 10.0000000000000 );
#83 = SURFACE_STYLE_USAGE( .BOTH., #135 );
#84 = FACE_BOUND( '', #136, .T. );
#85 = FACE_OUTER_BOUND( '', #137, .T. );
#86 = SPHERICAL_SURFACE( '', #138, 12.9998500000000 );
#87 = SURFACE_STYLE_USAGE( .BOTH., #139 );
#88 = FACE_OUTER_BOUND( '', #140, .T. );
#89 = CONICAL_SURFACE( '', #141, 8.46650000000000, 0.785398163400000 );
#90 = SURFACE_STYLE_USAGE( .BOTH., #142 );
#91 = FACE_OUTER_BOUND( '', #143, .T. );
#92 = FACE_BOUND( '', #144, .T. );
#93 = PLANE( '', #145 );
#94 = SURFACE_STYLE_USAGE( .BOTH., #146 );
#95 = FACE_OUTER_BOUND( '', #147, .T. );
#96 = FACE_OUTER_BOUND( '', #148, .T. );
#97 = CYLINDRICAL_SURFACE( '', #149, 7.20000000000000 );
#98 = SURFACE_STYLE_USAGE( .BOTH., #150 );
#99 = FACE_OUTER_BOUND( '', #151, .T. );
#100 = PLANE( '', #152 );
#101 = SURFACE_STYLE_USAGE( .BOTH., #153 );
#102 = FACE_OUTER_BOUND( '', #154, .T. );
#103 = CONICAL_SURFACE( '', #155, 8.46650000000000, 0.785398163400000 );
#104 = SURFACE_STYLE_USAGE( .BOTH., #156 );
#105 = FACE_OUTER_BOUND( '', #157, .T. );
#106 = PLANE( '', #158 );
#107 = SURFACE_STYLE_USAGE( .BOTH., #159 );
#108 = FACE_OUTER_BOUND( '', #160, .T. );
#109 = PLANE( '', #161 );
#110 = SURFACE_STYLE_USAGE( .BOTH., #162 );
#111 = FACE_OUTER_BOUND( '', #163, .T. );
#112 = PLANE( '', #164 );
#113 = SURFACE_STYLE_USAGE( .BOTH., #165 );
#114 = FACE_BOUND( '', #166, .T. );
#115 = FACE_OUTER_BOUND( '', #167, .T. );
#116 = CONICAL_SURFACE( '', #168, 10.0000000000000, 1.12234211560000 );
#117 = SURFACE_STYLE_USAGE( .BOTH., #169 );
#118 = FACE_OUTER_BOUND( '', #170, .T. );
#119 = PLANE( '', #171 );
#120 = SURFACE_STYLE_USAGE( .BOTH., #172 );
#121 = FACE_OUTER_BOUND( '', #173, .T. );
#122 = FACE_OUTER_BOUND( '', #174, .T. );
#123 = CYLINDRICAL_SURFACE( '', #175, 7.75000000000000 );
#124 = PRODUCT_CONTEXT( '', #23, 'mechanical' );
#125 = PRODUCT_DEFINITION_FORMATION_WITH_SPECIFIED_SOURCE( ' ', 'NONE', #62, .NOT_KNOWN. );
#126 = CLOSED_SHELL( '', ( #55, #53, #39, #61, #43, #45, #57, #37, #41, #47, #49, #59, #51 ) );
#127 = CARTESIAN_POINT( '', ( 0.000000000000000, 0.000000000000000, 0.000000000000000 ) );
#128 = DIRECTION( '', ( 0.000000000000000, 0.000000000000000, 1.00000000000000 ) );
#129 = DIRECTION( '', ( 1.00000000000000, 0.000000000000000, 0.000000000000000 ) );
#130 =  ( LENGTH_UNIT(  )NAMED_UNIT( #71 )SI_UNIT( .MILLI., .METRE. ) );
#131 = SURFACE_SIDE_STYLE( '', ( #177 ) );
#132 = EDGE_LOOP( '', ( #178 ) );
#133 = EDGE_LOOP( '', ( #179, #180, #181, #182, #183, #184, #185, #186 ) );
#134 = AXIS2_PLACEMENT_3D( '', #187, #188, #189 );
#135 = SURFACE_SIDE_STYLE( '', ( #190 ) );
#136 = VERTEX_LOOP( '', #191 );
#137 = EDGE_LOOP( '', ( #192 ) );
#138 = AXIS2_PLACEMENT_3D( '', #193, #194, #195 );
#139 = SURFACE_SIDE_STYLE( '', ( #196 ) );
#140 = EDGE_LOOP( '', ( #197, #198, #199, #200 ) );
#141 = AXIS2_PLACEMENT_3D( '', #201, #202, #203 );
#142 = SURFACE_SIDE_STYLE( '', ( #204 ) );
#143 = EDGE_LOOP( '', ( #205 ) );
#144 = EDGE_LOOP( '', ( #206 ) );
#145 = AXIS2_PLACEMENT_3D( '', #207, #208, #209 );
#146 = SURFACE_SIDE_STYLE( '', ( #210 ) );
#147 = EDGE_LOOP( '', ( #211 ) );
#148 = EDGE_LOOP( '', ( #212 ) );
#149 = AXIS2_PLACEMENT_3D( '', #213, #214, #215 );
#150 = SURFACE_SIDE_STYLE( '', ( #216 ) );
#151 = EDGE_LOOP( '', ( #217, #218 ) );
#152 = AXIS2_PLACEMENT_3D( '', #219, #220, #221 );
#153 = SURFACE_SIDE_STYLE( '', ( #222 ) );
#154 = EDGE_LOOP( '', ( #223, #224, #225, #226 ) );
#155 = AXIS2_PLACEMENT_3D( '', #227, #228, #229 );
#156 = SURFACE_SIDE_STYLE( '', ( #230 ) );
#157 = EDGE_LOOP( '', ( #231, #232, #233, #234 ) );
#158 = AXIS2_PLACEMENT_3D( '', #235, #236, #237 );
#159 = SURFACE_SIDE_STYLE( '', ( #238 ) );
#160 = EDGE_LOOP( '', ( #239, #240, #241, #242, #243, #244 ) );
#161 = AXIS2_PLACEMENT_3D( '', #245, #246, #247 );
#162 = SURFACE_SIDE_STYLE( '', ( #248 ) );
#163 = EDGE_LOOP( '', ( #249, #250, #251, #252, #253, #254 ) );
#164 = AXIS2_PLACEMENT_3D( '', #255, #256, #257 );
#165 = SURFACE_SIDE_STYLE( '', ( #258 ) );
#166 = EDGE_LOOP( '', ( #259 ) );
#167 = EDGE_LOOP( '', ( #260 ) );
#168 = AXIS2_PLACEMENT_3D( '', #261, #262, #263 );
#169 = SURFACE_SIDE_STYLE( '', ( #264 ) );
#170 = EDGE_LOOP( '', ( #265, #266 ) );
#171 = AXIS2_PLACEMENT_3D( '', #267, #268, #269 );
#172 = SURFACE_SIDE_STYLE( '', ( #270 ) );
#173 = EDGE_LOOP( '', ( #271 ) );
#174 = EDGE_LOOP( '', ( #272 ) );
#175 = AXIS2_PLACEMENT_3D( '', #273, #274, #275 );
#177 = SURFACE_STYLE_FILL_AREA( #276 );
#178 = ORIENTED_EDGE( '', *, *, #277, .F. );
#179 = ORIENTED_EDGE( '', *, *, #278, .T. );
#180 = ORIENTED_EDGE( '', *, *, #279, .T. );
#181 = ORIENTED_EDGE( '', *, *, #280, .F. );
#182 = ORIENTED_EDGE( '', *, *, #281, .T. );
#183 = ORIENTED_EDGE( '', *, *, #282, .T. );
#184 = ORIENTED_EDGE( '', *, *, #283, .T. );
#185 = ORIENTED_EDGE( '', *, *, #284, .F. );
#186 = ORIENTED_EDGE( '', *, *, #285, .T. );
#187 = CARTESIAN_POINT( '', ( 125.000000000000, -1.95399252334028E-14, 0.000000000000000 ) );
#188 = DIRECTION( '', ( -1.00000000000000, 6.12323399573676E-17, 0.000000000000000 ) );
#189 = DIRECTION( '', ( 6.12323399573676E-17, 1.00000000000000, 0.000000000000000 ) );
#190 = SURFACE_STYLE_FILL_AREA( #286 );
#191 = VERTEX_POINT( '', #287 );
#192 = ORIENTED_EDGE( '', *, *, #288, .T. );
#193 = CARTESIAN_POINT( '', ( 112.000150000000, -9.80118763926896E-14, 0.000000000000000 ) );
#194 = DIRECTION( '', ( 1.00000000000000, 0.000000000000000, 0.000000000000000 ) );
#195 = DIRECTION( '', ( 0.000000000000000, 1.00000000000000, 0.000000000000000 ) );
#196 = SURFACE_STYLE_FILL_AREA( #289 );
#197 = ORIENTED_EDGE( '', *, *, #290, .T. );
#198 = ORIENTED_EDGE( '', *, *, #291, .T. );
#199 = ORIENTED_EDGE( '', *, *, #282, .F. );
#200 = ORIENTED_EDGE( '', *, *, #292, .T. );
#201 = CARTESIAN_POINT( '', ( -1.38777878078145E-14, -1.18858827387318E-14, 0.000000000000000 ) );
#202 = DIRECTION( '', ( 1.00000000000000, -6.12323399573677E-17, -0.000000000000000 ) );
#203 = DIRECTION( '', ( 6.12323399573677E-17, 1.00000000000000, 0.000000000000000 ) );
#204 = SURFACE_STYLE_FILL_AREA( #293 );
#205 = ORIENTED_EDGE( '', *, *, #294, .F. );
#206 = ORIENTED_EDGE( '', *, *, #295, .T. );
#207 = CARTESIAN_POINT( '', ( 119.500000000000, 7.19999999999998, 0.000000000000000 ) );
#208 = DIRECTION( '', ( 1.00000000000000, -6.12323399573676E-17, -0.000000000000000 ) );
#209 = DIRECTION( '', ( 6.12323399573676E-17, 1.00000000000000, 0.000000000000000 ) );
#210 = SURFACE_STYLE_FILL_AREA( #296 );
#211 = ORIENTED_EDGE( '', *, *, #295, .F. );
#212 = ORIENTED_EDGE( '', *, *, #297, .T. );
#213 = CARTESIAN_POINT( '', ( 125.000000000000, -1.95399252334028E-14, 0.000000000000000 ) );
#214 = DIRECTION( '', ( -1.00000000000000, 6.12323399573676E-17, 0.000000000000000 ) );
#215 = DIRECTION( '', ( 6.12323399573676E-17, 1.00000000000000, 0.000000000000000 ) );
#216 = SURFACE_STYLE_FILL_AREA( #298 );
#217 = ORIENTED_EDGE( '', *, *, #299, .F. );
#218 = ORIENTED_EDGE( '', *, *, #300, .F. );
#219 = CARTESIAN_POINT( '', ( -1.44700665183265E-14, -1.18858827387318E-14, 0.000000000000000 ) );
#220 = DIRECTION( '', ( 1.00000000000000, -6.12323399573676E-17, -0.000000000000000 ) );
#221 = DIRECTION( '', ( 6.12323399573676E-17, 1.00000000000000, 0.000000000000000 ) );
#222 = SURFACE_STYLE_FILL_AREA( #301 );
#223 = ORIENTED_EDGE( '', *, *, #278, .F. );
#224 = ORIENTED_EDGE( '', *, *, #302, .T. );
#225 = ORIENTED_EDGE( '', *, *, #299, .T. );
#226 = ORIENTED_EDGE( '', *, *, #303, .T. );
#227 = CARTESIAN_POINT( '', ( -1.38777878078145E-14, -1.18858827387318E-14, 0.000000000000000 ) );
#228 = DIRECTION( '', ( 1.00000000000000, -6.12323399573677E-17, -0.000000000000000 ) );
#229 = DIRECTION( '', ( 6.12323399573677E-17, 1.00000000000000, 0.000000000000000 ) );
#230 = SURFACE_STYLE_FILL_AREA( #304 );
#231 = ORIENTED_EDGE( '', *, *, #280, .T. );
#232 = ORIENTED_EDGE( '', *, *, #305, .T. );
#233 = ORIENTED_EDGE( '', *, *, #284, .T. );
#234 = ORIENTED_EDGE( '', *, *, #306, .T. );
#235 = CARTESIAN_POINT( '', ( 2.99999999999999, 0.000000000000000, 0.000000000000000 ) );
#236 = DIRECTION( '', ( -1.00000000000000, 0.000000000000000, 0.000000000000000 ) );
#237 = DIRECTION( '', ( 0.000000000000000, 0.000000000000000, 1.00000000000000 ) );
#238 = SURFACE_STYLE_FILL_AREA( #307 );
#239 = ORIENTED_EDGE( '', *, *, #300, .T. );
#240 = ORIENTED_EDGE( '', *, *, #302, .F. );
#241 = ORIENTED_EDGE( '', *, *, #285, .F. );
#242 = ORIENTED_EDGE( '', *, *, #305, .F. );
#243 = ORIENTED_EDGE( '', *, *, #279, .F. );
#244 = ORIENTED_EDGE( '', *, *, #303, .F. );
#245 = CARTESIAN_POINT( '', ( 2.99999999999999, -0.900000000000012, -10.5000000000000 ) );
#246 = DIRECTION( '', ( 0.000000000000000, -1.00000000000000, 0.000000000000000 ) );
#247 = DIRECTION( '', ( 0.000000000000000, 0.000000000000000, -1.00000000000000 ) );
#248 = SURFACE_STYLE_FILL_AREA( #308 );
#249 = ORIENTED_EDGE( '', *, *, #291, .F. );
#250 = ORIENTED_EDGE( '', *, *, #309, .T. );
#251 = ORIENTED_EDGE( '', *, *, #292, .F. );
#252 = ORIENTED_EDGE( '', *, *, #281, .F. );
#253 = ORIENTED_EDGE( '', *, *, #306, .F. );
#254 = ORIENTED_EDGE( '', *, *, #283, .F. );
#255 = CARTESIAN_POINT( '', ( 2.99999999999999, 0.899999999999988, 10.5000000000000 ) );
#256 = DIRECTION( '', ( 0.000000000000000, 1.00000000000000, 0.000000000000000 ) );
#257 = DIRECTION( '', ( 0.000000000000000, -0.000000000000000, 1.00000000000000 ) );
#258 = SURFACE_STYLE_FILL_AREA( #310 );
#259 = ORIENTED_EDGE( '', *, *, #297, .F. );
#260 = ORIENTED_EDGE( '', *, *, #277, .T. );
#261 = CARTESIAN_POINT( '', ( 111.000000000000, -1.86826724739996E-14, 0.000000000000000 ) );
#262 = DIRECTION( '', ( -1.00000000000000, 6.12323399573676E-17, -0.000000000000000 ) );
#263 = DIRECTION( '', ( -6.12323399573676E-17, -1.00000000000000, 0.000000000000000 ) );
#264 = SURFACE_STYLE_FILL_AREA( #311 );
#265 = ORIENTED_EDGE( '', *, *, #290, .F. );
#266 = ORIENTED_EDGE( '', *, *, #309, .F. );
#267 = CARTESIAN_POINT( '', ( -1.44700665183265E-14, -1.18858827387318E-14, 0.000000000000000 ) );
#268 = DIRECTION( '', ( 1.00000000000000, -6.12323399573676E-17, -0.000000000000000 ) );
#269 = DIRECTION( '', ( 6.12323399573676E-17, 1.00000000000000, 0.000000000000000 ) );
#270 = SURFACE_STYLE_FILL_AREA( #312 );
#271 = ORIENTED_EDGE( '', *, *, #288, .F. );
#272 = ORIENTED_EDGE( '', *, *, #294, .T. );
#273 = CARTESIAN_POINT( '', ( 125.000000000000, -1.95399252334028E-14, 0.000000000000000 ) );
#274 = DIRECTION( '', ( -1.00000000000000, 6.12323399573676E-17, 0.000000000000000 ) );
#275 = DIRECTION( '', ( 6.12323399573676E-17, 1.00000000000000, 0.000000000000000 ) );
#276 = FILL_AREA_STYLE( '', ( #313 ) );
#277 = EDGE_CURVE( '', #314, #314, #315, .T. );
#278 = EDGE_CURVE( '', #316, #317, #318, .T. );
#279 = EDGE_CURVE( '', #317, #319, #320, .T. );
#280 = EDGE_CURVE( '', #321, #319, #322, .T. );
#281 = EDGE_CURVE( '', #321, #323, #324, .F. );
#282 = EDGE_CURVE( '', #323, #325, #326, .T. );
#283 = EDGE_CURVE( '', #325, #327, #328, .T. );
#284 = EDGE_CURVE( '', #329, #327, #330, .T. );
#285 = EDGE_CURVE( '', #329, #316, #331, .F. );
#286 = FILL_AREA_STYLE( '', ( #332 ) );
#287 = CARTESIAN_POINT( '', ( 125.000000000000, -9.80118763926896E-14, 0.000000000000000 ) );
#288 = EDGE_CURVE( '', #333, #333, #334, .T. );
#289 = FILL_AREA_STYLE( '', ( #335 ) );
#290 = EDGE_CURVE( '', #336, #337, #338, .T. );
#291 = EDGE_CURVE( '', #337, #325, #339, .T. );
#292 = EDGE_CURVE( '', #323, #336, #340, .T. );
#293 = FILL_AREA_STYLE( '', ( #341 ) );
#294 = EDGE_CURVE( '', #342, #342, #343, .T. );
#295 = EDGE_CURVE( '', #344, #344, #345, .T. );
#296 = FILL_AREA_STYLE( '', ( #346 ) );
#297 = EDGE_CURVE( '', #347, #347, #348, .T. );
#298 = FILL_AREA_STYLE( '', ( #349 ) );
#299 = EDGE_CURVE( '', #350, #351, #352, .T. );
#300 = EDGE_CURVE( '', #351, #350, #353, .T. );
#301 = FILL_AREA_STYLE( '', ( #354 ) );
#302 = EDGE_CURVE( '', #316, #350, #355, .T. );
#303 = EDGE_CURVE( '', #351, #317, #356, .T. );
#304 = FILL_AREA_STYLE( '', ( #357 ) );
#305 = EDGE_CURVE( '', #319, #329, #358, .T. );
#306 = EDGE_CURVE( '', #327, #321, #359, .T. );
#307 = FILL_AREA_STYLE( '', ( #360 ) );
#308 = FILL_AREA_STYLE( '', ( #361 ) );
#309 = EDGE_CURVE( '', #337, #336, #362, .T. );
#310 = FILL_AREA_STYLE( '', ( #363 ) );
#311 = FILL_AREA_STYLE( '', ( #364 ) );
#312 = FILL_AREA_STYLE( '', ( #365 ) );
#313 = FILL_AREA_STYLE_COLOUR( '', #366 );
#314 = VERTEX_POINT( '', #367 );
#315 = CIRCLE( '', #368, 10.0000000000000 );
#316 = VERTEX_POINT( '', #369 );
#317 = VERTEX_POINT( '', #370 );
#318 = CIRCLE( '', #371, 10.0000000000000 );
#319 = VERTEX_POINT( '', #372 );
#320 = LINE( '', #373, #374 );
#321 = VERTEX_POINT( '', #375 );
#322 = CIRCLE( '', #376, 10.0000000000000 );
#323 = VERTEX_POINT( '', #377 );
#324 = LINE( '', #378, #379 );
#325 = VERTEX_POINT( '', #380 );
#326 = CIRCLE( '', #381, 10.0000000000000 );
#327 = VERTEX_POINT( '', #382 );
#328 = LINE( '', #383, #384 );
#329 = VERTEX_POINT( '', #385 );
#330 = CIRCLE( '', #386, 10.0000000000000 );
#331 = LINE( '', #387, #388 );
#332 = FILL_AREA_STYLE_COLOUR( '', #389 );
#333 = VERTEX_POINT( '', #390 );
#334 = CIRCLE( '', #391, 7.75000000000000 );
#335 = FILL_AREA_STYLE_COLOUR( '', #392 );
#336 = VERTEX_POINT( '', #393 );
#337 = VERTEX_POINT( '', #394 );
#338 = CIRCLE( '', #395, 8.46650000000000 );
#339 = B_SPLINE_CURVE_WITH_KNOTS( '', 3, ( #396, #397, #398, #399 ), .UNSPECIFIED., .F., .F., ( 4, 4 ), ( 0.0420335464893133, 0.0442124251860489 ), .UNSPECIFIED. );
#340 = B_SPLINE_CURVE_WITH_KNOTS( '', 3, ( #400, #401, #402, #403 ), .UNSPECIFIED., .F., .F., ( 4, 4 ), ( 0.0170363399290314, 0.0192102676191475 ), .UNSPECIFIED. );
#341 = FILL_AREA_STYLE_COLOUR( '', #404 );
#342 = VERTEX_POINT( '', #405 );
#343 = CIRCLE( '', #406, 7.75000000000000 );
#344 = VERTEX_POINT( '', #407 );
#345 = CIRCLE( '', #408, 7.20000000000000 );
#346 = FILL_AREA_STYLE_COLOUR( '', #409 );
#347 = VERTEX_POINT( '', #410 );
#348 = CIRCLE( '', #411, 7.20000000000000 );
#349 = FILL_AREA_STYLE_COLOUR( '', #412 );
#350 = VERTEX_POINT( '', #413 );
#351 = VERTEX_POINT( '', #414 );
#352 = CIRCLE( '', #415, 8.46650000000000 );
#353 = LINE( '', #416, #417 );
#354 = FILL_AREA_STYLE_COLOUR( '', #418 );
#355 = B_SPLINE_CURVE_WITH_KNOTS( '', 3, ( #419, #420, #421, #422 ), .UNSPECIFIED., .F., .F., ( 4, 4 ), ( 0.0170363399290314, 0.0192102676191475 ), .UNSPECIFIED. );
#356 = B_SPLINE_CURVE_WITH_KNOTS( '', 3, ( #423, #424, #425, #426 ), .UNSPECIFIED., .F., .F., ( 4, 4 ), ( 0.0420335464893133, 0.0442124251860489 ), .UNSPECIFIED. );
#357 = FILL_AREA_STYLE_COLOUR( '', #427 );
#358 = LINE( '', #428, #429 );
#359 = LINE( '', #430, #431 );
#360 = FILL_AREA_STYLE_COLOUR( '', #432 );
#361 = FILL_AREA_STYLE_COLOUR( '', #433 );
#362 = LINE( '', #434, #435 );
#363 = FILL_AREA_STYLE_COLOUR( '', #436 );
#364 = FILL_AREA_STYLE_COLOUR( '', #437 );
#365 = FILL_AREA_STYLE_COLOUR( '', #438 );
#366 = COLOUR_RGB( '', 0.689999997600000, 0.689999997600000, 0.689999997600000 );
#367 = CARTESIAN_POINT( '', ( 111.000000000000, 9.99999999999998, 0.000000000000000 ) );
#368 = AXIS2_PLACEMENT_3D( '', #439, #440, #441 );
#369 = CARTESIAN_POINT( '', ( 1.53349999999999, -0.900000000000004, 9.95941765365827 ) );
#370 = CARTESIAN_POINT( '', ( 1.53349999999999, -0.900000000000004, -9.95941765365827 ) );
#371 = AXIS2_PLACEMENT_3D( '', #442, #443, #444 );
#372 = CARTESIAN_POINT( '', ( 2.99999999999999, -0.900000000000012, -9.95941765365827 ) );
#373 = CARTESIAN_POINT( '', ( 125.000000000000, -0.900000000000012, -9.95941765365827 ) );
#374 = VECTOR( '', #445, 1000.00000000000 );
#375 = CARTESIAN_POINT( '', ( 2.99999999999999, 0.899999999999988, -9.95941765365827 ) );
#376 = AXIS2_PLACEMENT_3D( '', #446, #447, #448 );
#377 = CARTESIAN_POINT( '', ( 1.53349999999999, 0.899999999999996, -9.95941765365827 ) );
#378 = CARTESIAN_POINT( '', ( 125.000000000000, 0.899999999999988, -9.95941765365827 ) );
#379 = VECTOR( '', #449, 1000.00000000000 );
#380 = CARTESIAN_POINT( '', ( 1.53349999999999, 0.899999999999996, 9.95941765365827 ) );
#381 = AXIS2_PLACEMENT_3D( '', #450, #451, #452 );
#382 = CARTESIAN_POINT( '', ( 2.99999999999999, 0.899999999999988, 9.95941765365827 ) );
#383 = CARTESIAN_POINT( '', ( 125.000000000000, 0.899999999999988, 9.95941765365827 ) );
#384 = VECTOR( '', #453, 1000.00000000000 );
#385 = CARTESIAN_POINT( '', ( 2.99999999999999, -0.900000000000012, 9.95941765365827 ) );
#386 = AXIS2_PLACEMENT_3D( '', #454, #455, #456 );
#387 = CARTESIAN_POINT( '', ( 125.000000000000, -0.900000000000012, 9.95941765365827 ) );
#388 = VECTOR( '', #457, 1000.00000000000 );
#389 = COLOUR_RGB( '', 0.689999997600000, 0.689999997600000, 0.689999997600000 );
#390 = CARTESIAN_POINT( '', ( 122.437276042283, 7.74999999999998, 0.000000000000000 ) );
#391 = AXIS2_PLACEMENT_3D( '', #458, #459, #460 );
#392 = COLOUR_RGB( '', 0.689999997600000, 0.689999997600000, 0.689999997600000 );
#393 = CARTESIAN_POINT( '', ( -1.42108547152020E-14, 0.899999999999988, -8.41852850859341 ) );
#394 = CARTESIAN_POINT( '', ( -1.42108547152020E-14, 0.899999999999988, 8.41852850859341 ) );
#395 = AXIS2_PLACEMENT_3D( '', #461, #462, #463 );
#396 = CARTESIAN_POINT( '', ( -1.70700571864519E-14, 0.899999999999988, 8.41852850859341 ) );
#397 = CARTESIAN_POINT( '', ( 0.510941899449493, 0.899999999999988, 8.93238191982478 ) );
#398 = CARTESIAN_POINT( '', ( 1.02214318709473, 0.899999999999988, 9.44597717883551 ) );
#399 = CARTESIAN_POINT( '', ( 1.53349999999998, 0.899999999999988, 9.95941765365827 ) );
#400 = CARTESIAN_POINT( '', ( 1.53349999999998, 0.899999999999988, -9.95941765365827 ) );
#401 = CARTESIAN_POINT( '', ( 1.02214317772919, 0.899999999999988, -9.44597716943180 ) );
#402 = CARTESIAN_POINT( '', ( 0.510941888387706, 0.899999999999988, -8.93238190869996 ) );
#403 = CARTESIAN_POINT( '', ( -1.13101637653488E-14, 0.899999999999988, -8.41852850859341 ) );
#404 = COLOUR_RGB( '', 0.689999997600000, 0.689999997600000, 0.689999997600000 );
#405 = CARTESIAN_POINT( '', ( 119.500000000000, 7.74999999999998, 0.000000000000000 ) );
#406 = AXIS2_PLACEMENT_3D( '', #464, #465, #466 );
#407 = CARTESIAN_POINT( '', ( 119.500000000000, 7.19999999999998, 0.000000000000000 ) );
#408 = AXIS2_PLACEMENT_3D( '', #467, #468, #469 );
#409 = COLOUR_RGB( '', 0.689999997600000, 0.689999997600000, 0.689999997600000 );
#410 = CARTESIAN_POINT( '', ( 112.347220000000, 7.19999999999998, 0.000000000000000 ) );
#411 = AXIS2_PLACEMENT_3D( '', #470, #471, #472 );
#412 = COLOUR_RGB( '', 0.689999997600000, 0.689999997600000, 0.689999997600000 );
#413 = CARTESIAN_POINT( '', ( -1.42108547152020E-14, -0.900000000000012, 8.41852850859341 ) );
#414 = CARTESIAN_POINT( '', ( -1.42108547152020E-14, -0.900000000000012, -8.41852850859341 ) );
#415 = AXIS2_PLACEMENT_3D( '', #473, #474, #475 );
#416 = CARTESIAN_POINT( '', ( -1.42108547152020E-14, -0.900000000000012, -10.5000000000000 ) );
#417 = VECTOR( '', #476, 1000.00000000000 );
#418 = COLOUR_RGB( '', 0.689999997600000, 0.689999997600000, 0.689999997600000 );
#419 = CARTESIAN_POINT( '', ( 1.53349999999999, -0.900000000000012, 9.95941765365828 ) );
#420 = CARTESIAN_POINT( '', ( 1.02214317772919, -0.900000000000012, 9.44597716943181 ) );
#421 = CARTESIAN_POINT( '', ( 0.510941888387704, -0.900000000000012, 8.93238190869996 ) );
#422 = CARTESIAN_POINT( '', ( -1.57052458301803E-14, -0.900000000000012, 8.41852850859341 ) );
#423 = CARTESIAN_POINT( '', ( -1.69103246552106E-14, -0.900000000000012, -8.41852850859341 ) );
#424 = CARTESIAN_POINT( '', ( 0.510941899449493, -0.900000000000012, -8.93238191982478 ) );
#425 = CARTESIAN_POINT( '', ( 1.02214318709473, -0.900000000000012, -9.44597717883551 ) );
#426 = CARTESIAN_POINT( '', ( 1.53349999999999, -0.900000000000012, -9.95941765365828 ) );
#427 = COLOUR_RGB( '', 0.689999997600000, 0.689999997600000, 0.689999997600000 );
#428 = CARTESIAN_POINT( '', ( 2.99999999999999, -0.900000000000012, -10.5000000000000 ) );
#429 = VECTOR( '', #477, 1000.00000000000 );
#430 = CARTESIAN_POINT( '', ( 2.99999999999999, 0.899999999999988, 10.5000000000000 ) );
#431 = VECTOR( '', #478, 1000.00000000000 );
#432 = COLOUR_RGB( '', 0.689999997600000, 0.689999997600000, 0.689999997600000 );
#433 = COLOUR_RGB( '', 0.689999997600000, 0.689999997600000, 0.689999997600000 );
#434 = CARTESIAN_POINT( '', ( -1.42108547152020E-14, 0.899999999999988, 10.5000000000000 ) );
#435 = VECTOR( '', #479, 1000.00000000000 );
#436 = COLOUR_RGB( '', 0.689999997600000, 0.689999997600000, 0.689999997600000 );
#437 = COLOUR_RGB( '', 0.689999997600000, 0.689999997600000, 0.689999997600000 );
#438 = COLOUR_RGB( '', 0.689999997600000, 0.689999997600000, 0.689999997600000 );
#439 = CARTESIAN_POINT( '', ( 111.000000000000, -1.86826724739996E-14, 0.000000000000000 ) );
#440 = DIRECTION( '', ( 1.00000000000000, -6.12323399573676E-17, -0.000000000000000 ) );
#441 = DIRECTION( '', ( 6.12323399573676E-17, 1.00000000000000, 0.000000000000000 ) );
#442 = CARTESIAN_POINT( '', ( 1.53349999999998, -1.19797825320564E-14, 0.000000000000000 ) );
#443 = DIRECTION( '', ( 1.00000000000000, -6.12323399573676E-17, -0.000000000000000 ) );
#444 = DIRECTION( '', ( 6.12323399573676E-17, 1.00000000000000, 0.000000000000000 ) );
#445 = DIRECTION( '', ( 1.00000000000000, -6.12323399573676E-17, -0.000000000000000 ) );
#446 = CARTESIAN_POINT( '', ( 2.99999999999999, -1.20695797586039E-14, 0.000000000000000 ) );
#447 = DIRECTION( '', ( -1.00000000000000, 0.000000000000000, 0.000000000000000 ) );
#448 = DIRECTION( '', ( 0.000000000000000, 0.000000000000000, 1.00000000000000 ) );
#449 = DIRECTION( '', ( 1.00000000000000, -6.12323399573676E-17, -0.000000000000000 ) );
#450 = CARTESIAN_POINT( '', ( 1.53349999999998, -1.19797825320564E-14, 0.000000000000000 ) );
#451 = DIRECTION( '', ( 1.00000000000000, -6.12323399573676E-17, -0.000000000000000 ) );
#452 = DIRECTION( '', ( 6.12323399573676E-17, 1.00000000000000, 0.000000000000000 ) );
#453 = DIRECTION( '', ( 1.00000000000000, -6.12323399573676E-17, -0.000000000000000 ) );
#454 = CARTESIAN_POINT( '', ( 2.99999999999999, -1.20695797586039E-14, 0.000000000000000 ) );
#455 = DIRECTION( '', ( -1.00000000000000, 0.000000000000000, 0.000000000000000 ) );
#456 = DIRECTION( '', ( 0.000000000000000, 0.000000000000000, 1.00000000000000 ) );
#457 = DIRECTION( '', ( 1.00000000000000, -6.12323399573676E-17, -0.000000000000000 ) );
#458 = CARTESIAN_POINT( '', ( 122.437276042283, -1.93830036488069E-14, 0.000000000000000 ) );
#459 = DIRECTION( '', ( 1.00000000000000, -6.12323399573676E-17, -0.000000000000000 ) );
#460 = DIRECTION( '', ( 6.12323399573676E-17, 1.00000000000000, 0.000000000000000 ) );
#461 = CARTESIAN_POINT( '', ( -1.38777878078145E-14, -1.18858827387318E-14, 0.000000000000000 ) );
#462 = DIRECTION( '', ( 1.00000000000000, -6.12323399573677E-17, -0.000000000000000 ) );
#463 = DIRECTION( '', ( 6.12323399573677E-17, 1.00000000000000, 0.000000000000000 ) );
#464 = CARTESIAN_POINT( '', ( 119.500000000000, -1.92031473636372E-14, 0.000000000000000 ) );
#465 = DIRECTION( '', ( 1.00000000000000, -6.12323399573676E-17, -0.000000000000000 ) );
#466 = DIRECTION( '', ( 6.12323399573676E-17, 1.00000000000000, 0.000000000000000 ) );
#467 = CARTESIAN_POINT( '', ( 119.500000000000, -1.92031473636372E-14, 0.000000000000000 ) );
#468 = DIRECTION( '', ( 1.00000000000000, -6.12323399573676E-17, -0.000000000000000 ) );
#469 = DIRECTION( '', ( 6.12323399573676E-17, 1.00000000000000, 0.000000000000000 ) );
#470 = CARTESIAN_POINT( '', ( 112.347220000000, -1.87651659070370E-14, 0.000000000000000 ) );
#471 = DIRECTION( '', ( 1.00000000000000, -6.12323399573676E-17, -0.000000000000000 ) );
#472 = DIRECTION( '', ( 6.12323399573676E-17, 1.00000000000000, 0.000000000000000 ) );
#473 = CARTESIAN_POINT( '', ( -1.38777878078145E-14, -1.18858827387318E-14, 0.000000000000000 ) );
#474 = DIRECTION( '', ( 1.00000000000000, -6.12323399573677E-17, -0.000000000000000 ) );
#475 = DIRECTION( '', ( 6.12323399573677E-17, 1.00000000000000, 0.000000000000000 ) );
#476 = DIRECTION( '', ( 0.000000000000000, 0.000000000000000, 1.00000000000000 ) );
#477 = DIRECTION( '', ( 0.000000000000000, 0.000000000000000, 1.00000000000000 ) );
#478 = DIRECTION( '', ( 0.000000000000000, 0.000000000000000, -1.00000000000000 ) );
#479 = DIRECTION( '', ( 0.000000000000000, 0.000000000000000, -1.00000000000000 ) );
ENDSEC;
END-ISO-10303-21;
