ISO-10303-21;
HEADER;
FILE_DESCRIPTION( ( 'STEP AP214' ), '1' );
FILE_NAME( '//goodhand-server/Shared Folders/GoodHand Data/Kipp CAD/K0163/K0163.1100X10.stp', '2020-11-26T10:29:40', ( '' ), ( '' ), ' ', 'PARTsolutions', ' ' );
FILE_SCHEMA( ( 'AUTOMOTIVE_DESIGN { 1 0 10303 214 1 1 1 1 }' ) );
ENDSEC;
DATA;
#1 = MECHANICAL_DESIGN_GEOMETRIC_PRESENTATION_REPRESENTATION( ' ', ( #10, #11, #12, #13, #14, #15, #16, #17, #18, #19, #20, #21, #22, #23, #24 ), #6 );
#2 = PRODUCT_DEFINITION_CONTEXT( '', #25, 'design' );
#3 = APPLICATION_PROTOCOL_DEFINITION( 'international standard', 'automotive_design', 2001, #25 );
#4 = PRODUCT_CATEGORY_RELATIONSHIP( 'NONE', 'NONE', #26, #27 );
#5 = SHAPE_DEFINITION_REPRESENTATION( #28, #29 );
#6 =  ( GEOMETRIC_REPRESENTATION_CONTEXT( 3 )GLOBAL_UNCERTAINTY_ASSIGNED_CONTEXT( ( #32 ) )GLOBAL_UNIT_ASSIGNED_CONTEXT( ( #34, #35, #36 ) )REPRESENTATION_CONTEXT( 'NONE', 'WORKSPACE' ) );
#10 = STYLED_ITEM( '', ( #38 ), #39 );
#11 = STYLED_ITEM( '', ( #40 ), #41 );
#12 = STYLED_ITEM( '', ( #42 ), #43 );
#13 = STYLED_ITEM( '', ( #44 ), #45 );
#14 = STYLED_ITEM( '', ( #46 ), #47 );
#15 = STYLED_ITEM( '', ( #48 ), #49 );
#16 = STYLED_ITEM( '', ( #50 ), #51 );
#17 = STYLED_ITEM( '', ( #52 ), #53 );
#18 = STYLED_ITEM( '', ( #54 ), #55 );
#19 = STYLED_ITEM( '', ( #56 ), #57 );
#20 = STYLED_ITEM( '', ( #58 ), #59 );
#21 = STYLED_ITEM( '', ( #60 ), #61 );
#22 = STYLED_ITEM( '', ( #62 ), #63 );
#23 = STYLED_ITEM( '', ( #64 ), #65 );
#24 = STYLED_ITEM( '', ( #66 ), #67 );
#25 = APPLICATION_CONTEXT( 'core data for automotive mechanical design processes' );
#26 = PRODUCT_CATEGORY( 'part', 'NONE' );
#27 = PRODUCT_RELATED_PRODUCT_CATEGORY( 'detail', ' ', ( #68 ) );
#28 = PRODUCT_DEFINITION_SHAPE( 'NONE', 'NONE', #69 );
#29 = ADVANCED_BREP_SHAPE_REPRESENTATION( '_K0163.1100X10', ( #70, #71 ), #6 );
#32 = UNCERTAINTY_MEASURE_WITH_UNIT( LENGTH_MEASURE( 0.00100000000000000 ), #34, '', '' );
#34 =  ( CONVERSION_BASED_UNIT( 'MILLIMETRE', #74 )LENGTH_UNIT(  )NAMED_UNIT( #77 ) );
#35 =  ( NAMED_UNIT( #79 )PLANE_ANGLE_UNIT(  )SI_UNIT( $, .RADIAN. ) );
#36 =  ( NAMED_UNIT( #79 )SI_UNIT( $, .STERADIAN. )SOLID_ANGLE_UNIT(  ) );
#38 = PRESENTATION_STYLE_ASSIGNMENT( ( #85 ) );
#39 = ADVANCED_FACE( '', ( #86, #87 ), #88, .F. );
#40 = PRESENTATION_STYLE_ASSIGNMENT( ( #89 ) );
#41 = ADVANCED_FACE( '', ( #90, #91 ), #92, .F. );
#42 = PRESENTATION_STYLE_ASSIGNMENT( ( #93 ) );
#43 = ADVANCED_FACE( '', ( #94, #95 ), #96, .F. );
#44 = PRESENTATION_STYLE_ASSIGNMENT( ( #97 ) );
#45 = ADVANCED_FACE( '', ( #98, #99, #100 ), #101, .T. );
#46 = PRESENTATION_STYLE_ASSIGNMENT( ( #102 ) );
#47 = ADVANCED_FACE( '', ( #103, #104 ), #105, .F. );
#48 = PRESENTATION_STYLE_ASSIGNMENT( ( #106 ) );
#49 = ADVANCED_FACE( '', ( #107 ), #108, .T. );
#50 = PRESENTATION_STYLE_ASSIGNMENT( ( #109 ) );
#51 = ADVANCED_FACE( '', ( #110, #111 ), #112, .F. );
#52 = PRESENTATION_STYLE_ASSIGNMENT( ( #113 ) );
#53 = ADVANCED_FACE( '', ( #114 ), #115, .T. );
#54 = PRESENTATION_STYLE_ASSIGNMENT( ( #116 ) );
#55 = ADVANCED_FACE( '', ( #117, #118 ), #119, .T. );
#56 = PRESENTATION_STYLE_ASSIGNMENT( ( #120 ) );
#57 = ADVANCED_FACE( '', ( #121 ), #122, .F. );
#58 = PRESENTATION_STYLE_ASSIGNMENT( ( #123 ) );
#59 = ADVANCED_FACE( '', ( #124 ), #125, .T. );
#60 = PRESENTATION_STYLE_ASSIGNMENT( ( #126 ) );
#61 = ADVANCED_FACE( '', ( #127, #128 ), #129, .F. );
#62 = PRESENTATION_STYLE_ASSIGNMENT( ( #130 ) );
#63 = ADVANCED_FACE( '', ( #131, #132 ), #133, .T. );
#64 = PRESENTATION_STYLE_ASSIGNMENT( ( #134 ) );
#65 = ADVANCED_FACE( '', ( #135, #136 ), #137, .T. );
#66 = PRESENTATION_STYLE_ASSIGNMENT( ( #138 ) );
#67 = ADVANCED_FACE( '', ( #139, #140 ), #141, .T. );
#68 = PRODUCT( '_K0163.1100X10', '_K0163.1100X10', 'PART-_K0163.1100X10-DESC', ( #142 ) );
#69 = PRODUCT_DEFINITION( 'NONE', 'NONE', #143, #2 );
#70 = MANIFOLD_SOLID_BREP( '_K0163.1100X10', #144 );
#71 = AXIS2_PLACEMENT_3D( '', #145, #146, #147 );
#74 = LENGTH_MEASURE_WITH_UNIT( LENGTH_MEASURE( 1.00000000000000 ), #148 );
#77 = DIMENSIONAL_EXPONENTS( 1.00000000000000, 0.000000000000000, 0.000000000000000, 0.000000000000000, 0.000000000000000, 0.000000000000000, 0.000000000000000 );
#79 = DIMENSIONAL_EXPONENTS( 0.000000000000000, 0.000000000000000, 0.000000000000000, 0.000000000000000, 0.000000000000000, 0.000000000000000, 0.000000000000000 );
#85 = SURFACE_STYLE_USAGE( .BOTH., #149 );
#86 = FACE_OUTER_BOUND( '', #150, .T. );
#87 = FACE_BOUND( '', #151, .T. );
#88 = CONICAL_SURFACE( '', #152, 39.5000000000000, 0.185379756300000 );
#89 = SURFACE_STYLE_USAGE( .BOTH., #153 );
#90 = FACE_OUTER_BOUND( '', #154, .T. );
#91 = FACE_BOUND( '', #155, .T. );
#92 = CONICAL_SURFACE( '', #156, 14.0000000000000, 1.08517423350000 );
#93 = SURFACE_STYLE_USAGE( .BOTH., #157 );
#94 = FACE_BOUND( '', #158, .T. );
#95 = FACE_OUTER_BOUND( '', #159, .T. );
#96 = PLANE( '', #160 );
#97 = SURFACE_STYLE_USAGE( .BOTH., #161 );
#98 = FACE_BOUND( '', #162, .T. );
#99 = FACE_OUTER_BOUND( '', #163, .T. );
#100 = FACE_OUTER_BOUND( '', #164, .T. );
#101 = TOROIDAL_SURFACE( '', #165, 42.2500000000000, 7.75000000000000 );
#102 = SURFACE_STYLE_USAGE( .BOTH., #166 );
#103 = FACE_OUTER_BOUND( '', #167, .T. );
#104 = FACE_BOUND( '', #168, .T. );
#105 = PLANE( '', #169 );
#106 = SURFACE_STYLE_USAGE( .BOTH., #170 );
#107 = FACE_OUTER_BOUND( '', #171, .T. );
#108 = PLANE( '', #172 );
#109 = SURFACE_STYLE_USAGE( .BOTH., #173 );
#110 = FACE_BOUND( '', #174, .T. );
#111 = FACE_OUTER_BOUND( '', #175, .T. );
#112 = CONICAL_SURFACE( '', #176, 41.0000000000000, 0.507793112000000 );
#113 = SURFACE_STYLE_USAGE( .BOTH., #177 );
#114 = FACE_OUTER_BOUND( '', #178, .T. );
#115 = PLANE( '', #179 );
#116 = SURFACE_STYLE_USAGE( .BOTH., #180 );
#117 = FACE_OUTER_BOUND( '', #181, .T. );
#118 = FACE_OUTER_BOUND( '', #182, .T. );
#119 = TOROIDAL_SURFACE( '', #183, 40.7016896883000, 10.0000000000000 );
#120 = SURFACE_STYLE_USAGE( .BOTH., #184 );
#121 = FACE_OUTER_BOUND( '', #185, .T. );
#122 = CYLINDRICAL_SURFACE( '', #186, 5.00000000000000 );
#123 = SURFACE_STYLE_USAGE( .BOTH., #187 );
#124 = FACE_OUTER_BOUND( '', #188, .T. );
#125 = PLANE( '', #189 );
#126 = SURFACE_STYLE_USAGE( .BOTH., #190 );
#127 = FACE_BOUND( '', #191, .T. );
#128 = FACE_OUTER_BOUND( '', #192, .T. );
#129 = CONICAL_SURFACE( '', #193, 40.5000000000000, 1.07685495790000 );
#130 = SURFACE_STYLE_USAGE( .BOTH., #194 );
#131 = FACE_OUTER_BOUND( '', #195, .T. );
#132 = FACE_OUTER_BOUND( '', #196, .T. );
#133 = CYLINDRICAL_SURFACE( '', #197, 14.0000000000000 );
#134 = SURFACE_STYLE_USAGE( .BOTH., #198 );
#135 = FACE_OUTER_BOUND( '', #199, .T. );
#136 = FACE_OUTER_BOUND( '', #200, .T. );
#137 = CYLINDRICAL_SURFACE( '', #201, 14.0000000000000 );
#138 = SURFACE_STYLE_USAGE( .BOTH., #202 );
#139 = FACE_BOUND( '', #203, .T. );
#140 = FACE_OUTER_BOUND( '', #204, .T. );
#141 = CONICAL_SURFACE( '', #205, 34.0000000000000, 1.06795311590000 );
#142 = PRODUCT_CONTEXT( '', #25, 'mechanical' );
#143 = PRODUCT_DEFINITION_FORMATION_WITH_SPECIFIED_SOURCE( ' ', 'NONE', #68, .NOT_KNOWN. );
#144 = CLOSED_SHELL( '', ( #47, #49, #53, #57, #59, #43, #63, #67, #61, #51, #45, #39, #55, #41, #65 ) );
#145 = CARTESIAN_POINT( '', ( 0.000000000000000, 0.000000000000000, 0.000000000000000 ) );
#146 = DIRECTION( '', ( 0.000000000000000, 0.000000000000000, 1.00000000000000 ) );
#147 = DIRECTION( '', ( 1.00000000000000, 0.000000000000000, 0.000000000000000 ) );
#148 =  ( LENGTH_UNIT(  )NAMED_UNIT( #77 )SI_UNIT( .MILLI., .METRE. ) );
#149 = SURFACE_SIDE_STYLE( '', ( #207 ) );
#150 = EDGE_LOOP( '', ( #208 ) );
#151 = EDGE_LOOP( '', ( #209 ) );
#152 = AXIS2_PLACEMENT_3D( '', #210, #211, #212 );
#153 = SURFACE_SIDE_STYLE( '', ( #213 ) );
#154 = EDGE_LOOP( '', ( #214 ) );
#155 = EDGE_LOOP( '', ( #215 ) );
#156 = AXIS2_PLACEMENT_3D( '', #216, #217, #218 );
#157 = SURFACE_SIDE_STYLE( '', ( #219 ) );
#158 = EDGE_LOOP( '', ( #220, #221, #222, #223 ) );
#159 = EDGE_LOOP( '', ( #224 ) );
#160 = AXIS2_PLACEMENT_3D( '', #225, #226, #227 );
#161 = SURFACE_SIDE_STYLE( '', ( #228 ) );
#162 = VERTEX_LOOP( '', #229 );
#163 = EDGE_LOOP( '', ( #230 ) );
#164 = EDGE_LOOP( '', ( #231 ) );
#165 = AXIS2_PLACEMENT_3D( '', #232, #233, #234 );
#166 = SURFACE_SIDE_STYLE( '', ( #235 ) );
#167 = EDGE_LOOP( '', ( #236 ) );
#168 = EDGE_LOOP( '', ( #237, #238, #239, #240 ) );
#169 = AXIS2_PLACEMENT_3D( '', #241, #242, #243 );
#170 = SURFACE_SIDE_STYLE( '', ( #244 ) );
#171 = EDGE_LOOP( '', ( #245, #246, #247, #248 ) );
#172 = AXIS2_PLACEMENT_3D( '', #249, #250, #251 );
#173 = SURFACE_SIDE_STYLE( '', ( #252 ) );
#174 = EDGE_LOOP( '', ( #253 ) );
#175 = EDGE_LOOP( '', ( #254 ) );
#176 = AXIS2_PLACEMENT_3D( '', #255, #256, #257 );
#177 = SURFACE_SIDE_STYLE( '', ( #258 ) );
#178 = EDGE_LOOP( '', ( #259, #260, #261, #262 ) );
#179 = AXIS2_PLACEMENT_3D( '', #263, #264, #265 );
#180 = SURFACE_SIDE_STYLE( '', ( #266 ) );
#181 = EDGE_LOOP( '', ( #267 ) );
#182 = EDGE_LOOP( '', ( #268 ) );
#183 = AXIS2_PLACEMENT_3D( '', #269, #270, #271 );
#184 = SURFACE_SIDE_STYLE( '', ( #272 ) );
#185 = EDGE_LOOP( '', ( #273, #274, #275, #276 ) );
#186 = AXIS2_PLACEMENT_3D( '', #277, #278, #279 );
#187 = SURFACE_SIDE_STYLE( '', ( #280 ) );
#188 = EDGE_LOOP( '', ( #281, #282, #283, #284 ) );
#189 = AXIS2_PLACEMENT_3D( '', #285, #286, #287 );
#190 = SURFACE_SIDE_STYLE( '', ( #288 ) );
#191 = EDGE_LOOP( '', ( #289 ) );
#192 = EDGE_LOOP( '', ( #290 ) );
#193 = AXIS2_PLACEMENT_3D( '', #291, #292, #293 );
#194 = SURFACE_SIDE_STYLE( '', ( #294 ) );
#195 = EDGE_LOOP( '', ( #295 ) );
#196 = EDGE_LOOP( '', ( #296 ) );
#197 = AXIS2_PLACEMENT_3D( '', #297, #298, #299 );
#198 = SURFACE_SIDE_STYLE( '', ( #300 ) );
#199 = EDGE_LOOP( '', ( #301 ) );
#200 = EDGE_LOOP( '', ( #302 ) );
#201 = AXIS2_PLACEMENT_3D( '', #303, #304, #305 );
#202 = SURFACE_SIDE_STYLE( '', ( #306 ) );
#203 = EDGE_LOOP( '', ( #307 ) );
#204 = EDGE_LOOP( '', ( #308 ) );
#205 = AXIS2_PLACEMENT_3D( '', #309, #310, #311 );
#207 = SURFACE_STYLE_FILL_AREA( #312 );
#208 = ORIENTED_EDGE( '', *, *, #313, .F. );
#209 = ORIENTED_EDGE( '', *, *, #314, .T. );
#210 = CARTESIAN_POINT( '', ( 28.0000000000000, 0.000000000000000, 0.000000000000000 ) );
#211 = DIRECTION( '', ( 1.00000000000000, -0.000000000000000, 0.000000000000000 ) );
#212 = DIRECTION( '', ( 0.000000000000000, 0.000000000000000, -1.00000000000000 ) );
#213 = SURFACE_STYLE_FILL_AREA( #315 );
#214 = ORIENTED_EDGE( '', *, *, #316, .F. );
#215 = ORIENTED_EDGE( '', *, *, #317, .T. );
#216 = CARTESIAN_POINT( '', ( 13.5000000000000, 0.000000000000000, 0.000000000000000 ) );
#217 = DIRECTION( '', ( 1.00000000000000, -0.000000000000000, 0.000000000000000 ) );
#218 = DIRECTION( '', ( 0.000000000000000, 0.000000000000000, -1.00000000000000 ) );
#219 = SURFACE_STYLE_FILL_AREA( #318 );
#220 = ORIENTED_EDGE( '', *, *, #319, .T. );
#221 = ORIENTED_EDGE( '', *, *, #320, .F. );
#222 = ORIENTED_EDGE( '', *, *, #321, .T. );
#223 = ORIENTED_EDGE( '', *, *, #322, .T. );
#224 = ORIENTED_EDGE( '', *, *, #323, .T. );
#225 = CARTESIAN_POINT( '', ( 0.000000000000000, -14.0000000000000, 0.000000000000000 ) );
#226 = DIRECTION( '', ( 1.00000000000000, 0.000000000000000, 0.000000000000000 ) );
#227 = DIRECTION( '', ( 0.000000000000000, 0.000000000000000, -1.00000000000000 ) );
#228 = SURFACE_STYLE_FILL_AREA( #324 );
#229 = VERTEX_POINT( '', #325 );
#230 = ORIENTED_EDGE( '', *, *, #313, .T. );
#231 = ORIENTED_EDGE( '', *, *, #326, .F. );
#232 = CARTESIAN_POINT( '', ( 23.2500000000000, 0.000000000000000, 0.000000000000000 ) );
#233 = DIRECTION( '', ( -1.00000000000000, 0.000000000000000, 0.000000000000000 ) );
#234 = DIRECTION( '', ( 0.000000000000000, 0.000000000000000, 1.00000000000000 ) );
#235 = SURFACE_STYLE_FILL_AREA( #327 );
#236 = ORIENTED_EDGE( '', *, *, #328, .F. );
#237 = ORIENTED_EDGE( '', *, *, #329, .F. );
#238 = ORIENTED_EDGE( '', *, *, #330, .F. );
#239 = ORIENTED_EDGE( '', *, *, #331, .F. );
#240 = ORIENTED_EDGE( '', *, *, #332, .F. );
#241 = CARTESIAN_POINT( '', ( 17.0000000000000, 0.000000000000000, 0.000000000000000 ) );
#242 = DIRECTION( '', ( -1.00000000000000, 0.000000000000000, 0.000000000000000 ) );
#243 = DIRECTION( '', ( 0.000000000000000, 0.000000000000000, 1.00000000000000 ) );
#244 = SURFACE_STYLE_FILL_AREA( #333 );
#245 = ORIENTED_EDGE( '', *, *, #330, .T. );
#246 = ORIENTED_EDGE( '', *, *, #334, .T. );
#247 = ORIENTED_EDGE( '', *, *, #322, .F. );
#248 = ORIENTED_EDGE( '', *, *, #335, .F. );
#249 = CARTESIAN_POINT( '', ( 25.5000000000000, 6.40000000000000, -1.49999999999999 ) );
#250 = DIRECTION( '', ( 0.000000000000000, -1.00000000000000, 0.000000000000000 ) );
#251 = DIRECTION( '', ( 0.000000000000000, 0.000000000000000, -1.00000000000000 ) );
#252 = SURFACE_STYLE_FILL_AREA( #336 );
#253 = ORIENTED_EDGE( '', *, *, #337, .F. );
#254 = ORIENTED_EDGE( '', *, *, #326, .T. );
#255 = CARTESIAN_POINT( '', ( 15.6014707296108, 0.000000000000000, 0.000000000000000 ) );
#256 = DIRECTION( '', ( -1.00000000000000, -0.000000000000000, -0.000000000000000 ) );
#257 = DIRECTION( '', ( 0.000000000000000, 0.000000000000000, 1.00000000000000 ) );
#258 = SURFACE_STYLE_FILL_AREA( #338 );
#259 = ORIENTED_EDGE( '', *, *, #331, .T. );
#260 = ORIENTED_EDGE( '', *, *, #335, .T. );
#261 = ORIENTED_EDGE( '', *, *, #321, .F. );
#262 = ORIENTED_EDGE( '', *, *, #339, .F. );
#263 = CARTESIAN_POINT( '', ( 25.5000000000000, 4.76969600708473, -1.50000000000000 ) );
#264 = DIRECTION( '', ( 0.000000000000000, -4.38920248585579E-15, 1.00000000000000 ) );
#265 = DIRECTION( '', ( 0.000000000000000, -1.00000000000000, -4.38920248585579E-15 ) );
#266 = SURFACE_STYLE_FILL_AREA( #340 );
#267 = ORIENTED_EDGE( '', *, *, #316, .T. );
#268 = ORIENTED_EDGE( '', *, *, #314, .F. );
#269 = CARTESIAN_POINT( '', ( 18.0724654675479, 0.000000000000000, 0.000000000000000 ) );
#270 = DIRECTION( '', ( -1.00000000000000, 0.000000000000000, 0.000000000000000 ) );
#271 = DIRECTION( '', ( 0.000000000000000, 0.000000000000000, 1.00000000000000 ) );
#272 = SURFACE_STYLE_FILL_AREA( #341 );
#273 = ORIENTED_EDGE( '', *, *, #332, .T. );
#274 = ORIENTED_EDGE( '', *, *, #339, .T. );
#275 = ORIENTED_EDGE( '', *, *, #320, .T. );
#276 = ORIENTED_EDGE( '', *, *, #342, .F. );
#277 = CARTESIAN_POINT( '', ( 25.5000000000000, -9.89334482393023E-16, 0.000000000000000 ) );
#278 = DIRECTION( '', ( 1.00000000000000, -0.000000000000000, -0.000000000000000 ) );
#279 = DIRECTION( '', ( 0.000000000000000, 0.000000000000000, 1.00000000000000 ) );
#280 = SURFACE_STYLE_FILL_AREA( #343 );
#281 = ORIENTED_EDGE( '', *, *, #329, .T. );
#282 = ORIENTED_EDGE( '', *, *, #342, .T. );
#283 = ORIENTED_EDGE( '', *, *, #319, .F. );
#284 = ORIENTED_EDGE( '', *, *, #334, .F. );
#285 = CARTESIAN_POINT( '', ( 25.5000000000000, 6.40000000000000, 1.50000000000000 ) );
#286 = DIRECTION( '', ( 0.000000000000000, 0.000000000000000, -1.00000000000000 ) );
#287 = DIRECTION( '', ( -1.00000000000000, 0.000000000000000, 0.000000000000000 ) );
#288 = SURFACE_STYLE_FILL_AREA( #344 );
#289 = ORIENTED_EDGE( '', *, *, #345, .F. );
#290 = ORIENTED_EDGE( '', *, *, #337, .T. );
#291 = CARTESIAN_POINT( '', ( 16.5000000000000, 0.000000000000000, 0.000000000000000 ) );
#292 = DIRECTION( '', ( -1.00000000000000, -0.000000000000000, -0.000000000000000 ) );
#293 = DIRECTION( '', ( 0.000000000000000, 0.000000000000000, 1.00000000000000 ) );
#294 = SURFACE_STYLE_FILL_AREA( #346 );
#295 = ORIENTED_EDGE( '', *, *, #323, .F. );
#296 = ORIENTED_EDGE( '', *, *, #347, .T. );
#297 = CARTESIAN_POINT( '', ( 0.000000000000000, 0.000000000000000, 0.000000000000000 ) );
#298 = DIRECTION( '', ( 1.00000000000000, -0.000000000000000, -0.000000000000000 ) );
#299 = DIRECTION( '', ( 0.000000000000000, 0.000000000000000, 1.00000000000000 ) );
#300 = SURFACE_STYLE_FILL_AREA( #348 );
#301 = ORIENTED_EDGE( '', *, *, #317, .F. );
#302 = ORIENTED_EDGE( '', *, *, #328, .T. );
#303 = CARTESIAN_POINT( '', ( 0.000000000000000, 0.000000000000000, 0.000000000000000 ) );
#304 = DIRECTION( '', ( 1.00000000000000, -0.000000000000000, -0.000000000000000 ) );
#305 = DIRECTION( '', ( 0.000000000000000, 0.000000000000000, 1.00000000000000 ) );
#306 = SURFACE_STYLE_FILL_AREA( #349 );
#307 = ORIENTED_EDGE( '', *, *, #347, .F. );
#308 = ORIENTED_EDGE( '', *, *, #345, .T. );
#309 = CARTESIAN_POINT( '', ( 20.0000000000000, 0.000000000000000, 0.000000000000000 ) );
#310 = DIRECTION( '', ( 1.00000000000000, -0.000000000000000, 0.000000000000000 ) );
#311 = DIRECTION( '', ( 0.000000000000000, 0.000000000000000, -1.00000000000000 ) );
#312 = FILL_AREA_STYLE( '', ( #350 ) );
#313 = EDGE_CURVE( '', #351, #351, #352, .T. );
#314 = EDGE_CURVE( '', #353, #353, #354, .T. );
#315 = FILL_AREA_STYLE( '', ( #355 ) );
#316 = EDGE_CURVE( '', #356, #356, #357, .T. );
#317 = EDGE_CURVE( '', #358, #358, #359, .T. );
#318 = FILL_AREA_STYLE( '', ( #360 ) );
#319 = EDGE_CURVE( '', #361, #362, #363, .T. );
#320 = EDGE_CURVE( '', #364, #362, #365, .F. );
#321 = EDGE_CURVE( '', #364, #366, #367, .T. );
#322 = EDGE_CURVE( '', #366, #361, #368, .T. );
#323 = EDGE_CURVE( '', #369, #369, #370, .T. );
#324 = FILL_AREA_STYLE( '', ( #371 ) );
#325 = CARTESIAN_POINT( '', ( 23.2500000000000, 0.000000000000000, 50.0000000000000 ) );
#326 = EDGE_CURVE( '', #372, #372, #373, .T. );
#327 = FILL_AREA_STYLE( '', ( #374 ) );
#328 = EDGE_CURVE( '', #375, #375, #376, .T. );
#329 = EDGE_CURVE( '', #377, #378, #379, .T. );
#330 = EDGE_CURVE( '', #380, #377, #381, .T. );
#331 = EDGE_CURVE( '', #382, #380, #383, .T. );
#332 = EDGE_CURVE( '', #378, #382, #384, .F. );
#333 = FILL_AREA_STYLE( '', ( #385 ) );
#334 = EDGE_CURVE( '', #377, #361, #386, .T. );
#335 = EDGE_CURVE( '', #380, #366, #387, .T. );
#336 = FILL_AREA_STYLE( '', ( #388 ) );
#337 = EDGE_CURVE( '', #389, #389, #390, .T. );
#338 = FILL_AREA_STYLE( '', ( #391 ) );
#339 = EDGE_CURVE( '', #382, #364, #392, .T. );
#340 = FILL_AREA_STYLE( '', ( #393 ) );
#341 = FILL_AREA_STYLE( '', ( #394 ) );
#342 = EDGE_CURVE( '', #378, #362, #395, .T. );
#343 = FILL_AREA_STYLE( '', ( #396 ) );
#344 = FILL_AREA_STYLE( '', ( #397 ) );
#345 = EDGE_CURVE( '', #398, #398, #399, .T. );
#346 = FILL_AREA_STYLE( '', ( #400 ) );
#347 = EDGE_CURVE( '', #401, #401, #402, .T. );
#348 = FILL_AREA_STYLE( '', ( #403 ) );
#349 = FILL_AREA_STYLE( '', ( #404 ) );
#350 = FILL_AREA_STYLE_COLOUR( '', #405 );
#351 = VERTEX_POINT( '', #406 );
#352 = CIRCLE( '', #407, 40.0000000000000 );
#353 = VERTEX_POINT( '', #408 );
#354 = CIRCLE( '', #409, 39.5000000000000 );
#355 = FILL_AREA_STYLE_COLOUR( '', #410 );
#356 = VERTEX_POINT( '', #411 );
#357 = CIRCLE( '', #412, 32.0000000000000 );
#358 = VERTEX_POINT( '', #413 );
#359 = CIRCLE( '', #414, 14.0000000000000 );
#360 = FILL_AREA_STYLE_COLOUR( '', #415 );
#361 = VERTEX_POINT( '', #416 );
#362 = VERTEX_POINT( '', #417 );
#363 = LINE( '', #418, #419 );
#364 = VERTEX_POINT( '', #420 );
#365 = CIRCLE( '', #421, 5.00000000000000 );
#366 = VERTEX_POINT( '', #422 );
#367 = LINE( '', #423, #424 );
#368 = LINE( '', #425, #426 );
#369 = VERTEX_POINT( '', #427 );
#370 = CIRCLE( '', #428, 14.0000000000000 );
#371 = FILL_AREA_STYLE_COLOUR( '', #429 );
#372 = VERTEX_POINT( '', #430 );
#373 = CIRCLE( '', #431, 41.0000000000000 );
#374 = FILL_AREA_STYLE_COLOUR( '', #432 );
#375 = VERTEX_POINT( '', #433 );
#376 = CIRCLE( '', #434, 14.0000000000000 );
#377 = VERTEX_POINT( '', #435 );
#378 = VERTEX_POINT( '', #436 );
#379 = LINE( '', #437, #438 );
#380 = VERTEX_POINT( '', #439 );
#381 = LINE( '', #440, #441 );
#382 = VERTEX_POINT( '', #442 );
#383 = LINE( '', #443, #444 );
#384 = CIRCLE( '', #445, 5.00000000000000 );
#385 = FILL_AREA_STYLE_COLOUR( '', #446 );
#386 = LINE( '', #447, #448 );
#387 = LINE( '', #449, #450 );
#388 = FILL_AREA_STYLE_COLOUR( '', #451 );
#389 = VERTEX_POINT( '', #452 );
#390 = CIRCLE( '', #453, 40.5000000000000 );
#391 = FILL_AREA_STYLE_COLOUR( '', #454 );
#392 = LINE( '', #455, #456 );
#393 = FILL_AREA_STYLE_COLOUR( '', #457 );
#394 = FILL_AREA_STYLE_COLOUR( '', #458 );
#395 = LINE( '', #459, #460 );
#396 = FILL_AREA_STYLE_COLOUR( '', #461 );
#397 = FILL_AREA_STYLE_COLOUR( '', #462 );
#398 = VERTEX_POINT( '', #463 );
#399 = CIRCLE( '', #464, 34.0000000000000 );
#400 = FILL_AREA_STYLE_COLOUR( '', #465 );
#401 = VERTEX_POINT( '', #466 );
#402 = CIRCLE( '', #467, 14.0000000000000 );
#403 = FILL_AREA_STYLE_COLOUR( '', #468 );
#404 = FILL_AREA_STYLE_COLOUR( '', #469 );
#405 = COLOUR_RGB( '', 0.689999997600000, 0.689999997600000, 0.689999997600000 );
#406 = CARTESIAN_POINT( '', ( 30.6661984870957, 0.000000000000000, 40.0000000000000 ) );
#407 = AXIS2_PLACEMENT_3D( '', #470, #471, #472 );
#408 = CARTESIAN_POINT( '', ( 28.0000000000000, 0.000000000000000, 39.5000000000000 ) );
#409 = AXIS2_PLACEMENT_3D( '', #473, #474, #475 );
#410 = COLOUR_RGB( '', 0.689999997600000, 0.689999997600000, 0.689999997600000 );
#411 = CARTESIAN_POINT( '', ( 23.0000000000000, 0.000000000000000, 32.0000000000000 ) );
#412 = AXIS2_PLACEMENT_3D( '', #476, #477, #478 );
#413 = CARTESIAN_POINT( '', ( 13.5000000000000, 0.000000000000000, 14.0000000000000 ) );
#414 = AXIS2_PLACEMENT_3D( '', #479, #480, #481 );
#415 = COLOUR_RGB( '', 0.689999997600000, 0.689999997600000, 0.689999997600000 );
#416 = CARTESIAN_POINT( '', ( 0.000000000000000, 6.40000000000000, 1.50000000000000 ) );
#417 = CARTESIAN_POINT( '', ( 0.000000000000000, 4.76969600708473, 1.50000000000000 ) );
#418 = CARTESIAN_POINT( '', ( 0.000000000000000, 6.40000000000000, 1.50000000000000 ) );
#419 = VECTOR( '', #482, 1000.00000000000 );
#420 = CARTESIAN_POINT( '', ( 0.000000000000000, 4.76969600708473, -1.50000000000000 ) );
#421 = AXIS2_PLACEMENT_3D( '', #483, #484, #485 );
#422 = CARTESIAN_POINT( '', ( 0.000000000000000, 6.40000000000000, -1.49999999999999 ) );
#423 = CARTESIAN_POINT( '', ( 0.000000000000000, 4.76969600708473, -1.50000000000000 ) );
#424 = VECTOR( '', #486, 1000.00000000000 );
#425 = CARTESIAN_POINT( '', ( 0.000000000000000, 6.40000000000000, -1.49999999999999 ) );
#426 = VECTOR( '', #487, 1000.00000000000 );
#427 = CARTESIAN_POINT( '', ( 0.000000000000000, 0.000000000000000, 14.0000000000000 ) );
#428 = AXIS2_PLACEMENT_3D( '', #488, #489, #490 );
#429 = COLOUR_RGB( '', 0.689999997600000, 0.689999997600000, 0.689999997600000 );
#430 = CARTESIAN_POINT( '', ( 15.6014707296108, 0.000000000000000, 41.0000000000000 ) );
#431 = AXIS2_PLACEMENT_3D( '', #491, #492, #493 );
#432 = COLOUR_RGB( '', 0.689999997600000, 0.689999997600000, 0.689999997600000 );
#433 = CARTESIAN_POINT( '', ( 17.0000000000000, 0.000000000000000, 14.0000000000000 ) );
#434 = AXIS2_PLACEMENT_3D( '', #494, #495, #496 );
#435 = CARTESIAN_POINT( '', ( 17.0000000000000, 6.40000000000000, 1.50000000000000 ) );
#436 = CARTESIAN_POINT( '', ( 17.0000000000000, 4.76969600708473, 1.50000000000000 ) );
#437 = CARTESIAN_POINT( '', ( 17.0000000000000, 0.000000000000000, 1.50000000000000 ) );
#438 = VECTOR( '', #497, 1000.00000000000 );
#439 = CARTESIAN_POINT( '', ( 17.0000000000000, 6.40000000000000, -1.49999999999999 ) );
#440 = CARTESIAN_POINT( '', ( 17.0000000000000, 6.40000000000000, 0.000000000000000 ) );
#441 = VECTOR( '', #498, 1000.00000000000 );
#442 = CARTESIAN_POINT( '', ( 17.0000000000000, 4.76969600708473, -1.50000000000000 ) );
#443 = CARTESIAN_POINT( '', ( 17.0000000000000, 6.58380372878377E-15, -1.50000000000002 ) );
#444 = VECTOR( '', #499, 1000.00000000000 );
#445 = AXIS2_PLACEMENT_3D( '', #500, #501, #502 );
#446 = COLOUR_RGB( '', 0.689999997600000, 0.689999997600000, 0.689999997600000 );
#447 = CARTESIAN_POINT( '', ( 25.5000000000000, 6.40000000000000, 1.50000000000000 ) );
#448 = VECTOR( '', #503, 1000.00000000000 );
#449 = CARTESIAN_POINT( '', ( 25.5000000000000, 6.40000000000000, -1.49999999999999 ) );
#450 = VECTOR( '', #504, 1000.00000000000 );
#451 = COLOUR_RGB( '', 0.689999997600000, 0.689999997600000, 0.689999997600000 );
#452 = CARTESIAN_POINT( '', ( 16.5000000000000, 0.000000000000000, 40.5000000000000 ) );
#453 = AXIS2_PLACEMENT_3D( '', #505, #506, #507 );
#454 = COLOUR_RGB( '', 0.689999997600000, 0.689999997600000, 0.689999997600000 );
#455 = CARTESIAN_POINT( '', ( 25.5000000000000, 4.76969600708473, -1.50000000000000 ) );
#456 = VECTOR( '', #508, 1000.00000000000 );
#457 = COLOUR_RGB( '', 0.689999997600000, 0.689999997600000, 0.689999997600000 );
#458 = COLOUR_RGB( '', 0.689999997600000, 0.689999997600000, 0.689999997600000 );
#459 = CARTESIAN_POINT( '', ( 25.5000000000000, 4.76969600708473, 1.50000000000000 ) );
#460 = VECTOR( '', #509, 1000.00000000000 );
#461 = COLOUR_RGB( '', 0.689999997600000, 0.689999997600000, 0.689999997600000 );
#462 = COLOUR_RGB( '', 0.689999997600000, 0.689999997600000, 0.689999997600000 );
#463 = CARTESIAN_POINT( '', ( 20.0000000000000, 0.000000000000000, 34.0000000000000 ) );
#464 = AXIS2_PLACEMENT_3D( '', #510, #511, #512 );
#465 = COLOUR_RGB( '', 0.689999997600000, 0.689999997600000, 0.689999997600000 );
#466 = CARTESIAN_POINT( '', ( 9.00000000000000, 0.000000000000000, 14.0000000000000 ) );
#467 = AXIS2_PLACEMENT_3D( '', #513, #514, #515 );
#468 = COLOUR_RGB( '', 0.689999997600000, 0.689999997600000, 0.689999997600000 );
#469 = COLOUR_RGB( '', 0.689999997600000, 0.689999997600000, 0.689999997600000 );
#470 = CARTESIAN_POINT( '', ( 30.6661984870957, 0.000000000000000, 0.000000000000000 ) );
#471 = DIRECTION( '', ( -1.00000000000000, 0.000000000000000, 0.000000000000000 ) );
#472 = DIRECTION( '', ( 0.000000000000000, 0.000000000000000, 1.00000000000000 ) );
#473 = CARTESIAN_POINT( '', ( 28.0000000000000, 0.000000000000000, 0.000000000000000 ) );
#474 = DIRECTION( '', ( -1.00000000000000, 0.000000000000000, 0.000000000000000 ) );
#475 = DIRECTION( '', ( 0.000000000000000, 0.000000000000000, 1.00000000000000 ) );
#476 = CARTESIAN_POINT( '', ( 23.0000000000000, 0.000000000000000, 0.000000000000000 ) );
#477 = DIRECTION( '', ( -1.00000000000000, 0.000000000000000, 0.000000000000000 ) );
#478 = DIRECTION( '', ( 0.000000000000000, 0.000000000000000, 1.00000000000000 ) );
#479 = CARTESIAN_POINT( '', ( 13.5000000000000, 0.000000000000000, 0.000000000000000 ) );
#480 = DIRECTION( '', ( -1.00000000000000, 0.000000000000000, 0.000000000000000 ) );
#481 = DIRECTION( '', ( 0.000000000000000, 0.000000000000000, 1.00000000000000 ) );
#482 = DIRECTION( '', ( 0.000000000000000, -1.00000000000000, 0.000000000000000 ) );
#483 = CARTESIAN_POINT( '', ( 0.000000000000000, -9.89334482393023E-16, 0.000000000000000 ) );
#484 = DIRECTION( '', ( 1.00000000000000, 0.000000000000000, 0.000000000000000 ) );
#485 = DIRECTION( '', ( 0.000000000000000, 0.000000000000000, -1.00000000000000 ) );
#486 = DIRECTION( '', ( 0.000000000000000, 1.00000000000000, 4.38920248585579E-15 ) );
#487 = DIRECTION( '', ( 0.000000000000000, 0.000000000000000, 1.00000000000000 ) );
#488 = CARTESIAN_POINT( '', ( 0.000000000000000, 0.000000000000000, 0.000000000000000 ) );
#489 = DIRECTION( '', ( -1.00000000000000, 0.000000000000000, 0.000000000000000 ) );
#490 = DIRECTION( '', ( 0.000000000000000, 0.000000000000000, 1.00000000000000 ) );
#491 = CARTESIAN_POINT( '', ( 15.6014707296108, 0.000000000000000, 0.000000000000000 ) );
#492 = DIRECTION( '', ( -1.00000000000000, 0.000000000000000, 0.000000000000000 ) );
#493 = DIRECTION( '', ( 0.000000000000000, 0.000000000000000, 1.00000000000000 ) );
#494 = CARTESIAN_POINT( '', ( 17.0000000000000, 0.000000000000000, 0.000000000000000 ) );
#495 = DIRECTION( '', ( -1.00000000000000, 0.000000000000000, 0.000000000000000 ) );
#496 = DIRECTION( '', ( 0.000000000000000, 0.000000000000000, 1.00000000000000 ) );
#497 = DIRECTION( '', ( 0.000000000000000, -1.00000000000000, 0.000000000000000 ) );
#498 = DIRECTION( '', ( 0.000000000000000, 0.000000000000000, 1.00000000000000 ) );
#499 = DIRECTION( '', ( 0.000000000000000, 1.00000000000000, 4.38920248585579E-15 ) );
#500 = CARTESIAN_POINT( '', ( 17.0000000000000, -9.89334482393023E-16, 0.000000000000000 ) );
#501 = DIRECTION( '', ( -1.00000000000000, 0.000000000000000, 0.000000000000000 ) );
#502 = DIRECTION( '', ( 0.000000000000000, 0.000000000000000, 1.00000000000000 ) );
#503 = DIRECTION( '', ( -1.00000000000000, -0.000000000000000, -0.000000000000000 ) );
#504 = DIRECTION( '', ( -1.00000000000000, -0.000000000000000, -0.000000000000000 ) );
#505 = CARTESIAN_POINT( '', ( 16.5000000000000, 0.000000000000000, 0.000000000000000 ) );
#506 = DIRECTION( '', ( -1.00000000000000, 0.000000000000000, 0.000000000000000 ) );
#507 = DIRECTION( '', ( 0.000000000000000, 0.000000000000000, 1.00000000000000 ) );
#508 = DIRECTION( '', ( -1.00000000000000, -0.000000000000000, -0.000000000000000 ) );
#509 = DIRECTION( '', ( -1.00000000000000, -0.000000000000000, -0.000000000000000 ) );
#510 = CARTESIAN_POINT( '', ( 20.0000000000000, 0.000000000000000, 0.000000000000000 ) );
#511 = DIRECTION( '', ( -1.00000000000000, 0.000000000000000, 0.000000000000000 ) );
#512 = DIRECTION( '', ( 0.000000000000000, 0.000000000000000, 1.00000000000000 ) );
#513 = CARTESIAN_POINT( '', ( 9.00000000000000, 0.000000000000000, 0.000000000000000 ) );
#514 = DIRECTION( '', ( -1.00000000000000, 0.000000000000000, 0.000000000000000 ) );
#515 = DIRECTION( '', ( 0.000000000000000, 0.000000000000000, 1.00000000000000 ) );
ENDSEC;
END-ISO-10303-21;
