ISO-10303-21;
HEADER;
FILE_DESCRIPTION( ( 'STEP AP214' ), '1' );
FILE_NAME( '//goodhand-server/Shared Folders/GoodHand Data/Kipp CAD/K1129/K1129.101015.stp', '2020-12-10T10:15:58', ( '' ), ( '' ), ' ', 'PARTsolutions', ' ' );
FILE_SCHEMA( ( 'AUTOMOTIVE_DESIGN { 1 0 10303 214 1 1 1 1 }' ) );
ENDSEC;
DATA;
#1 = MECHANICAL_DESIGN_GEOMETRIC_PRESENTATION_REPRESENTATION( ' ', ( #10, #11, #12, #13, #14, #15, #16, #17, #18, #19, #20, #21 ), #6 );
#2 = PRODUCT_DEFINITION_CONTEXT( '', #22, 'design' );
#3 = APPLICATION_PROTOCOL_DEFINITION( 'international standard', 'automotive_design', 2001, #22 );
#4 = PRODUCT_CATEGORY_RELATIONSHIP( 'NONE', 'NONE', #23, #24 );
#5 = SHAPE_DEFINITION_REPRESENTATION( #25, #26 );
#6 =  ( GEOMETRIC_REPRESENTATION_CONTEXT( 3 )GLOBAL_UNCERTAINTY_ASSIGNED_CONTEXT( ( #29 ) )GLOBAL_UNIT_ASSIGNED_CONTEXT( ( #31, #32, #33 ) )REPRESENTATION_CONTEXT( 'NONE', 'WORKSPACE' ) );
#10 = STYLED_ITEM( '', ( #35 ), #36 );
#11 = STYLED_ITEM( '', ( #37 ), #38 );
#12 = STYLED_ITEM( '', ( #39 ), #40 );
#13 = STYLED_ITEM( '', ( #41 ), #42 );
#14 = STYLED_ITEM( '', ( #43 ), #44 );
#15 = STYLED_ITEM( '', ( #45 ), #46 );
#16 = STYLED_ITEM( '', ( #47 ), #48 );
#17 = STYLED_ITEM( '', ( #49 ), #50 );
#18 = STYLED_ITEM( '', ( #51 ), #52 );
#19 = STYLED_ITEM( '', ( #53 ), #54 );
#20 = STYLED_ITEM( '', ( #55 ), #56 );
#21 = STYLED_ITEM( '', ( #57 ), #58 );
#22 = APPLICATION_CONTEXT( 'core data for automotive mechanical design processes' );
#23 = PRODUCT_CATEGORY( 'part', 'NONE' );
#24 = PRODUCT_RELATED_PRODUCT_CATEGORY( 'detail', ' ', ( #59 ) );
#25 = PRODUCT_DEFINITION_SHAPE( 'NONE', 'NONE', #60 );
#26 = ADVANCED_BREP_SHAPE_REPRESENTATION( '_K1129.101015', ( #61, #62 ), #6 );
#29 = UNCERTAINTY_MEASURE_WITH_UNIT( LENGTH_MEASURE( 0.00100000000000000 ), #31, '', '' );
#31 =  ( CONVERSION_BASED_UNIT( 'MILLIMETRE', #65 )LENGTH_UNIT(  )NAMED_UNIT( #68 ) );
#32 =  ( NAMED_UNIT( #70 )PLANE_ANGLE_UNIT(  )SI_UNIT( $, .RADIAN. ) );
#33 =  ( NAMED_UNIT( #70 )SI_UNIT( $, .STERADIAN. )SOLID_ANGLE_UNIT(  ) );
#35 = PRESENTATION_STYLE_ASSIGNMENT( ( #76 ) );
#36 = ADVANCED_FACE( '', ( #77 ), #78, .F. );
#37 = PRESENTATION_STYLE_ASSIGNMENT( ( #79 ) );
#38 = ADVANCED_FACE( '', ( #80 ), #81, .T. );
#39 = PRESENTATION_STYLE_ASSIGNMENT( ( #82 ) );
#40 = ADVANCED_FACE( '', ( #83 ), #84, .T. );
#41 = PRESENTATION_STYLE_ASSIGNMENT( ( #85 ) );
#42 = ADVANCED_FACE( '', ( #86, #87 ), #88, .T. );
#43 = PRESENTATION_STYLE_ASSIGNMENT( ( #89 ) );
#44 = ADVANCED_FACE( '', ( #90 ), #91, .F. );
#45 = PRESENTATION_STYLE_ASSIGNMENT( ( #92 ) );
#46 = ADVANCED_FACE( '', ( #93, #94 ), #95, .T. );
#47 = PRESENTATION_STYLE_ASSIGNMENT( ( #96 ) );
#48 = ADVANCED_FACE( '', ( #97 ), #98, .T. );
#49 = PRESENTATION_STYLE_ASSIGNMENT( ( #99 ) );
#50 = ADVANCED_FACE( '', ( #100 ), #101, .T. );
#51 = PRESENTATION_STYLE_ASSIGNMENT( ( #102 ) );
#52 = ADVANCED_FACE( '', ( #103 ), #104, .T. );
#53 = PRESENTATION_STYLE_ASSIGNMENT( ( #105 ) );
#54 = ADVANCED_FACE( '', ( #106 ), #107, .T. );
#55 = PRESENTATION_STYLE_ASSIGNMENT( ( #108 ) );
#56 = ADVANCED_FACE( '', ( #109, #110 ), #111, .F. );
#57 = PRESENTATION_STYLE_ASSIGNMENT( ( #112 ) );
#58 = ADVANCED_FACE( '', ( #113, #114 ), #115, .T. );
#59 = PRODUCT( '_K1129.101015', '_K1129.101015', 'PART-_K1129.101015-DESC', ( #116 ) );
#60 = PRODUCT_DEFINITION( 'NONE', 'NONE', #117, #2 );
#61 = MANIFOLD_SOLID_BREP( '_K1129.101015', #118 );
#62 = AXIS2_PLACEMENT_3D( '', #119, #120, #121 );
#65 = LENGTH_MEASURE_WITH_UNIT( LENGTH_MEASURE( 1.00000000000000 ), #122 );
#68 = DIMENSIONAL_EXPONENTS( 1.00000000000000, 0.000000000000000, 0.000000000000000, 0.000000000000000, 0.000000000000000, 0.000000000000000, 0.000000000000000 );
#70 = DIMENSIONAL_EXPONENTS( 0.000000000000000, 0.000000000000000, 0.000000000000000, 0.000000000000000, 0.000000000000000, 0.000000000000000, 0.000000000000000 );
#76 = SURFACE_STYLE_USAGE( .BOTH., #123 );
#77 = FACE_OUTER_BOUND( '', #124, .T. );
#78 = PLANE( '', #125 );
#79 = SURFACE_STYLE_USAGE( .BOTH., #126 );
#80 = FACE_OUTER_BOUND( '', #127, .T. );
#81 = PLANE( '', #128 );
#82 = SURFACE_STYLE_USAGE( .BOTH., #129 );
#83 = FACE_OUTER_BOUND( '', #130, .T. );
#84 = PLANE( '', #131 );
#85 = SURFACE_STYLE_USAGE( .BOTH., #132 );
#86 = FACE_BOUND( '', #133, .T. );
#87 = FACE_OUTER_BOUND( '', #134, .T. );
#88 = CONICAL_SURFACE( '', #135, 8.85857404930000, 0.801106126700000 );
#89 = SURFACE_STYLE_USAGE( .BOTH., #136 );
#90 = FACE_OUTER_BOUND( '', #137, .T. );
#91 = PLANE( '', #138 );
#92 = SURFACE_STYLE_USAGE( .BOTH., #139 );
#93 = FACE_BOUND( '', #140, .T. );
#94 = FACE_OUTER_BOUND( '', #141, .T. );
#95 = CONICAL_SURFACE( '', #142, 9.14142595070000, 0.0314159265000000 );
#96 = SURFACE_STYLE_USAGE( .BOTH., #143 );
#97 = FACE_OUTER_BOUND( '', #144, .T. );
#98 = PLANE( '', #145 );
#99 = SURFACE_STYLE_USAGE( .BOTH., #146 );
#100 = FACE_OUTER_BOUND( '', #147, .T. );
#101 = PLANE( '', #148 );
#102 = SURFACE_STYLE_USAGE( .BOTH., #149 );
#103 = FACE_OUTER_BOUND( '', #150, .T. );
#104 = PLANE( '', #151 );
#105 = SURFACE_STYLE_USAGE( .BOTH., #152 );
#106 = FACE_OUTER_BOUND( '', #153, .T. );
#107 = PLANE( '', #154 );
#108 = SURFACE_STYLE_USAGE( .BOTH., #155 );
#109 = FACE_OUTER_BOUND( '', #156, .T. );
#110 = FACE_BOUND( '', #157, .T. );
#111 = PLANE( '', #158 );
#112 = SURFACE_STYLE_USAGE( .BOTH., #159 );
#113 = FACE_OUTER_BOUND( '', #160, .T. );
#114 = FACE_BOUND( '', #161, .T. );
#115 = CONICAL_SURFACE( '', #162, 8.65713133020000, 0.769690200100000 );
#116 = PRODUCT_CONTEXT( '', #22, 'mechanical' );
#117 = PRODUCT_DEFINITION_FORMATION_WITH_SPECIFIED_SOURCE( ' ', 'NONE', #59, .NOT_KNOWN. );
#118 = CLOSED_SHELL( '', ( #58, #56, #54, #40, #52, #36, #42, #46, #38, #48, #50, #44 ) );
#119 = CARTESIAN_POINT( '', ( 0.000000000000000, 0.000000000000000, 0.000000000000000 ) );
#120 = DIRECTION( '', ( 0.000000000000000, 0.000000000000000, 1.00000000000000 ) );
#121 = DIRECTION( '', ( 1.00000000000000, 0.000000000000000, 0.000000000000000 ) );
#122 =  ( LENGTH_UNIT(  )NAMED_UNIT( #68 )SI_UNIT( .MILLI., .METRE. ) );
#123 = SURFACE_SIDE_STYLE( '', ( #164 ) );
#124 = EDGE_LOOP( '', ( #165 ) );
#125 = AXIS2_PLACEMENT_3D( '', #166, #167, #168 );
#126 = SURFACE_SIDE_STYLE( '', ( #169 ) );
#127 = EDGE_LOOP( '', ( #170, #171, #172, #173 ) );
#128 = AXIS2_PLACEMENT_3D( '', #174, #175, #176 );
#129 = SURFACE_SIDE_STYLE( '', ( #177 ) );
#130 = EDGE_LOOP( '', ( #178, #179, #180, #181 ) );
#131 = AXIS2_PLACEMENT_3D( '', #182, #183, #184 );
#132 = SURFACE_SIDE_STYLE( '', ( #185 ) );
#133 = EDGE_LOOP( '', ( #186 ) );
#134 = EDGE_LOOP( '', ( #187 ) );
#135 = AXIS2_PLACEMENT_3D( '', #188, #189, #190 );
#136 = SURFACE_SIDE_STYLE( '', ( #191 ) );
#137 = EDGE_LOOP( '', ( #192, #193, #194, #195, #196, #197 ) );
#138 = AXIS2_PLACEMENT_3D( '', #198, #199, #200 );
#139 = SURFACE_SIDE_STYLE( '', ( #201 ) );
#140 = EDGE_LOOP( '', ( #202 ) );
#141 = EDGE_LOOP( '', ( #203 ) );
#142 = AXIS2_PLACEMENT_3D( '', #204, #205, #206 );
#143 = SURFACE_SIDE_STYLE( '', ( #207 ) );
#144 = EDGE_LOOP( '', ( #208, #209, #210, #211 ) );
#145 = AXIS2_PLACEMENT_3D( '', #212, #213, #214 );
#146 = SURFACE_SIDE_STYLE( '', ( #215 ) );
#147 = EDGE_LOOP( '', ( #216, #217, #218, #219 ) );
#148 = AXIS2_PLACEMENT_3D( '', #220, #221, #222 );
#149 = SURFACE_SIDE_STYLE( '', ( #223 ) );
#150 = EDGE_LOOP( '', ( #224, #225, #226, #227 ) );
#151 = AXIS2_PLACEMENT_3D( '', #228, #229, #230 );
#152 = SURFACE_SIDE_STYLE( '', ( #231 ) );
#153 = EDGE_LOOP( '', ( #232, #233, #234, #235 ) );
#154 = AXIS2_PLACEMENT_3D( '', #236, #237, #238 );
#155 = SURFACE_SIDE_STYLE( '', ( #239 ) );
#156 = EDGE_LOOP( '', ( #240 ) );
#157 = EDGE_LOOP( '', ( #241, #242, #243, #244, #245, #246 ) );
#158 = AXIS2_PLACEMENT_3D( '', #247, #248, #249 );
#159 = SURFACE_SIDE_STYLE( '', ( #250 ) );
#160 = EDGE_LOOP( '', ( #251 ) );
#161 = EDGE_LOOP( '', ( #252 ) );
#162 = AXIS2_PLACEMENT_3D( '', #253, #254, #255 );
#164 = SURFACE_STYLE_FILL_AREA( #256 );
#165 = ORIENTED_EDGE( '', *, *, #257, .T. );
#166 = CARTESIAN_POINT( '', ( 10.0000000000000, 8.34286866978325, 0.000000000000000 ) );
#167 = DIRECTION( '', ( -1.00000000000000, 0.000000000000000, 0.000000000000000 ) );
#168 = DIRECTION( '', ( 0.000000000000000, 0.000000000000000, 1.00000000000000 ) );
#169 = SURFACE_STYLE_FILL_AREA( #258 );
#170 = ORIENTED_EDGE( '', *, *, #259, .F. );
#171 = ORIENTED_EDGE( '', *, *, #260, .F. );
#172 = ORIENTED_EDGE( '', *, *, #261, .T. );
#173 = ORIENTED_EDGE( '', *, *, #262, .T. );
#174 = CARTESIAN_POINT( '', ( 5.00000000000000, -2.30940107675850, -4.00000000000000 ) );
#175 = DIRECTION( '', ( 0.000000000000000, 0.000000000000000, 1.00000000000000 ) );
#176 = DIRECTION( '', ( 1.00000000000000, 0.000000000000000, -0.000000000000000 ) );
#177 = SURFACE_STYLE_FILL_AREA( #263 );
#178 = ORIENTED_EDGE( '', *, *, #264, .F. );
#179 = ORIENTED_EDGE( '', *, *, #265, .F. );
#180 = ORIENTED_EDGE( '', *, *, #266, .T. );
#181 = ORIENTED_EDGE( '', *, *, #260, .T. );
#182 = CARTESIAN_POINT( '', ( 5.00000000000000, -4.61880215351701, 0.000000000000000 ) );
#183 = DIRECTION( '', ( -0.000000000000000, 0.866025403784439, 0.500000000000000 ) );
#184 = DIRECTION( '', ( 0.000000000000000, -0.500000000000000, 0.866025403784439 ) );
#185 = SURFACE_STYLE_FILL_AREA( #267 );
#186 = ORIENTED_EDGE( '', *, *, #257, .F. );
#187 = ORIENTED_EDGE( '', *, *, #268, .T. );
#188 = CARTESIAN_POINT( '', ( 9.50024671981713, 0.000000000000000, 0.000000000000000 ) );
#189 = DIRECTION( '', ( -1.00000000000000, 0.000000000000000, -0.000000000000000 ) );
#190 = DIRECTION( '', ( 0.000000000000000, 0.000000000000000, 1.00000000000000 ) );
#191 = SURFACE_STYLE_FILL_AREA( #269 );
#192 = ORIENTED_EDGE( '', *, *, #270, .F. );
#193 = ORIENTED_EDGE( '', *, *, #271, .F. );
#194 = ORIENTED_EDGE( '', *, *, #272, .F. );
#195 = ORIENTED_EDGE( '', *, *, #261, .F. );
#196 = ORIENTED_EDGE( '', *, *, #266, .F. );
#197 = ORIENTED_EDGE( '', *, *, #273, .F. );
#198 = CARTESIAN_POINT( '', ( 5.00000000000000, 0.000000000000000, 0.000000000000000 ) );
#199 = DIRECTION( '', ( 1.00000000000000, 0.000000000000000, 0.000000000000000 ) );
#200 = DIRECTION( '', ( 0.000000000000000, 0.000000000000000, -1.00000000000000 ) );
#201 = SURFACE_STYLE_FILL_AREA( #274 );
#202 = ORIENTED_EDGE( '', *, *, #268, .F. );
#203 = ORIENTED_EDGE( '', *, *, #275, .T. );
#204 = CARTESIAN_POINT( '', ( 0.499753280182865, 0.000000000000000, 0.000000000000000 ) );
#205 = DIRECTION( '', ( -1.00000000000000, 0.000000000000000, -0.000000000000000 ) );
#206 = DIRECTION( '', ( 0.000000000000000, 0.000000000000000, 1.00000000000000 ) );
#207 = SURFACE_STYLE_FILL_AREA( #276 );
#208 = ORIENTED_EDGE( '', *, *, #277, .F. );
#209 = ORIENTED_EDGE( '', *, *, #262, .F. );
#210 = ORIENTED_EDGE( '', *, *, #272, .T. );
#211 = ORIENTED_EDGE( '', *, *, #278, .T. );
#212 = CARTESIAN_POINT( '', ( 5.00000000000000, 2.30940107675850, -4.00000000000000 ) );
#213 = DIRECTION( '', ( 0.000000000000000, -0.866025403784439, 0.500000000000000 ) );
#214 = DIRECTION( '', ( 0.000000000000000, -0.500000000000000, -0.866025403784439 ) );
#215 = SURFACE_STYLE_FILL_AREA( #279 );
#216 = ORIENTED_EDGE( '', *, *, #280, .F. );
#217 = ORIENTED_EDGE( '', *, *, #278, .F. );
#218 = ORIENTED_EDGE( '', *, *, #271, .T. );
#219 = ORIENTED_EDGE( '', *, *, #281, .T. );
#220 = CARTESIAN_POINT( '', ( 5.00000000000000, 4.61880215351701, 0.000000000000000 ) );
#221 = DIRECTION( '', ( 0.000000000000000, -0.866025403784439, -0.500000000000000 ) );
#222 = DIRECTION( '', ( 0.000000000000000, 0.500000000000000, -0.866025403784439 ) );
#223 = SURFACE_STYLE_FILL_AREA( #282 );
#224 = ORIENTED_EDGE( '', *, *, #283, .F. );
#225 = ORIENTED_EDGE( '', *, *, #281, .F. );
#226 = ORIENTED_EDGE( '', *, *, #270, .T. );
#227 = ORIENTED_EDGE( '', *, *, #284, .T. );
#228 = CARTESIAN_POINT( '', ( 5.00000000000000, 2.30940107675850, 4.00000000000000 ) );
#229 = DIRECTION( '', ( 0.000000000000000, 0.000000000000000, -1.00000000000000 ) );
#230 = DIRECTION( '', ( -1.00000000000000, 0.000000000000000, 0.000000000000000 ) );
#231 = SURFACE_STYLE_FILL_AREA( #285 );
#232 = ORIENTED_EDGE( '', *, *, #286, .F. );
#233 = ORIENTED_EDGE( '', *, *, #284, .F. );
#234 = ORIENTED_EDGE( '', *, *, #273, .T. );
#235 = ORIENTED_EDGE( '', *, *, #265, .T. );
#236 = CARTESIAN_POINT( '', ( 5.00000000000000, -2.30940107675850, 4.00000000000000 ) );
#237 = DIRECTION( '', ( 0.000000000000000, 0.866025403784439, -0.500000000000000 ) );
#238 = DIRECTION( '', ( 0.000000000000000, 0.500000000000000, 0.866025403784439 ) );
#239 = SURFACE_STYLE_FILL_AREA( #287 );
#240 = ORIENTED_EDGE( '', *, *, #288, .F. );
#241 = ORIENTED_EDGE( '', *, *, #283, .T. );
#242 = ORIENTED_EDGE( '', *, *, #286, .T. );
#243 = ORIENTED_EDGE( '', *, *, #264, .T. );
#244 = ORIENTED_EDGE( '', *, *, #259, .T. );
#245 = ORIENTED_EDGE( '', *, *, #277, .T. );
#246 = ORIENTED_EDGE( '', *, *, #280, .T. );
#247 = CARTESIAN_POINT( '', ( 0.000000000000000, 0.000000000000000, 0.000000000000000 ) );
#248 = DIRECTION( '', ( 1.00000000000000, 0.000000000000000, -0.000000000000000 ) );
#249 = DIRECTION( '', ( -0.000000000000000, 0.000000000000000, -1.00000000000000 ) );
#250 = SURFACE_STYLE_FILL_AREA( #289 );
#251 = ORIENTED_EDGE( '', *, *, #275, .F. );
#252 = ORIENTED_EDGE( '', *, *, #288, .T. );
#253 = CARTESIAN_POINT( '', ( 0.000000000000000, 0.000000000000000, 0.000000000000000 ) );
#254 = DIRECTION( '', ( 1.00000000000000, -0.000000000000000, -0.000000000000000 ) );
#255 = DIRECTION( '', ( -0.000000000000000, 0.000000000000000, -1.00000000000000 ) );
#256 = FILL_AREA_STYLE( '', ( #290 ) );
#257 = EDGE_CURVE( '', #291, #291, #292, .T. );
#258 = FILL_AREA_STYLE( '', ( #293 ) );
#259 = EDGE_CURVE( '', #294, #295, #296, .T. );
#260 = EDGE_CURVE( '', #297, #294, #298, .T. );
#261 = EDGE_CURVE( '', #297, #299, #300, .T. );
#262 = EDGE_CURVE( '', #299, #295, #301, .T. );
#263 = FILL_AREA_STYLE( '', ( #302 ) );
#264 = EDGE_CURVE( '', #303, #294, #304, .T. );
#265 = EDGE_CURVE( '', #305, #303, #306, .T. );
#266 = EDGE_CURVE( '', #305, #297, #307, .T. );
#267 = FILL_AREA_STYLE( '', ( #308 ) );
#268 = EDGE_CURVE( '', #309, #309, #310, .T. );
#269 = FILL_AREA_STYLE( '', ( #311 ) );
#270 = EDGE_CURVE( '', #312, #313, #314, .T. );
#271 = EDGE_CURVE( '', #315, #312, #316, .T. );
#272 = EDGE_CURVE( '', #299, #315, #317, .T. );
#273 = EDGE_CURVE( '', #313, #305, #318, .T. );
#274 = FILL_AREA_STYLE( '', ( #319 ) );
#275 = EDGE_CURVE( '', #320, #320, #321, .T. );
#276 = FILL_AREA_STYLE( '', ( #322 ) );
#277 = EDGE_CURVE( '', #295, #323, #324, .T. );
#278 = EDGE_CURVE( '', #315, #323, #325, .T. );
#279 = FILL_AREA_STYLE( '', ( #326 ) );
#280 = EDGE_CURVE( '', #323, #327, #328, .T. );
#281 = EDGE_CURVE( '', #312, #327, #329, .T. );
#282 = FILL_AREA_STYLE( '', ( #330 ) );
#283 = EDGE_CURVE( '', #327, #331, #332, .T. );
#284 = EDGE_CURVE( '', #313, #331, #333, .T. );
#285 = FILL_AREA_STYLE( '', ( #334 ) );
#286 = EDGE_CURVE( '', #331, #303, #335, .T. );
#287 = FILL_AREA_STYLE( '', ( #336 ) );
#288 = EDGE_CURVE( '', #337, #337, #338, .T. );
#289 = FILL_AREA_STYLE( '', ( #339 ) );
#290 = FILL_AREA_STYLE_COLOUR( '', #340 );
#291 = VERTEX_POINT( '', #341 );
#292 = CIRCLE( '', #342, 8.34286866980000 );
#293 = FILL_AREA_STYLE_COLOUR( '', #343 );
#294 = VERTEX_POINT( '', #344 );
#295 = VERTEX_POINT( '', #345 );
#296 = LINE( '', #346, #347 );
#297 = VERTEX_POINT( '', #348 );
#298 = LINE( '', #349, #350 );
#299 = VERTEX_POINT( '', #351 );
#300 = LINE( '', #352, #353 );
#301 = LINE( '', #354, #355 );
#302 = FILL_AREA_STYLE_COLOUR( '', #356 );
#303 = VERTEX_POINT( '', #357 );
#304 = LINE( '', #358, #359 );
#305 = VERTEX_POINT( '', #360 );
#306 = LINE( '', #361, #362 );
#307 = LINE( '', #363, #364 );
#308 = FILL_AREA_STYLE_COLOUR( '', #365 );
#309 = VERTEX_POINT( '', #366 );
#310 = CIRCLE( '', #367, 8.85857404930000 );
#311 = FILL_AREA_STYLE_COLOUR( '', #368 );
#312 = VERTEX_POINT( '', #369 );
#313 = VERTEX_POINT( '', #370 );
#314 = LINE( '', #371, #372 );
#315 = VERTEX_POINT( '', #373 );
#316 = LINE( '', #374, #375 );
#317 = LINE( '', #376, #377 );
#318 = LINE( '', #378, #379 );
#319 = FILL_AREA_STYLE_COLOUR( '', #380 );
#320 = VERTEX_POINT( '', #381 );
#321 = CIRCLE( '', #382, 9.14142595070000 );
#322 = FILL_AREA_STYLE_COLOUR( '', #383 );
#323 = VERTEX_POINT( '', #384 );
#324 = LINE( '', #385, #386 );
#325 = LINE( '', #387, #388 );
#326 = FILL_AREA_STYLE_COLOUR( '', #389 );
#327 = VERTEX_POINT( '', #390 );
#328 = LINE( '', #391, #392 );
#329 = LINE( '', #393, #394 );
#330 = FILL_AREA_STYLE_COLOUR( '', #395 );
#331 = VERTEX_POINT( '', #396 );
#332 = LINE( '', #397, #398 );
#333 = LINE( '', #399, #400 );
#334 = FILL_AREA_STYLE_COLOUR( '', #401 );
#335 = LINE( '', #402, #403 );
#336 = FILL_AREA_STYLE_COLOUR( '', #404 );
#337 = VERTEX_POINT( '', #405 );
#338 = CIRCLE( '', #406, 8.65713133020000 );
#339 = FILL_AREA_STYLE_COLOUR( '', #407 );
#340 = COLOUR_RGB( '', 0.689999997600000, 0.689999997600000, 0.689999997600000 );
#341 = CARTESIAN_POINT( '', ( 10.0000000000000, 0.000000000000000, -8.34286866978325 ) );
#342 = AXIS2_PLACEMENT_3D( '', #408, #409, #410 );
#343 = COLOUR_RGB( '', 0.689999997600000, 0.689999997600000, 0.689999997600000 );
#344 = CARTESIAN_POINT( '', ( 0.000000000000000, -2.30940107675850, -4.00000000000000 ) );
#345 = CARTESIAN_POINT( '', ( 0.000000000000000, 2.30940107675850, -4.00000000000000 ) );
#346 = CARTESIAN_POINT( '', ( 0.000000000000000, -2.30940107675850, -4.00000000000000 ) );
#347 = VECTOR( '', #411, 1000.00000000000 );
#348 = CARTESIAN_POINT( '', ( 5.00000000000000, -2.30940107675850, -4.00000000000000 ) );
#349 = CARTESIAN_POINT( '', ( 5.00000000000000, -2.30940107675850, -4.00000000000000 ) );
#350 = VECTOR( '', #412, 1000.00000000000 );
#351 = CARTESIAN_POINT( '', ( 5.00000000000000, 2.30940107675850, -4.00000000000000 ) );
#352 = CARTESIAN_POINT( '', ( 5.00000000000000, -2.30940107675850, -4.00000000000000 ) );
#353 = VECTOR( '', #413, 1000.00000000000 );
#354 = CARTESIAN_POINT( '', ( 5.00000000000000, 2.30940107675850, -4.00000000000000 ) );
#355 = VECTOR( '', #414, 1000.00000000000 );
#356 = COLOUR_RGB( '', 0.689999997600000, 0.689999997600000, 0.689999997600000 );
#357 = CARTESIAN_POINT( '', ( 0.000000000000000, -4.61880215351701, 0.000000000000000 ) );
#358 = CARTESIAN_POINT( '', ( 0.000000000000000, -4.61880215351701, 0.000000000000000 ) );
#359 = VECTOR( '', #415, 1000.00000000000 );
#360 = CARTESIAN_POINT( '', ( 5.00000000000000, -4.61880215351701, 0.000000000000000 ) );
#361 = CARTESIAN_POINT( '', ( 5.00000000000000, -4.61880215351701, 0.000000000000000 ) );
#362 = VECTOR( '', #416, 1000.00000000000 );
#363 = CARTESIAN_POINT( '', ( 5.00000000000000, -4.61880215351701, 0.000000000000000 ) );
#364 = VECTOR( '', #417, 1000.00000000000 );
#365 = COLOUR_RGB( '', 0.689999997600000, 0.689999997600000, 0.689999997600000 );
#366 = CARTESIAN_POINT( '', ( 9.50024671981713, 0.000000000000000, -8.85857404932231 ) );
#367 = AXIS2_PLACEMENT_3D( '', #418, #419, #420 );
#368 = COLOUR_RGB( '', 0.689999997600000, 0.689999997600000, 0.689999997600000 );
#369 = CARTESIAN_POINT( '', ( 5.00000000000000, 2.30940107675850, 4.00000000000000 ) );
#370 = CARTESIAN_POINT( '', ( 5.00000000000000, -2.30940107675850, 4.00000000000000 ) );
#371 = CARTESIAN_POINT( '', ( 5.00000000000000, 2.30940107675850, 4.00000000000000 ) );
#372 = VECTOR( '', #421, 1000.00000000000 );
#373 = CARTESIAN_POINT( '', ( 5.00000000000000, 4.61880215351701, 0.000000000000000 ) );
#374 = CARTESIAN_POINT( '', ( 5.00000000000000, 4.61880215351701, 0.000000000000000 ) );
#375 = VECTOR( '', #422, 1000.00000000000 );
#376 = CARTESIAN_POINT( '', ( 5.00000000000000, 2.30940107675850, -4.00000000000000 ) );
#377 = VECTOR( '', #423, 1000.00000000000 );
#378 = CARTESIAN_POINT( '', ( 5.00000000000000, -2.30940107675850, 4.00000000000000 ) );
#379 = VECTOR( '', #424, 1000.00000000000 );
#380 = COLOUR_RGB( '', 0.689999997600000, 0.689999997600000, 0.689999997600000 );
#381 = CARTESIAN_POINT( '', ( 0.499753280182865, 0.000000000000000, -9.14142595067769 ) );
#382 = AXIS2_PLACEMENT_3D( '', #425, #426, #427 );
#383 = COLOUR_RGB( '', 0.689999997600000, 0.689999997600000, 0.689999997600000 );
#384 = CARTESIAN_POINT( '', ( 0.000000000000000, 4.61880215351701, 0.000000000000000 ) );
#385 = CARTESIAN_POINT( '', ( 0.000000000000000, 2.30940107675850, -4.00000000000000 ) );
#386 = VECTOR( '', #428, 1000.00000000000 );
#387 = CARTESIAN_POINT( '', ( 5.00000000000000, 4.61880215351701, 0.000000000000000 ) );
#388 = VECTOR( '', #429, 1000.00000000000 );
#389 = COLOUR_RGB( '', 0.689999997600000, 0.689999997600000, 0.689999997600000 );
#390 = CARTESIAN_POINT( '', ( 0.000000000000000, 2.30940107675850, 4.00000000000000 ) );
#391 = CARTESIAN_POINT( '', ( 0.000000000000000, 4.61880215351701, 0.000000000000000 ) );
#392 = VECTOR( '', #430, 1000.00000000000 );
#393 = CARTESIAN_POINT( '', ( 5.00000000000000, 2.30940107675850, 4.00000000000000 ) );
#394 = VECTOR( '', #431, 1000.00000000000 );
#395 = COLOUR_RGB( '', 0.689999997600000, 0.689999997600000, 0.689999997600000 );
#396 = CARTESIAN_POINT( '', ( 0.000000000000000, -2.30940107675850, 4.00000000000000 ) );
#397 = CARTESIAN_POINT( '', ( 0.000000000000000, 2.30940107675850, 4.00000000000000 ) );
#398 = VECTOR( '', #432, 1000.00000000000 );
#399 = CARTESIAN_POINT( '', ( 5.00000000000000, -2.30940107675850, 4.00000000000000 ) );
#400 = VECTOR( '', #433, 1000.00000000000 );
#401 = COLOUR_RGB( '', 0.689999997600000, 0.689999997600000, 0.689999997600000 );
#402 = CARTESIAN_POINT( '', ( 0.000000000000000, -2.30940107675850, 4.00000000000000 ) );
#403 = VECTOR( '', #434, 1000.00000000000 );
#404 = COLOUR_RGB( '', 0.689999997600000, 0.689999997600000, 0.689999997600000 );
#405 = CARTESIAN_POINT( '', ( 0.000000000000000, 0.000000000000000, -8.65713133021676 ) );
#406 = AXIS2_PLACEMENT_3D( '', #435, #436, #437 );
#407 = COLOUR_RGB( '', 0.689999997600000, 0.689999997600000, 0.689999997600000 );
#408 = CARTESIAN_POINT( '', ( 10.0000000000000, 0.000000000000000, 0.000000000000000 ) );
#409 = DIRECTION( '', ( 1.00000000000000, 0.000000000000000, -0.000000000000000 ) );
#410 = DIRECTION( '', ( -0.000000000000000, 0.000000000000000, -1.00000000000000 ) );
#411 = DIRECTION( '', ( 0.000000000000000, 1.00000000000000, 0.000000000000000 ) );
#412 = DIRECTION( '', ( -1.00000000000000, -0.000000000000000, -0.000000000000000 ) );
#413 = DIRECTION( '', ( 0.000000000000000, 1.00000000000000, 0.000000000000000 ) );
#414 = DIRECTION( '', ( -1.00000000000000, -0.000000000000000, -0.000000000000000 ) );
#415 = DIRECTION( '', ( 0.000000000000000, 0.500000000000000, -0.866025403784439 ) );
#416 = DIRECTION( '', ( -1.00000000000000, -0.000000000000000, -0.000000000000000 ) );
#417 = DIRECTION( '', ( 0.000000000000000, 0.500000000000000, -0.866025403784439 ) );
#418 = CARTESIAN_POINT( '', ( 9.50024671981713, 0.000000000000000, 0.000000000000000 ) );
#419 = DIRECTION( '', ( 1.00000000000000, 0.000000000000000, -0.000000000000000 ) );
#420 = DIRECTION( '', ( -0.000000000000000, 0.000000000000000, -1.00000000000000 ) );
#421 = DIRECTION( '', ( 0.000000000000000, -1.00000000000000, 0.000000000000000 ) );
#422 = DIRECTION( '', ( 0.000000000000000, -0.500000000000000, 0.866025403784439 ) );
#423 = DIRECTION( '', ( 0.000000000000000, 0.500000000000000, 0.866025403784439 ) );
#424 = DIRECTION( '', ( 0.000000000000000, -0.500000000000000, -0.866025403784439 ) );
#425 = CARTESIAN_POINT( '', ( 0.499753280182865, 0.000000000000000, 0.000000000000000 ) );
#426 = DIRECTION( '', ( 1.00000000000000, 0.000000000000000, -0.000000000000000 ) );
#427 = DIRECTION( '', ( -0.000000000000000, 0.000000000000000, -1.00000000000000 ) );
#428 = DIRECTION( '', ( 0.000000000000000, 0.500000000000000, 0.866025403784439 ) );
#429 = DIRECTION( '', ( -1.00000000000000, -0.000000000000000, -0.000000000000000 ) );
#430 = DIRECTION( '', ( 0.000000000000000, -0.500000000000000, 0.866025403784439 ) );
#431 = DIRECTION( '', ( -1.00000000000000, -0.000000000000000, -0.000000000000000 ) );
#432 = DIRECTION( '', ( 0.000000000000000, -1.00000000000000, 0.000000000000000 ) );
#433 = DIRECTION( '', ( -1.00000000000000, -0.000000000000000, -0.000000000000000 ) );
#434 = DIRECTION( '', ( 0.000000000000000, -0.500000000000000, -0.866025403784439 ) );
#435 = CARTESIAN_POINT( '', ( 0.000000000000000, 0.000000000000000, 0.000000000000000 ) );
#436 = DIRECTION( '', ( 1.00000000000000, 0.000000000000000, -0.000000000000000 ) );
#437 = DIRECTION( '', ( -0.000000000000000, 0.000000000000000, -1.00000000000000 ) );
ENDSEC;
END-ISO-10303-21;
