ISO-10303-21;
HEADER;
FILE_DESCRIPTION( ( 'STEP AP214' ), '1' );
FILE_NAME( '//goodhand-server/Shared Folders/GoodHand Data/Kipp CAD/K0344/K0344.93.stp', '2020-12-03T13:53:23', ( '' ), ( '' ), ' ', 'PARTsolutions', ' ' );
FILE_SCHEMA( ( 'AUTOMOTIVE_DESIGN { 1 0 10303 214 1 1 1 1 }' ) );
ENDSEC;
DATA;
#1 = MECHANICAL_DESIGN_GEOMETRIC_PRESENTATION_REPRESENTATION( ' ', ( #10, #11, #12, #13, #14, #15, #16, #17, #18, #19, #20, #21, #22, #23 ), #6 );
#2 = PRODUCT_DEFINITION_CONTEXT( '', #24, 'design' );
#3 = APPLICATION_PROTOCOL_DEFINITION( 'international standard', 'automotive_design', 2001, #24 );
#4 = PRODUCT_CATEGORY_RELATIONSHIP( 'NONE', 'NONE', #25, #26 );
#5 = SHAPE_DEFINITION_REPRESENTATION( #27, #28 );
#6 =  ( GEOMETRIC_REPRESENTATION_CONTEXT( 3 )GLOBAL_UNCERTAINTY_ASSIGNED_CONTEXT( ( #31 ) )GLOBAL_UNIT_ASSIGNED_CONTEXT( ( #33, #34, #35 ) )REPRESENTATION_CONTEXT( 'NONE', 'WORKSPACE' ) );
#10 = STYLED_ITEM( '', ( #37 ), #38 );
#11 = STYLED_ITEM( '', ( #39 ), #40 );
#12 = STYLED_ITEM( '', ( #41 ), #42 );
#13 = STYLED_ITEM( '', ( #43 ), #44 );
#14 = STYLED_ITEM( '', ( #45 ), #46 );
#15 = STYLED_ITEM( '', ( #47 ), #48 );
#16 = STYLED_ITEM( '', ( #49 ), #50 );
#17 = STYLED_ITEM( '', ( #51 ), #52 );
#18 = STYLED_ITEM( '', ( #53 ), #54 );
#19 = STYLED_ITEM( '', ( #55 ), #56 );
#20 = STYLED_ITEM( '', ( #57 ), #58 );
#21 = STYLED_ITEM( '', ( #59 ), #60 );
#22 = STYLED_ITEM( '', ( #61 ), #62 );
#23 = STYLED_ITEM( '', ( #63 ), #64 );
#24 = APPLICATION_CONTEXT( 'core data for automotive mechanical design processes' );
#25 = PRODUCT_CATEGORY( 'part', 'NONE' );
#26 = PRODUCT_RELATED_PRODUCT_CATEGORY( 'detail', ' ', ( #65 ) );
#27 = PRODUCT_DEFINITION_SHAPE( 'NONE', 'NONE', #66 );
#28 = ADVANCED_BREP_SHAPE_REPRESENTATION( '_K0344.93', ( #67, #68 ), #6 );
#31 = UNCERTAINTY_MEASURE_WITH_UNIT( LENGTH_MEASURE( 0.00100000000000000 ), #33, '', '' );
#33 =  ( CONVERSION_BASED_UNIT( 'MILLIMETRE', #71 )LENGTH_UNIT(  )NAMED_UNIT( #74 ) );
#34 =  ( NAMED_UNIT( #76 )PLANE_ANGLE_UNIT(  )SI_UNIT( $, .RADIAN. ) );
#35 =  ( NAMED_UNIT( #76 )SI_UNIT( $, .STERADIAN. )SOLID_ANGLE_UNIT(  ) );
#37 = PRESENTATION_STYLE_ASSIGNMENT( ( #82 ) );
#38 = ADVANCED_FACE( '', ( #83, #84 ), #85, .T. );
#39 = PRESENTATION_STYLE_ASSIGNMENT( ( #86 ) );
#40 = ADVANCED_FACE( '', ( #87, #88 ), #89, .T. );
#41 = PRESENTATION_STYLE_ASSIGNMENT( ( #90 ) );
#42 = ADVANCED_FACE( '', ( #91 ), #92, .T. );
#43 = PRESENTATION_STYLE_ASSIGNMENT( ( #93 ) );
#44 = ADVANCED_FACE( '', ( #94, #95 ), #96, .T. );
#45 = PRESENTATION_STYLE_ASSIGNMENT( ( #97 ) );
#46 = ADVANCED_FACE( '', ( #98 ), #99, .T. );
#47 = PRESENTATION_STYLE_ASSIGNMENT( ( #100 ) );
#48 = ADVANCED_FACE( '', ( #101 ), #102, .T. );
#49 = PRESENTATION_STYLE_ASSIGNMENT( ( #103 ) );
#50 = ADVANCED_FACE( '', ( #104 ), #105, .F. );
#51 = PRESENTATION_STYLE_ASSIGNMENT( ( #106 ) );
#52 = ADVANCED_FACE( '', ( #107 ), #108, .T. );
#53 = PRESENTATION_STYLE_ASSIGNMENT( ( #109 ) );
#54 = ADVANCED_FACE( '', ( #110, #111, #112 ), #113, .F. );
#55 = PRESENTATION_STYLE_ASSIGNMENT( ( #114 ) );
#56 = ADVANCED_FACE( '', ( #115 ), #116, .F. );
#57 = PRESENTATION_STYLE_ASSIGNMENT( ( #117 ) );
#58 = ADVANCED_FACE( '', ( #118 ), #119, .F. );
#59 = PRESENTATION_STYLE_ASSIGNMENT( ( #120 ) );
#60 = ADVANCED_FACE( '', ( #121 ), #122, .T. );
#61 = PRESENTATION_STYLE_ASSIGNMENT( ( #123 ) );
#62 = ADVANCED_FACE( '', ( #124 ), #125, .F. );
#63 = PRESENTATION_STYLE_ASSIGNMENT( ( #126 ) );
#64 = ADVANCED_FACE( '', ( #127, #128 ), #129, .T. );
#65 = PRODUCT( '_K0344.93', '_K0344.93', 'PART-_K0344.93-DESC', ( #130 ) );
#66 = PRODUCT_DEFINITION( 'NONE', 'NONE', #131, #2 );
#67 = MANIFOLD_SOLID_BREP( '_K0344.93', #132 );
#68 = AXIS2_PLACEMENT_3D( '', #133, #134, #135 );
#71 = LENGTH_MEASURE_WITH_UNIT( LENGTH_MEASURE( 1.00000000000000 ), #136 );
#74 = DIMENSIONAL_EXPONENTS( 1.00000000000000, 0.000000000000000, 0.000000000000000, 0.000000000000000, 0.000000000000000, 0.000000000000000, 0.000000000000000 );
#76 = DIMENSIONAL_EXPONENTS( 0.000000000000000, 0.000000000000000, 0.000000000000000, 0.000000000000000, 0.000000000000000, 0.000000000000000, 0.000000000000000 );
#82 = SURFACE_STYLE_USAGE( .BOTH., #137 );
#83 = FACE_OUTER_BOUND( '', #138, .T. );
#84 = FACE_OUTER_BOUND( '', #139, .T. );
#85 = CYLINDRICAL_SURFACE( '', #140, 1.10000000000000 );
#86 = SURFACE_STYLE_USAGE( .BOTH., #141 );
#87 = FACE_BOUND( '', #142, .T. );
#88 = FACE_OUTER_BOUND( '', #143, .T. );
#89 = CONICAL_SURFACE( '', #144, 1.10000000000000, 0.261799387800000 );
#90 = SURFACE_STYLE_USAGE( .BOTH., #145 );
#91 = FACE_OUTER_BOUND( '', #146, .T. );
#92 = CYLINDRICAL_SURFACE( '', #147, 12.0000000000000 );
#93 = SURFACE_STYLE_USAGE( .BOTH., #148 );
#94 = FACE_OUTER_BOUND( '', #149, .T. );
#95 = FACE_OUTER_BOUND( '', #150, .T. );
#96 = CYLINDRICAL_SURFACE( '', #151, 1.10000000000000 );
#97 = SURFACE_STYLE_USAGE( .BOTH., #152 );
#98 = FACE_OUTER_BOUND( '', #153, .T. );
#99 = CONICAL_SURFACE( '', #154, 11.5000000000000, 0.785398163400000 );
#100 = SURFACE_STYLE_USAGE( .BOTH., #155 );
#101 = FACE_OUTER_BOUND( '', #156, .T. );
#102 = PLANE( '', #157 );
#103 = SURFACE_STYLE_USAGE( .BOTH., #158 );
#104 = FACE_OUTER_BOUND( '', #159, .T. );
#105 = PLANE( '', #160 );
#106 = SURFACE_STYLE_USAGE( .BOTH., #161 );
#107 = FACE_OUTER_BOUND( '', #162, .T. );
#108 = PLANE( '', #163 );
#109 = SURFACE_STYLE_USAGE( .BOTH., #164 );
#110 = FACE_OUTER_BOUND( '', #165, .T. );
#111 = FACE_BOUND( '', #166, .T. );
#112 = FACE_BOUND( '', #167, .T. );
#113 = PLANE( '', #168 );
#114 = SURFACE_STYLE_USAGE( .BOTH., #169 );
#115 = FACE_OUTER_BOUND( '', #170, .T. );
#116 = CYLINDRICAL_SURFACE( '', #171, 4.00000000000000 );
#117 = SURFACE_STYLE_USAGE( .BOTH., #172 );
#118 = FACE_OUTER_BOUND( '', #173, .T. );
#119 = PLANE( '', #174 );
#120 = SURFACE_STYLE_USAGE( .BOTH., #175 );
#121 = FACE_OUTER_BOUND( '', #176, .T. );
#122 = CONICAL_SURFACE( '', #177, 12.0000000000000, 0.785398163400000 );
#123 = SURFACE_STYLE_USAGE( .BOTH., #178 );
#124 = FACE_OUTER_BOUND( '', #179, .T. );
#125 = PLANE( '', #180 );
#126 = SURFACE_STYLE_USAGE( .BOTH., #181 );
#127 = FACE_BOUND( '', #182, .T. );
#128 = FACE_OUTER_BOUND( '', #183, .T. );
#129 = CONICAL_SURFACE( '', #184, 1.10000000000000, 0.261799387800000 );
#130 = PRODUCT_CONTEXT( '', #24, 'mechanical' );
#131 = PRODUCT_DEFINITION_FORMATION_WITH_SPECIFIED_SOURCE( ' ', 'NONE', #65, .NOT_KNOWN. );
#132 = CLOSED_SHELL( '', ( #48, #46, #54, #38, #62, #40, #50, #44, #64, #58, #56, #52, #42, #60 ) );
#133 = CARTESIAN_POINT( '', ( 0.000000000000000, 0.000000000000000, 0.000000000000000 ) );
#134 = DIRECTION( '', ( 0.000000000000000, 0.000000000000000, 1.00000000000000 ) );
#135 = DIRECTION( '', ( 1.00000000000000, 0.000000000000000, 0.000000000000000 ) );
#136 =  ( LENGTH_UNIT(  )NAMED_UNIT( #74 )SI_UNIT( .MILLI., .METRE. ) );
#137 = SURFACE_SIDE_STYLE( '', ( #186 ) );
#138 = EDGE_LOOP( '', ( #187 ) );
#139 = EDGE_LOOP( '', ( #188 ) );
#140 = AXIS2_PLACEMENT_3D( '', #189, #190, #191 );
#141 = SURFACE_SIDE_STYLE( '', ( #192 ) );
#142 = EDGE_LOOP( '', ( #193 ) );
#143 = EDGE_LOOP( '', ( #194 ) );
#144 = AXIS2_PLACEMENT_3D( '', #195, #196, #197 );
#145 = SURFACE_SIDE_STYLE( '', ( #198 ) );
#146 = EDGE_LOOP( '', ( #199, #200, #201, #202 ) );
#147 = AXIS2_PLACEMENT_3D( '', #203, #204, #205 );
#148 = SURFACE_SIDE_STYLE( '', ( #206 ) );
#149 = EDGE_LOOP( '', ( #207 ) );
#150 = EDGE_LOOP( '', ( #208 ) );
#151 = AXIS2_PLACEMENT_3D( '', #209, #210, #211 );
#152 = SURFACE_SIDE_STYLE( '', ( #212 ) );
#153 = EDGE_LOOP( '', ( #213, #214, #215, #216 ) );
#154 = AXIS2_PLACEMENT_3D( '', #217, #218, #219 );
#155 = SURFACE_SIDE_STYLE( '', ( #220 ) );
#156 = EDGE_LOOP( '', ( #221, #222, #223, #224, #225, #226 ) );
#157 = AXIS2_PLACEMENT_3D( '', #227, #228, #229 );
#158 = SURFACE_SIDE_STYLE( '', ( #230 ) );
#159 = EDGE_LOOP( '', ( #231 ) );
#160 = AXIS2_PLACEMENT_3D( '', #232, #233, #234 );
#161 = SURFACE_SIDE_STYLE( '', ( #235 ) );
#162 = EDGE_LOOP( '', ( #236, #237, #238, #239, #240, #241 ) );
#163 = AXIS2_PLACEMENT_3D( '', #242, #243, #244 );
#164 = SURFACE_SIDE_STYLE( '', ( #245 ) );
#165 = EDGE_LOOP( '', ( #246, #247, #248, #249 ) );
#166 = EDGE_LOOP( '', ( #250 ) );
#167 = EDGE_LOOP( '', ( #251 ) );
#168 = AXIS2_PLACEMENT_3D( '', #252, #253, #254 );
#169 = SURFACE_SIDE_STYLE( '', ( #255 ) );
#170 = EDGE_LOOP( '', ( #256, #257, #258, #259 ) );
#171 = AXIS2_PLACEMENT_3D( '', #260, #261, #262 );
#172 = SURFACE_SIDE_STYLE( '', ( #263 ) );
#173 = EDGE_LOOP( '', ( #264 ) );
#174 = AXIS2_PLACEMENT_3D( '', #265, #266, #267 );
#175 = SURFACE_SIDE_STYLE( '', ( #268 ) );
#176 = EDGE_LOOP( '', ( #269, #270, #271, #272 ) );
#177 = AXIS2_PLACEMENT_3D( '', #273, #274, #275 );
#178 = SURFACE_SIDE_STYLE( '', ( #276 ) );
#179 = EDGE_LOOP( '', ( #277, #278, #279, #280 ) );
#180 = AXIS2_PLACEMENT_3D( '', #281, #282, #283 );
#181 = SURFACE_SIDE_STYLE( '', ( #284 ) );
#182 = EDGE_LOOP( '', ( #285 ) );
#183 = EDGE_LOOP( '', ( #286 ) );
#184 = AXIS2_PLACEMENT_3D( '', #287, #288, #289 );
#186 = SURFACE_STYLE_FILL_AREA( #290 );
#187 = ORIENTED_EDGE( '', *, *, #291, .F. );
#188 = ORIENTED_EDGE( '', *, *, #292, .T. );
#189 = CARTESIAN_POINT( '', ( 5.85000000000000, -4.00000000000000, 0.000000000000000 ) );
#190 = DIRECTION( '', ( -0.000000000000000, 1.00000000000000, 0.000000000000000 ) );
#191 = DIRECTION( '', ( 0.000000000000000, 0.000000000000000, -1.00000000000000 ) );
#192 = SURFACE_STYLE_FILL_AREA( #293 );
#193 = ORIENTED_EDGE( '', *, *, #294, .F. );
#194 = ORIENTED_EDGE( '', *, *, #291, .T. );
#195 = CARTESIAN_POINT( '', ( 5.85000000000000, -3.26666666666667, 0.000000000000000 ) );
#196 = DIRECTION( '', ( -0.000000000000000, 1.00000000000000, 0.000000000000000 ) );
#197 = DIRECTION( '', ( 0.000000000000000, -0.000000000000000, 1.00000000000000 ) );
#198 = SURFACE_STYLE_FILL_AREA( #295 );
#199 = ORIENTED_EDGE( '', *, *, #296, .F. );
#200 = ORIENTED_EDGE( '', *, *, #297, .F. );
#201 = ORIENTED_EDGE( '', *, *, #298, .F. );
#202 = ORIENTED_EDGE( '', *, *, #299, .T. );
#203 = CARTESIAN_POINT( '', ( 0.000000000000000, 0.000000000000000, 0.000000000000000 ) );
#204 = DIRECTION( '', ( -0.000000000000000, 1.00000000000000, 0.000000000000000 ) );
#205 = DIRECTION( '', ( 0.000000000000000, 0.000000000000000, -1.00000000000000 ) );
#206 = SURFACE_STYLE_FILL_AREA( #300 );
#207 = ORIENTED_EDGE( '', *, *, #301, .F. );
#208 = ORIENTED_EDGE( '', *, *, #302, .T. );
#209 = CARTESIAN_POINT( '', ( -5.85000000000000, -4.00000000000000, 0.000000000000000 ) );
#210 = DIRECTION( '', ( -0.000000000000000, 1.00000000000000, 0.000000000000000 ) );
#211 = DIRECTION( '', ( 0.000000000000000, 0.000000000000000, -1.00000000000000 ) );
#212 = SURFACE_STYLE_FILL_AREA( #303 );
#213 = ORIENTED_EDGE( '', *, *, #304, .F. );
#214 = ORIENTED_EDGE( '', *, *, #299, .F. );
#215 = ORIENTED_EDGE( '', *, *, #305, .F. );
#216 = ORIENTED_EDGE( '', *, *, #306, .T. );
#217 = CARTESIAN_POINT( '', ( 0.000000000000000, 4.00000000000000, 0.000000000000000 ) );
#218 = DIRECTION( '', ( -0.000000000000000, -1.00000000000000, -0.000000000000000 ) );
#219 = DIRECTION( '', ( 0.000000000000000, 0.000000000000000, -1.00000000000000 ) );
#220 = SURFACE_STYLE_FILL_AREA( #307 );
#221 = ORIENTED_EDGE( '', *, *, #304, .T. );
#222 = ORIENTED_EDGE( '', *, *, #308, .T. );
#223 = ORIENTED_EDGE( '', *, *, #309, .T. );
#224 = ORIENTED_EDGE( '', *, *, #310, .T. );
#225 = ORIENTED_EDGE( '', *, *, #311, .T. );
#226 = ORIENTED_EDGE( '', *, *, #296, .T. );
#227 = CARTESIAN_POINT( '', ( 4.00000000000000, 4.00000000000000, 13.0000000000000 ) );
#228 = DIRECTION( '', ( -1.00000000000000, 0.000000000000000, 0.000000000000000 ) );
#229 = DIRECTION( '', ( 0.000000000000000, 0.000000000000000, 1.00000000000000 ) );
#230 = SURFACE_STYLE_FILL_AREA( #312 );
#231 = ORIENTED_EDGE( '', *, *, #294, .T. );
#232 = CARTESIAN_POINT( '', ( 6.75350392555051, -4.00000000000000, 0.000000000000000 ) );
#233 = DIRECTION( '', ( 0.000000000000000, 1.00000000000000, 0.000000000000000 ) );
#234 = DIRECTION( '', ( 0.000000000000000, -0.000000000000000, 1.00000000000000 ) );
#235 = SURFACE_STYLE_FILL_AREA( #313 );
#236 = ORIENTED_EDGE( '', *, *, #305, .T. );
#237 = ORIENTED_EDGE( '', *, *, #298, .T. );
#238 = ORIENTED_EDGE( '', *, *, #314, .T. );
#239 = ORIENTED_EDGE( '', *, *, #315, .F. );
#240 = ORIENTED_EDGE( '', *, *, #316, .F. );
#241 = ORIENTED_EDGE( '', *, *, #317, .T. );
#242 = CARTESIAN_POINT( '', ( -4.00000000000000, 4.00000000000000, 0.000000000000000 ) );
#243 = DIRECTION( '', ( 1.00000000000000, 0.000000000000000, 0.000000000000000 ) );
#244 = DIRECTION( '', ( 0.000000000000000, 0.000000000000000, -1.00000000000000 ) );
#245 = SURFACE_STYLE_FILL_AREA( #318 );
#246 = ORIENTED_EDGE( '', *, *, #310, .F. );
#247 = ORIENTED_EDGE( '', *, *, #319, .T. );
#248 = ORIENTED_EDGE( '', *, *, #315, .T. );
#249 = ORIENTED_EDGE( '', *, *, #320, .T. );
#250 = ORIENTED_EDGE( '', *, *, #292, .F. );
#251 = ORIENTED_EDGE( '', *, *, #302, .F. );
#252 = CARTESIAN_POINT( '', ( 11.5000000000000, 0.000000000000000, 0.000000000000000 ) );
#253 = DIRECTION( '', ( 0.000000000000000, 1.00000000000000, 0.000000000000000 ) );
#254 = DIRECTION( '', ( 0.000000000000000, -0.000000000000000, 1.00000000000000 ) );
#255 = SURFACE_STYLE_FILL_AREA( #321 );
#256 = ORIENTED_EDGE( '', *, *, #319, .F. );
#257 = ORIENTED_EDGE( '', *, *, #309, .F. );
#258 = ORIENTED_EDGE( '', *, *, #322, .T. );
#259 = ORIENTED_EDGE( '', *, *, #316, .T. );
#260 = CARTESIAN_POINT( '', ( -1.95156391047391E-15, 4.00000000000000, -8.67361737988404E-16 ) );
#261 = DIRECTION( '', ( -0.000000000000000, 1.00000000000000, 0.000000000000000 ) );
#262 = DIRECTION( '', ( 0.000000000000000, 0.000000000000000, -1.00000000000000 ) );
#263 = SURFACE_STYLE_FILL_AREA( #323 );
#264 = ORIENTED_EDGE( '', *, *, #324, .T. );
#265 = CARTESIAN_POINT( '', ( -4.94649607444949, -4.00000000000000, 0.000000000000000 ) );
#266 = DIRECTION( '', ( 0.000000000000000, 1.00000000000000, 0.000000000000000 ) );
#267 = DIRECTION( '', ( 0.000000000000000, -0.000000000000000, 1.00000000000000 ) );
#268 = SURFACE_STYLE_FILL_AREA( #325 );
#269 = ORIENTED_EDGE( '', *, *, #311, .F. );
#270 = ORIENTED_EDGE( '', *, *, #320, .F. );
#271 = ORIENTED_EDGE( '', *, *, #314, .F. );
#272 = ORIENTED_EDGE( '', *, *, #297, .T. );
#273 = CARTESIAN_POINT( '', ( 0.000000000000000, 0.500000000000000, 0.000000000000000 ) );
#274 = DIRECTION( '', ( -0.000000000000000, 1.00000000000000, 0.000000000000000 ) );
#275 = DIRECTION( '', ( 0.000000000000000, -0.000000000000000, 1.00000000000000 ) );
#276 = SURFACE_STYLE_FILL_AREA( #326 );
#277 = ORIENTED_EDGE( '', *, *, #308, .F. );
#278 = ORIENTED_EDGE( '', *, *, #306, .F. );
#279 = ORIENTED_EDGE( '', *, *, #317, .F. );
#280 = ORIENTED_EDGE( '', *, *, #322, .F. );
#281 = CARTESIAN_POINT( '', ( 0.000000000000000, 4.00000000000000, 0.000000000000000 ) );
#282 = DIRECTION( '', ( 0.000000000000000, -1.00000000000000, -0.000000000000000 ) );
#283 = DIRECTION( '', ( 0.000000000000000, 0.000000000000000, -1.00000000000000 ) );
#284 = SURFACE_STYLE_FILL_AREA( #327 );
#285 = ORIENTED_EDGE( '', *, *, #324, .F. );
#286 = ORIENTED_EDGE( '', *, *, #301, .T. );
#287 = CARTESIAN_POINT( '', ( -5.85000000000000, -3.26666666666667, 0.000000000000000 ) );
#288 = DIRECTION( '', ( -0.000000000000000, 1.00000000000000, 0.000000000000000 ) );
#289 = DIRECTION( '', ( 0.000000000000000, -0.000000000000000, 1.00000000000000 ) );
#290 = FILL_AREA_STYLE( '', ( #328 ) );
#291 = EDGE_CURVE( '', #329, #329, #330, .T. );
#292 = EDGE_CURVE( '', #331, #331, #332, .F. );
#293 = FILL_AREA_STYLE( '', ( #333 ) );
#294 = EDGE_CURVE( '', #334, #334, #335, .T. );
#295 = FILL_AREA_STYLE( '', ( #336 ) );
#296 = EDGE_CURVE( '', #337, #338, #339, .F. );
#297 = EDGE_CURVE( '', #340, #337, #341, .T. );
#298 = EDGE_CURVE( '', #342, #340, #343, .T. );
#299 = EDGE_CURVE( '', #342, #338, #344, .T. );
#300 = FILL_AREA_STYLE( '', ( #345 ) );
#301 = EDGE_CURVE( '', #346, #346, #347, .T. );
#302 = EDGE_CURVE( '', #348, #348, #349, .F. );
#303 = FILL_AREA_STYLE( '', ( #350 ) );
#304 = EDGE_CURVE( '', #338, #351, #352, .T. );
#305 = EDGE_CURVE( '', #353, #342, #354, .T. );
#306 = EDGE_CURVE( '', #353, #351, #355, .T. );
#307 = FILL_AREA_STYLE( '', ( #356 ) );
#308 = EDGE_CURVE( '', #351, #357, #358, .T. );
#309 = EDGE_CURVE( '', #357, #359, #360, .T. );
#310 = EDGE_CURVE( '', #359, #361, #362, .T. );
#311 = EDGE_CURVE( '', #361, #337, #363, .T. );
#312 = FILL_AREA_STYLE( '', ( #364 ) );
#313 = FILL_AREA_STYLE( '', ( #365 ) );
#314 = EDGE_CURVE( '', #340, #366, #367, .T. );
#315 = EDGE_CURVE( '', #368, #366, #369, .T. );
#316 = EDGE_CURVE( '', #370, #368, #371, .T. );
#317 = EDGE_CURVE( '', #370, #353, #372, .T. );
#318 = FILL_AREA_STYLE( '', ( #373 ) );
#319 = EDGE_CURVE( '', #359, #368, #374, .T. );
#320 = EDGE_CURVE( '', #366, #361, #375, .T. );
#321 = FILL_AREA_STYLE( '', ( #376 ) );
#322 = EDGE_CURVE( '', #357, #370, #377, .T. );
#323 = FILL_AREA_STYLE( '', ( #378 ) );
#324 = EDGE_CURVE( '', #379, #379, #380, .T. );
#325 = FILL_AREA_STYLE( '', ( #381 ) );
#326 = FILL_AREA_STYLE( '', ( #382 ) );
#327 = FILL_AREA_STYLE( '', ( #383 ) );
#328 = FILL_AREA_STYLE_COLOUR( '', #384 );
#329 = VERTEX_POINT( '', #385 );
#330 = CIRCLE( '', #386, 1.10000000000000 );
#331 = VERTEX_POINT( '', #387 );
#332 = CIRCLE( '', #388, 1.10000000000000 );
#333 = FILL_AREA_STYLE_COLOUR( '', #389 );
#334 = VERTEX_POINT( '', #390 );
#335 = CIRCLE( '', #391, 0.903503925600000 );
#336 = FILL_AREA_STYLE_COLOUR( '', #392 );
#337 = VERTEX_POINT( '', #393 );
#338 = VERTEX_POINT( '', #394 );
#339 = LINE( '', #395, #396 );
#340 = VERTEX_POINT( '', #397 );
#341 = CIRCLE( '', #398, 12.0000000000000 );
#342 = VERTEX_POINT( '', #399 );
#343 = LINE( '', #400, #401 );
#344 = CIRCLE( '', #402, 12.0000000000000 );
#345 = FILL_AREA_STYLE_COLOUR( '', #403 );
#346 = VERTEX_POINT( '', #404 );
#347 = CIRCLE( '', #405, 1.10000000000000 );
#348 = VERTEX_POINT( '', #406 );
#349 = CIRCLE( '', #407, 1.10000000000000 );
#350 = FILL_AREA_STYLE_COLOUR( '', #408 );
#351 = VERTEX_POINT( '', #409 );
#352 = B_SPLINE_CURVE_WITH_KNOTS( '', 3, ( #410, #411, #412, #413 ), .UNSPECIFIED., .F., .F., ( 4, 4 ), ( 0.0126811564657223, 0.0134110155148452 ), .UNSPECIFIED. );
#353 = VERTEX_POINT( '', #414 );
#354 = B_SPLINE_CURVE_WITH_KNOTS( '', 3, ( #415, #416, #417, #418 ), .UNSPECIFIED., .F., .F., ( 4, 4 ), ( 0.00558958259714530, 0.00631940948344471 ), .UNSPECIFIED. );
#355 = CIRCLE( '', #419, 11.5000000000000 );
#356 = FILL_AREA_STYLE_COLOUR( '', #420 );
#357 = VERTEX_POINT( '', #421 );
#358 = LINE( '', #422, #423 );
#359 = VERTEX_POINT( '', #424 );
#360 = LINE( '', #425, #426 );
#361 = VERTEX_POINT( '', #427 );
#362 = LINE( '', #428, #429 );
#363 = B_SPLINE_CURVE_WITH_KNOTS( '', 3, ( #430, #431, #432, #433 ), .UNSPECIFIED., .F., .F., ( 4, 4 ), ( 0.00558958259714530, 0.00631940948344471 ), .UNSPECIFIED. );
#364 = FILL_AREA_STYLE_COLOUR( '', #434 );
#365 = FILL_AREA_STYLE_COLOUR( '', #435 );
#366 = VERTEX_POINT( '', #436 );
#367 = B_SPLINE_CURVE_WITH_KNOTS( '', 3, ( #437, #438, #439, #440 ), .UNSPECIFIED., .F., .F., ( 4, 4 ), ( 0.0126811564657223, 0.0134110155148452 ), .UNSPECIFIED. );
#368 = VERTEX_POINT( '', #441 );
#369 = LINE( '', #442, #443 );
#370 = VERTEX_POINT( '', #444 );
#371 = LINE( '', #445, #446 );
#372 = LINE( '', #447, #448 );
#373 = FILL_AREA_STYLE_COLOUR( '', #449 );
#374 = CIRCLE( '', #450, 4.00000000000000 );
#375 = CIRCLE( '', #451, 11.5000000000000 );
#376 = FILL_AREA_STYLE_COLOUR( '', #452 );
#377 = CIRCLE( '', #453, 4.00000000000000 );
#378 = FILL_AREA_STYLE_COLOUR( '', #454 );
#379 = VERTEX_POINT( '', #455 );
#380 = CIRCLE( '', #456, 0.903503925600000 );
#381 = FILL_AREA_STYLE_COLOUR( '', #457 );
#382 = FILL_AREA_STYLE_COLOUR( '', #458 );
#383 = FILL_AREA_STYLE_COLOUR( '', #459 );
#384 = COLOUR_RGB( '', 0.689999997600000, 0.689999997600000, 0.689999997600000 );
#385 = CARTESIAN_POINT( '', ( 5.85000000000000, -3.26666666666667, -1.10000000000000 ) );
#386 = AXIS2_PLACEMENT_3D( '', #460, #461, #462 );
#387 = CARTESIAN_POINT( '', ( 5.85000000000000, 0.000000000000000, 1.10000000000000 ) );
#388 = AXIS2_PLACEMENT_3D( '', #463, #464, #465 );
#389 = COLOUR_RGB( '', 0.689999997600000, 0.689999997600000, 0.689999997600000 );
#390 = CARTESIAN_POINT( '', ( 5.85000000000000, -4.00000000000000, -0.903503925550509 ) );
#391 = AXIS2_PLACEMENT_3D( '', #466, #467, #468 );
#392 = COLOUR_RGB( '', 0.689999997600000, 0.689999997600000, 0.689999997600000 );
#393 = CARTESIAN_POINT( '', ( 4.00000000000000, 0.500000000000000, 11.3137084989848 ) );
#394 = CARTESIAN_POINT( '', ( 4.00000000000000, 3.50000000000000, 11.3137084989848 ) );
#395 = CARTESIAN_POINT( '', ( 4.00000000000000, 0.000000000000000, 11.3137084989848 ) );
#396 = VECTOR( '', #469, 1000.00000000000 );
#397 = CARTESIAN_POINT( '', ( -4.00000000000000, 0.500000000000000, 11.3137084989848 ) );
#398 = AXIS2_PLACEMENT_3D( '', #470, #471, #472 );
#399 = CARTESIAN_POINT( '', ( -4.00000000000000, 3.50000000000000, 11.3137084989848 ) );
#400 = CARTESIAN_POINT( '', ( -4.00000000000000, 0.000000000000000, 11.3137084989848 ) );
#401 = VECTOR( '', #473, 1000.00000000000 );
#402 = AXIS2_PLACEMENT_3D( '', #474, #475, #476 );
#403 = COLOUR_RGB( '', 0.689999997600000, 0.689999997600000, 0.689999997600000 );
#404 = CARTESIAN_POINT( '', ( -5.85000000000000, -3.26666666666667, -1.10000000000000 ) );
#405 = AXIS2_PLACEMENT_3D( '', #477, #478, #479 );
#406 = CARTESIAN_POINT( '', ( -5.85000000000000, 0.000000000000000, 1.10000000000000 ) );
#407 = AXIS2_PLACEMENT_3D( '', #480, #481, #482 );
#408 = COLOUR_RGB( '', 0.689999997600000, 0.689999997600000, 0.689999997600000 );
#409 = CARTESIAN_POINT( '', ( 4.00000000000000, 4.00000000000000, 10.7819293264239 ) );
#410 = CARTESIAN_POINT( '', ( 4.00000000000000, 3.50000000000000, 11.3137084989848 ) );
#411 = CARTESIAN_POINT( '', ( 4.00000000000000, 3.66690503926101, 11.1366789713713 ) );
#412 = CARTESIAN_POINT( '', ( 4.00000000000000, 3.83358273179285, 10.9594298948697 ) );
#413 = CARTESIAN_POINT( '', ( 4.00000000000000, 4.00000000000000, 10.7819293264239 ) );
#414 = CARTESIAN_POINT( '', ( -4.00000000000000, 4.00000000000000, 10.7819293264239 ) );
#415 = CARTESIAN_POINT( '', ( -4.00000000000000, 4.00000000000000, 10.7819293264239 ) );
#416 = CARTESIAN_POINT( '', ( -4.00000000000000, 3.83358273179285, 10.9594298948697 ) );
#417 = CARTESIAN_POINT( '', ( -4.00000000000000, 3.66690503926101, 11.1366789713713 ) );
#418 = CARTESIAN_POINT( '', ( -4.00000000000000, 3.50000000000000, 11.3137084989848 ) );
#419 = AXIS2_PLACEMENT_3D( '', #483, #484, #485 );
#420 = COLOUR_RGB( '', 0.689999997600000, 0.689999997600000, 0.689999997600000 );
#421 = CARTESIAN_POINT( '', ( 4.00000000000000, 4.00000000000000, 0.000000000000000 ) );
#422 = CARTESIAN_POINT( '', ( 4.00000000000000, 4.00000000000000, 13.0000000000000 ) );
#423 = VECTOR( '', #486, 1000.00000000000 );
#424 = CARTESIAN_POINT( '', ( 4.00000000000000, 0.000000000000000, 0.000000000000000 ) );
#425 = CARTESIAN_POINT( '', ( 4.00000000000000, 4.00000000000000, 0.000000000000000 ) );
#426 = VECTOR( '', #487, 1000.00000000000 );
#427 = CARTESIAN_POINT( '', ( 4.00000000000000, 0.000000000000000, 10.7819293264239 ) );
#428 = CARTESIAN_POINT( '', ( 4.00000000000000, 0.000000000000000, 0.000000000000000 ) );
#429 = VECTOR( '', #488, 1000.00000000000 );
#430 = CARTESIAN_POINT( '', ( 4.00000000000000, 2.27370905176503E-16, 10.7819293264239 ) );
#431 = CARTESIAN_POINT( '', ( 4.00000000000000, 0.166417268207153, 10.9594298948697 ) );
#432 = CARTESIAN_POINT( '', ( 4.00000000000000, 0.333094960738994, 11.1366789713713 ) );
#433 = CARTESIAN_POINT( '', ( 4.00000000000000, 0.499999999999999, 11.3137084989848 ) );
#434 = COLOUR_RGB( '', 0.689999997600000, 0.689999997600000, 0.689999997600000 );
#435 = COLOUR_RGB( '', 0.689999997600000, 0.689999997600000, 0.689999997600000 );
#436 = CARTESIAN_POINT( '', ( -4.00000000000000, 0.000000000000000, 10.7819293264239 ) );
#437 = CARTESIAN_POINT( '', ( -4.00000000000000, 0.500000000000000, 11.3137084989848 ) );
#438 = CARTESIAN_POINT( '', ( -4.00000000000000, 0.333094960738994, 11.1366789713713 ) );
#439 = CARTESIAN_POINT( '', ( -4.00000000000000, 0.166417268207153, 10.9594298948697 ) );
#440 = CARTESIAN_POINT( '', ( -4.00000000000000, -1.04580049884789E-16, 10.7819293264239 ) );
#441 = CARTESIAN_POINT( '', ( -4.00000000000000, 0.000000000000000, 0.000000000000000 ) );
#442 = CARTESIAN_POINT( '', ( -4.00000000000000, 0.000000000000000, 0.000000000000000 ) );
#443 = VECTOR( '', #489, 1000.00000000000 );
#444 = CARTESIAN_POINT( '', ( -4.00000000000000, 4.00000000000000, 0.000000000000000 ) );
#445 = CARTESIAN_POINT( '', ( -4.00000000000000, 4.00000000000000, 0.000000000000000 ) );
#446 = VECTOR( '', #490, 1000.00000000000 );
#447 = CARTESIAN_POINT( '', ( -4.00000000000000, 4.00000000000000, 0.000000000000000 ) );
#448 = VECTOR( '', #491, 1000.00000000000 );
#449 = COLOUR_RGB( '', 0.689999997600000, 0.689999997600000, 0.689999997600000 );
#450 = AXIS2_PLACEMENT_3D( '', #492, #493, #494 );
#451 = AXIS2_PLACEMENT_3D( '', #495, #496, #497 );
#452 = COLOUR_RGB( '', 0.689999997600000, 0.689999997600000, 0.689999997600000 );
#453 = AXIS2_PLACEMENT_3D( '', #498, #499, #500 );
#454 = COLOUR_RGB( '', 0.689999997600000, 0.689999997600000, 0.689999997600000 );
#455 = CARTESIAN_POINT( '', ( -5.85000000000000, -4.00000000000000, -0.903503925550510 ) );
#456 = AXIS2_PLACEMENT_3D( '', #501, #502, #503 );
#457 = COLOUR_RGB( '', 0.689999997600000, 0.689999997600000, 0.689999997600000 );
#458 = COLOUR_RGB( '', 0.689999997600000, 0.689999997600000, 0.689999997600000 );
#459 = COLOUR_RGB( '', 0.689999997600000, 0.689999997600000, 0.689999997600000 );
#460 = CARTESIAN_POINT( '', ( 5.85000000000000, -3.26666666666667, 0.000000000000000 ) );
#461 = DIRECTION( '', ( 0.000000000000000, -1.00000000000000, -0.000000000000000 ) );
#462 = DIRECTION( '', ( 0.000000000000000, 0.000000000000000, -1.00000000000000 ) );
#463 = CARTESIAN_POINT( '', ( 5.85000000000000, 0.000000000000000, 0.000000000000000 ) );
#464 = DIRECTION( '', ( 0.000000000000000, 1.00000000000000, 0.000000000000000 ) );
#465 = DIRECTION( '', ( 0.000000000000000, -0.000000000000000, 1.00000000000000 ) );
#466 = CARTESIAN_POINT( '', ( 5.85000000000000, -4.00000000000000, 0.000000000000000 ) );
#467 = DIRECTION( '', ( 0.000000000000000, -1.00000000000000, -0.000000000000000 ) );
#468 = DIRECTION( '', ( 0.000000000000000, 0.000000000000000, -1.00000000000000 ) );
#469 = DIRECTION( '', ( -0.000000000000000, -1.00000000000000, -0.000000000000000 ) );
#470 = CARTESIAN_POINT( '', ( 0.000000000000000, 0.500000000000000, 0.000000000000000 ) );
#471 = DIRECTION( '', ( 0.000000000000000, -1.00000000000000, -0.000000000000000 ) );
#472 = DIRECTION( '', ( 0.000000000000000, 0.000000000000000, -1.00000000000000 ) );
#473 = DIRECTION( '', ( -0.000000000000000, -1.00000000000000, -0.000000000000000 ) );
#474 = CARTESIAN_POINT( '', ( 0.000000000000000, 3.50000000000000, 0.000000000000000 ) );
#475 = DIRECTION( '', ( 0.000000000000000, -1.00000000000000, -0.000000000000000 ) );
#476 = DIRECTION( '', ( 0.000000000000000, 0.000000000000000, -1.00000000000000 ) );
#477 = CARTESIAN_POINT( '', ( -5.85000000000000, -3.26666666666667, 0.000000000000000 ) );
#478 = DIRECTION( '', ( 0.000000000000000, -1.00000000000000, -0.000000000000000 ) );
#479 = DIRECTION( '', ( 0.000000000000000, 0.000000000000000, -1.00000000000000 ) );
#480 = CARTESIAN_POINT( '', ( -5.85000000000000, 0.000000000000000, 0.000000000000000 ) );
#481 = DIRECTION( '', ( 0.000000000000000, 1.00000000000000, 0.000000000000000 ) );
#482 = DIRECTION( '', ( 0.000000000000000, -0.000000000000000, 1.00000000000000 ) );
#483 = CARTESIAN_POINT( '', ( 0.000000000000000, 4.00000000000000, 0.000000000000000 ) );
#484 = DIRECTION( '', ( 0.000000000000000, -1.00000000000000, -0.000000000000000 ) );
#485 = DIRECTION( '', ( 0.000000000000000, 0.000000000000000, -1.00000000000000 ) );
#486 = DIRECTION( '', ( 0.000000000000000, 0.000000000000000, -1.00000000000000 ) );
#487 = DIRECTION( '', ( -0.000000000000000, -1.00000000000000, -0.000000000000000 ) );
#488 = DIRECTION( '', ( 0.000000000000000, -0.000000000000000, 1.00000000000000 ) );
#489 = DIRECTION( '', ( 0.000000000000000, 0.000000000000000, 1.00000000000000 ) );
#490 = DIRECTION( '', ( -0.000000000000000, -1.00000000000000, -0.000000000000000 ) );
#491 = DIRECTION( '', ( 0.000000000000000, 0.000000000000000, 1.00000000000000 ) );
#492 = CARTESIAN_POINT( '', ( -1.95156391047391E-15, 0.000000000000000, -8.67361737988404E-16 ) );
#493 = DIRECTION( '', ( -0.000000000000000, 1.00000000000000, 0.000000000000000 ) );
#494 = DIRECTION( '', ( 1.00000000000000, 0.000000000000000, 0.000000000000000 ) );
#495 = CARTESIAN_POINT( '', ( 0.000000000000000, 0.000000000000000, 0.000000000000000 ) );
#496 = DIRECTION( '', ( 0.000000000000000, -1.00000000000000, -0.000000000000000 ) );
#497 = DIRECTION( '', ( 0.000000000000000, 0.000000000000000, -1.00000000000000 ) );
#498 = CARTESIAN_POINT( '', ( 8.67361737988404E-16, 4.00000000000000, -1.95156391047391E-15 ) );
#499 = DIRECTION( '', ( -0.000000000000000, 1.00000000000000, 0.000000000000000 ) );
#500 = DIRECTION( '', ( 1.00000000000000, 0.000000000000000, 0.000000000000000 ) );
#501 = CARTESIAN_POINT( '', ( -5.85000000000000, -4.00000000000000, 0.000000000000000 ) );
#502 = DIRECTION( '', ( 0.000000000000000, -1.00000000000000, -0.000000000000000 ) );
#503 = DIRECTION( '', ( 0.000000000000000, 0.000000000000000, -1.00000000000000 ) );
ENDSEC;
END-ISO-10303-21;
