ISO-10303-21;
HEADER;
FILE_DESCRIPTION( ( 'STEP AP214' ), '1' );
FILE_NAME( '//goodhand-server/Shared Folders/GoodHand Data/Kipp CAD/K0390/K0390.161X125.stp', '2020-12-07T10:16:09', ( '' ), ( '' ), ' ', 'PARTsolutions', ' ' );
FILE_SCHEMA( ( 'AUTOMOTIVE_DESIGN { 1 0 10303 214 1 1 1 1 }' ) );
ENDSEC;
DATA;
#1 = MECHANICAL_DESIGN_GEOMETRIC_PRESENTATION_REPRESENTATION( ' ', ( #10, #11, #12, #13, #14, #15, #16, #17, #18, #19, #20, #21, #22 ), #6 );
#2 = PRODUCT_DEFINITION_CONTEXT( '', #23, 'design' );
#3 = APPLICATION_PROTOCOL_DEFINITION( 'international standard', 'automotive_design', 2001, #23 );
#4 = PRODUCT_CATEGORY_RELATIONSHIP( 'NONE', 'NONE', #24, #25 );
#5 = SHAPE_DEFINITION_REPRESENTATION( #26, #27 );
#6 =  ( GEOMETRIC_REPRESENTATION_CONTEXT( 3 )GLOBAL_UNCERTAINTY_ASSIGNED_CONTEXT( ( #30 ) )GLOBAL_UNIT_ASSIGNED_CONTEXT( ( #32, #33, #34 ) )REPRESENTATION_CONTEXT( 'NONE', 'WORKSPACE' ) );
#10 = STYLED_ITEM( '', ( #36 ), #37 );
#11 = STYLED_ITEM( '', ( #38 ), #39 );
#12 = STYLED_ITEM( '', ( #40 ), #41 );
#13 = STYLED_ITEM( '', ( #42 ), #43 );
#14 = STYLED_ITEM( '', ( #44 ), #45 );
#15 = STYLED_ITEM( '', ( #46 ), #47 );
#16 = STYLED_ITEM( '', ( #48 ), #49 );
#17 = STYLED_ITEM( '', ( #50 ), #51 );
#18 = STYLED_ITEM( '', ( #52 ), #53 );
#19 = STYLED_ITEM( '', ( #54 ), #55 );
#20 = STYLED_ITEM( '', ( #56 ), #57 );
#21 = STYLED_ITEM( '', ( #58 ), #59 );
#22 = STYLED_ITEM( '', ( #60 ), #61 );
#23 = APPLICATION_CONTEXT( 'core data for automotive mechanical design processes' );
#24 = PRODUCT_CATEGORY( 'part', 'NONE' );
#25 = PRODUCT_RELATED_PRODUCT_CATEGORY( 'detail', ' ', ( #62 ) );
#26 = PRODUCT_DEFINITION_SHAPE( 'NONE', 'NONE', #63 );
#27 = ADVANCED_BREP_SHAPE_REPRESENTATION( '_K0390.161X125', ( #64, #65 ), #6 );
#30 = UNCERTAINTY_MEASURE_WITH_UNIT( LENGTH_MEASURE( 0.00100000000000000 ), #32, '', '' );
#32 =  ( CONVERSION_BASED_UNIT( 'MILLIMETRE', #68 )LENGTH_UNIT(  )NAMED_UNIT( #71 ) );
#33 =  ( NAMED_UNIT( #73 )PLANE_ANGLE_UNIT(  )SI_UNIT( $, .RADIAN. ) );
#34 =  ( NAMED_UNIT( #73 )SI_UNIT( $, .STERADIAN. )SOLID_ANGLE_UNIT(  ) );
#36 = PRESENTATION_STYLE_ASSIGNMENT( ( #79 ) );
#37 = ADVANCED_FACE( '', ( #80, #81 ), #82, .T. );
#38 = PRESENTATION_STYLE_ASSIGNMENT( ( #83 ) );
#39 = ADVANCED_FACE( '', ( #84 ), #85, .T. );
#40 = PRESENTATION_STYLE_ASSIGNMENT( ( #86 ) );
#41 = ADVANCED_FACE( '', ( #87 ), #88, .F. );
#42 = PRESENTATION_STYLE_ASSIGNMENT( ( #89 ) );
#43 = ADVANCED_FACE( '', ( #90, #91 ), #92, .T. );
#44 = PRESENTATION_STYLE_ASSIGNMENT( ( #93 ) );
#45 = ADVANCED_FACE( '', ( #94 ), #95, .F. );
#46 = PRESENTATION_STYLE_ASSIGNMENT( ( #96 ) );
#47 = ADVANCED_FACE( '', ( #97, #98 ), #99, .T. );
#48 = PRESENTATION_STYLE_ASSIGNMENT( ( #100 ) );
#49 = ADVANCED_FACE( '', ( #101 ), #102, .T. );
#50 = PRESENTATION_STYLE_ASSIGNMENT( ( #103 ) );
#51 = ADVANCED_FACE( '', ( #104 ), #105, .F. );
#52 = PRESENTATION_STYLE_ASSIGNMENT( ( #106 ) );
#53 = ADVANCED_FACE( '', ( #107 ), #108, .F. );
#54 = PRESENTATION_STYLE_ASSIGNMENT( ( #109 ) );
#55 = ADVANCED_FACE( '', ( #110, #111 ), #112, .F. );
#56 = PRESENTATION_STYLE_ASSIGNMENT( ( #113 ) );
#57 = ADVANCED_FACE( '', ( #114, #115 ), #116, .T. );
#58 = PRESENTATION_STYLE_ASSIGNMENT( ( #117 ) );
#59 = ADVANCED_FACE( '', ( #118 ), #119, .T. );
#60 = PRESENTATION_STYLE_ASSIGNMENT( ( #120 ) );
#61 = ADVANCED_FACE( '', ( #121, #122 ), #123, .T. );
#62 = PRODUCT( '_K0390.161X125', '_K0390.161X125', 'PART-_K0390.161X125-DESC', ( #124 ) );
#63 = PRODUCT_DEFINITION( 'NONE', 'NONE', #125, #2 );
#64 = MANIFOLD_SOLID_BREP( '_K0390.161X125', #126 );
#65 = AXIS2_PLACEMENT_3D( '', #127, #128, #129 );
#68 = LENGTH_MEASURE_WITH_UNIT( LENGTH_MEASURE( 1.00000000000000 ), #130 );
#71 = DIMENSIONAL_EXPONENTS( 1.00000000000000, 0.000000000000000, 0.000000000000000, 0.000000000000000, 0.000000000000000, 0.000000000000000, 0.000000000000000 );
#73 = DIMENSIONAL_EXPONENTS( 0.000000000000000, 0.000000000000000, 0.000000000000000, 0.000000000000000, 0.000000000000000, 0.000000000000000, 0.000000000000000 );
#79 = SURFACE_STYLE_USAGE( .BOTH., #131 );
#80 = FACE_OUTER_BOUND( '', #132, .T. );
#81 = FACE_OUTER_BOUND( '', #133, .T. );
#82 = CYLINDRICAL_SURFACE( '', #134, 8.00000000000000 );
#83 = SURFACE_STYLE_USAGE( .BOTH., #135 );
#84 = FACE_OUTER_BOUND( '', #136, .T. );
#85 = PLANE( '', #137 );
#86 = SURFACE_STYLE_USAGE( .BOTH., #138 );
#87 = FACE_OUTER_BOUND( '', #139, .T. );
#88 = PLANE( '', #140 );
#89 = SURFACE_STYLE_USAGE( .BOTH., #141 );
#90 = FACE_BOUND( '', #142, .T. );
#91 = FACE_OUTER_BOUND( '', #143, .T. );
#92 = CONICAL_SURFACE( '', #144, 8.00000000000000, 1.13808724680000 );
#93 = SURFACE_STYLE_USAGE( .BOTH., #145 );
#94 = FACE_OUTER_BOUND( '', #146, .T. );
#95 = PLANE( '', #147 );
#96 = SURFACE_STYLE_USAGE( .BOTH., #148 );
#97 = FACE_OUTER_BOUND( '', #149, .T. );
#98 = FACE_OUTER_BOUND( '', #150, .T. );
#99 = CYLINDRICAL_SURFACE( '', #151, 6.00000000000000 );
#100 = SURFACE_STYLE_USAGE( .BOTH., #152 );
#101 = FACE_OUTER_BOUND( '', #153, .T. );
#102 = CONICAL_SURFACE( '', #154, 6.77300000000000, 0.785398163400000 );
#103 = SURFACE_STYLE_USAGE( .BOTH., #155 );
#104 = FACE_OUTER_BOUND( '', #156, .T. );
#105 = PLANE( '', #157 );
#106 = SURFACE_STYLE_USAGE( .BOTH., #158 );
#107 = FACE_OUTER_BOUND( '', #159, .T. );
#108 = PLANE( '', #160 );
#109 = SURFACE_STYLE_USAGE( .BOTH., #161 );
#110 = FACE_OUTER_BOUND( '', #162, .T. );
#111 = FACE_BOUND( '', #163, .T. );
#112 = PLANE( '', #164 );
#113 = SURFACE_STYLE_USAGE( .BOTH., #165 );
#114 = FACE_OUTER_BOUND( '', #166, .T. );
#115 = FACE_OUTER_BOUND( '', #167, .T. );
#116 = CYLINDRICAL_SURFACE( '', #168, 5.50000000000000 );
#117 = SURFACE_STYLE_USAGE( .BOTH., #169 );
#118 = FACE_OUTER_BOUND( '', #170, .T. );
#119 = CONICAL_SURFACE( '', #171, 6.77300000000000, 0.785398163400000 );
#120 = SURFACE_STYLE_USAGE( .BOTH., #172 );
#121 = FACE_BOUND( '', #173, .T. );
#122 = FACE_OUTER_BOUND( '', #174, .T. );
#123 = SPHERICAL_SURFACE( '', #175, 10.0644000000000 );
#124 = PRODUCT_CONTEXT( '', #23, 'mechanical' );
#125 = PRODUCT_DEFINITION_FORMATION_WITH_SPECIFIED_SOURCE( ' ', 'NONE', #62, .NOT_KNOWN. );
#126 = CLOSED_SHELL( '', ( #45, #51, #61, #47, #55, #57, #43, #37, #49, #41, #59, #53, #39 ) );
#127 = CARTESIAN_POINT( '', ( 0.000000000000000, 0.000000000000000, 0.000000000000000 ) );
#128 = DIRECTION( '', ( 0.000000000000000, 0.000000000000000, 1.00000000000000 ) );
#129 = DIRECTION( '', ( 1.00000000000000, 0.000000000000000, 0.000000000000000 ) );
#130 =  ( LENGTH_UNIT(  )NAMED_UNIT( #71 )SI_UNIT( .MILLI., .METRE. ) );
#131 = SURFACE_SIDE_STYLE( '', ( #177 ) );
#132 = EDGE_LOOP( '', ( #178 ) );
#133 = EDGE_LOOP( '', ( #179, #180, #181, #182, #183, #184, #185, #186 ) );
#134 = AXIS2_PLACEMENT_3D( '', #187, #188, #189 );
#135 = SURFACE_SIDE_STYLE( '', ( #190 ) );
#136 = EDGE_LOOP( '', ( #191, #192, #193, #194 ) );
#137 = AXIS2_PLACEMENT_3D( '', #195, #196, #197 );
#138 = SURFACE_SIDE_STYLE( '', ( #198 ) );
#139 = EDGE_LOOP( '', ( #199, #200 ) );
#140 = AXIS2_PLACEMENT_3D( '', #201, #202, #203 );
#141 = SURFACE_SIDE_STYLE( '', ( #204 ) );
#142 = EDGE_LOOP( '', ( #205 ) );
#143 = EDGE_LOOP( '', ( #206 ) );
#144 = AXIS2_PLACEMENT_3D( '', #207, #208, #209 );
#145 = SURFACE_SIDE_STYLE( '', ( #210 ) );
#146 = EDGE_LOOP( '', ( #211, #212, #213, #214, #215, #216 ) );
#147 = AXIS2_PLACEMENT_3D( '', #217, #218, #219 );
#148 = SURFACE_SIDE_STYLE( '', ( #220 ) );
#149 = EDGE_LOOP( '', ( #221 ) );
#150 = EDGE_LOOP( '', ( #222 ) );
#151 = AXIS2_PLACEMENT_3D( '', #223, #224, #225 );
#152 = SURFACE_SIDE_STYLE( '', ( #226 ) );
#153 = EDGE_LOOP( '', ( #227, #228, #229, #230 ) );
#154 = AXIS2_PLACEMENT_3D( '', #231, #232, #233 );
#155 = SURFACE_SIDE_STYLE( '', ( #234 ) );
#156 = EDGE_LOOP( '', ( #235, #236, #237, #238, #239, #240 ) );
#157 = AXIS2_PLACEMENT_3D( '', #241, #242, #243 );
#158 = SURFACE_SIDE_STYLE( '', ( #244 ) );
#159 = EDGE_LOOP( '', ( #245, #246 ) );
#160 = AXIS2_PLACEMENT_3D( '', #247, #248, #249 );
#161 = SURFACE_SIDE_STYLE( '', ( #250 ) );
#162 = EDGE_LOOP( '', ( #251 ) );
#163 = EDGE_LOOP( '', ( #252 ) );
#164 = AXIS2_PLACEMENT_3D( '', #253, #254, #255 );
#165 = SURFACE_SIDE_STYLE( '', ( #256 ) );
#166 = EDGE_LOOP( '', ( #257 ) );
#167 = EDGE_LOOP( '', ( #258 ) );
#168 = AXIS2_PLACEMENT_3D( '', #259, #260, #261 );
#169 = SURFACE_SIDE_STYLE( '', ( #262 ) );
#170 = EDGE_LOOP( '', ( #263, #264, #265, #266 ) );
#171 = AXIS2_PLACEMENT_3D( '', #267, #268, #269 );
#172 = SURFACE_SIDE_STYLE( '', ( #270 ) );
#173 = VERTEX_LOOP( '', #271 );
#174 = EDGE_LOOP( '', ( #272 ) );
#175 = AXIS2_PLACEMENT_3D( '', #273, #274, #275 );
#177 = SURFACE_STYLE_FILL_AREA( #276 );
#178 = ORIENTED_EDGE( '', *, *, #277, .F. );
#179 = ORIENTED_EDGE( '', *, *, #278, .T. );
#180 = ORIENTED_EDGE( '', *, *, #279, .T. );
#181 = ORIENTED_EDGE( '', *, *, #280, .F. );
#182 = ORIENTED_EDGE( '', *, *, #281, .T. );
#183 = ORIENTED_EDGE( '', *, *, #282, .T. );
#184 = ORIENTED_EDGE( '', *, *, #283, .T. );
#185 = ORIENTED_EDGE( '', *, *, #284, .F. );
#186 = ORIENTED_EDGE( '', *, *, #285, .T. );
#187 = CARTESIAN_POINT( '', ( 125.000000000000, 2.13162820728030E-14, 0.000000000000000 ) );
#188 = DIRECTION( '', ( -1.00000000000000, 6.12323399573677E-17, 0.000000000000000 ) );
#189 = DIRECTION( '', ( 6.12323399573677E-17, 1.00000000000000, 0.000000000000000 ) );
#190 = SURFACE_STYLE_FILL_AREA( #286 );
#191 = ORIENTED_EDGE( '', *, *, #280, .T. );
#192 = ORIENTED_EDGE( '', *, *, #287, .T. );
#193 = ORIENTED_EDGE( '', *, *, #284, .T. );
#194 = ORIENTED_EDGE( '', *, *, #288, .T. );
#195 = CARTESIAN_POINT( '', ( 3.00000000000003, -0.000000000000000, -0.000000000000000 ) );
#196 = DIRECTION( '', ( -1.00000000000000, 0.000000000000000, 0.000000000000000 ) );
#197 = DIRECTION( '', ( 0.000000000000000, 0.000000000000000, 1.00000000000000 ) );
#198 = SURFACE_STYLE_FILL_AREA( #289 );
#199 = ORIENTED_EDGE( '', *, *, #290, .F. );
#200 = ORIENTED_EDGE( '', *, *, #291, .F. );
#201 = CARTESIAN_POINT( '', ( 2.82143461111384E-14, 2.89703245674740E-14, 0.000000000000000 ) );
#202 = DIRECTION( '', ( 1.00000000000000, -6.12323399573677E-17, -0.000000000000000 ) );
#203 = DIRECTION( '', ( 6.12323399573677E-17, 1.00000000000000, 0.000000000000000 ) );
#204 = SURFACE_STYLE_FILL_AREA( #292 );
#205 = ORIENTED_EDGE( '', *, *, #293, .F. );
#206 = ORIENTED_EDGE( '', *, *, #277, .T. );
#207 = CARTESIAN_POINT( '', ( 113.000000000000, 2.20510701522914E-14, 0.000000000000000 ) );
#208 = DIRECTION( '', ( -1.00000000000000, 6.12323399573677E-17, -0.000000000000000 ) );
#209 = DIRECTION( '', ( -6.12323399573677E-17, -1.00000000000000, 0.000000000000000 ) );
#210 = SURFACE_STYLE_FILL_AREA( #294 );
#211 = ORIENTED_EDGE( '', *, *, #295, .F. );
#212 = ORIENTED_EDGE( '', *, *, #296, .T. );
#213 = ORIENTED_EDGE( '', *, *, #297, .F. );
#214 = ORIENTED_EDGE( '', *, *, #281, .F. );
#215 = ORIENTED_EDGE( '', *, *, #288, .F. );
#216 = ORIENTED_EDGE( '', *, *, #283, .F. );
#217 = CARTESIAN_POINT( '', ( 3.00000000000003, 0.900000000000029, 10.5000000000000 ) );
#218 = DIRECTION( '', ( 0.000000000000000, 1.00000000000000, 0.000000000000000 ) );
#219 = DIRECTION( '', ( 0.000000000000000, -0.000000000000000, 1.00000000000000 ) );
#220 = SURFACE_STYLE_FILL_AREA( #298 );
#221 = ORIENTED_EDGE( '', *, *, #299, .F. );
#222 = ORIENTED_EDGE( '', *, *, #300, .T. );
#223 = CARTESIAN_POINT( '', ( 125.000000000000, 2.13162820728030E-14, 0.000000000000000 ) );
#224 = DIRECTION( '', ( -1.00000000000000, 6.12323399573677E-17, 0.000000000000000 ) );
#225 = DIRECTION( '', ( 6.12323399573677E-17, 1.00000000000000, 0.000000000000000 ) );
#226 = SURFACE_STYLE_FILL_AREA( #301 );
#227 = ORIENTED_EDGE( '', *, *, #302, .T. );
#228 = ORIENTED_EDGE( '', *, *, #295, .T. );
#229 = ORIENTED_EDGE( '', *, *, #282, .F. );
#230 = ORIENTED_EDGE( '', *, *, #297, .T. );
#231 = CARTESIAN_POINT( '', ( 2.77555756156289E-14, 2.89703245674740E-14, 0.000000000000000 ) );
#232 = DIRECTION( '', ( 1.00000000000000, -6.12323399573677E-17, -0.000000000000000 ) );
#233 = DIRECTION( '', ( 6.12323399573677E-17, 1.00000000000000, 0.000000000000000 ) );
#234 = SURFACE_STYLE_FILL_AREA( #303 );
#235 = ORIENTED_EDGE( '', *, *, #291, .T. );
#236 = ORIENTED_EDGE( '', *, *, #304, .F. );
#237 = ORIENTED_EDGE( '', *, *, #285, .F. );
#238 = ORIENTED_EDGE( '', *, *, #287, .F. );
#239 = ORIENTED_EDGE( '', *, *, #279, .F. );
#240 = ORIENTED_EDGE( '', *, *, #305, .F. );
#241 = CARTESIAN_POINT( '', ( 3.00000000000003, -0.899999999999971, -10.5000000000000 ) );
#242 = DIRECTION( '', ( 0.000000000000000, -1.00000000000000, 0.000000000000000 ) );
#243 = DIRECTION( '', ( 0.000000000000000, 0.000000000000000, -1.00000000000000 ) );
#244 = SURFACE_STYLE_FILL_AREA( #306 );
#245 = ORIENTED_EDGE( '', *, *, #302, .F. );
#246 = ORIENTED_EDGE( '', *, *, #296, .F. );
#247 = CARTESIAN_POINT( '', ( 2.82143461111384E-14, 2.89703245674740E-14, 0.000000000000000 ) );
#248 = DIRECTION( '', ( 1.00000000000000, -6.12323399573677E-17, -0.000000000000000 ) );
#249 = DIRECTION( '', ( 6.12323399573677E-17, 1.00000000000000, 0.000000000000000 ) );
#250 = SURFACE_STYLE_FILL_AREA( #307 );
#251 = ORIENTED_EDGE( '', *, *, #300, .F. );
#252 = ORIENTED_EDGE( '', *, *, #308, .T. );
#253 = CARTESIAN_POINT( '', ( 120.000000000000, 5.50000000000002, 0.000000000000000 ) );
#254 = DIRECTION( '', ( 1.00000000000000, -6.12323399573677E-17, -0.000000000000000 ) );
#255 = DIRECTION( '', ( 6.12323399573677E-17, 1.00000000000000, 0.000000000000000 ) );
#256 = SURFACE_STYLE_FILL_AREA( #309 );
#257 = ORIENTED_EDGE( '', *, *, #308, .F. );
#258 = ORIENTED_EDGE( '', *, *, #293, .T. );
#259 = CARTESIAN_POINT( '', ( 125.000000000000, 2.13162820728030E-14, 0.000000000000000 ) );
#260 = DIRECTION( '', ( -1.00000000000000, 6.12323399573677E-17, 0.000000000000000 ) );
#261 = DIRECTION( '', ( 6.12323399573677E-17, 1.00000000000000, 0.000000000000000 ) );
#262 = SURFACE_STYLE_FILL_AREA( #310 );
#263 = ORIENTED_EDGE( '', *, *, #278, .F. );
#264 = ORIENTED_EDGE( '', *, *, #304, .T. );
#265 = ORIENTED_EDGE( '', *, *, #290, .T. );
#266 = ORIENTED_EDGE( '', *, *, #305, .T. );
#267 = CARTESIAN_POINT( '', ( 2.77555756156289E-14, 2.89703245674740E-14, 0.000000000000000 ) );
#268 = DIRECTION( '', ( 1.00000000000000, -6.12323399573677E-17, -0.000000000000000 ) );
#269 = DIRECTION( '', ( 6.12323399573677E-17, 1.00000000000000, 0.000000000000000 ) );
#270 = SURFACE_STYLE_FILL_AREA( #311 );
#271 = VERTEX_POINT( '', #312 );
#272 = ORIENTED_EDGE( '', *, *, #299, .T. );
#273 = CARTESIAN_POINT( '', ( 114.935600000000, 2.34187669256869E-14, 0.000000000000000 ) );
#274 = DIRECTION( '', ( 1.00000000000000, 0.000000000000000, 0.000000000000000 ) );
#275 = DIRECTION( '', ( 0.000000000000000, 1.00000000000000, 0.000000000000000 ) );
#276 = FILL_AREA_STYLE( '', ( #313 ) );
#277 = EDGE_CURVE( '', #314, #314, #315, .T. );
#278 = EDGE_CURVE( '', #316, #317, #318, .T. );
#279 = EDGE_CURVE( '', #317, #319, #320, .T. );
#280 = EDGE_CURVE( '', #321, #319, #322, .T. );
#281 = EDGE_CURVE( '', #321, #323, #324, .F. );
#282 = EDGE_CURVE( '', #323, #325, #326, .T. );
#283 = EDGE_CURVE( '', #325, #327, #328, .T. );
#284 = EDGE_CURVE( '', #329, #327, #330, .T. );
#285 = EDGE_CURVE( '', #329, #316, #331, .F. );
#286 = FILL_AREA_STYLE( '', ( #332 ) );
#287 = EDGE_CURVE( '', #319, #329, #333, .T. );
#288 = EDGE_CURVE( '', #327, #321, #334, .T. );
#289 = FILL_AREA_STYLE( '', ( #335 ) );
#290 = EDGE_CURVE( '', #336, #337, #338, .T. );
#291 = EDGE_CURVE( '', #337, #336, #339, .T. );
#292 = FILL_AREA_STYLE( '', ( #340 ) );
#293 = EDGE_CURVE( '', #341, #341, #342, .T. );
#294 = FILL_AREA_STYLE( '', ( #343 ) );
#295 = EDGE_CURVE( '', #344, #325, #345, .T. );
#296 = EDGE_CURVE( '', #344, #346, #347, .T. );
#297 = EDGE_CURVE( '', #323, #346, #348, .T. );
#298 = FILL_AREA_STYLE( '', ( #349 ) );
#299 = EDGE_CURVE( '', #350, #350, #351, .T. );
#300 = EDGE_CURVE( '', #352, #352, #353, .T. );
#301 = FILL_AREA_STYLE( '', ( #354 ) );
#302 = EDGE_CURVE( '', #346, #344, #355, .T. );
#303 = FILL_AREA_STYLE( '', ( #356 ) );
#304 = EDGE_CURVE( '', #316, #336, #357, .T. );
#305 = EDGE_CURVE( '', #337, #317, #358, .T. );
#306 = FILL_AREA_STYLE( '', ( #359 ) );
#307 = FILL_AREA_STYLE( '', ( #360 ) );
#308 = EDGE_CURVE( '', #361, #361, #362, .T. );
#309 = FILL_AREA_STYLE( '', ( #363 ) );
#310 = FILL_AREA_STYLE( '', ( #364 ) );
#311 = FILL_AREA_STYLE( '', ( #365 ) );
#312 = CARTESIAN_POINT( '', ( 125.000000000000, 2.34187669256869E-14, 0.000000000000000 ) );
#313 = FILL_AREA_STYLE_COLOUR( '', #366 );
#314 = VERTEX_POINT( '', #367 );
#315 = CIRCLE( '', #368, 8.00000000000000 );
#316 = VERTEX_POINT( '', #369 );
#317 = VERTEX_POINT( '', #370 );
#318 = CIRCLE( '', #371, 8.00000000000000 );
#319 = VERTEX_POINT( '', #372 );
#320 = LINE( '', #373, #374 );
#321 = VERTEX_POINT( '', #375 );
#322 = CIRCLE( '', #376, 8.00000000000000 );
#323 = VERTEX_POINT( '', #377 );
#324 = LINE( '', #378, #379 );
#325 = VERTEX_POINT( '', #380 );
#326 = CIRCLE( '', #381, 8.00000000000000 );
#327 = VERTEX_POINT( '', #382 );
#328 = LINE( '', #383, #384 );
#329 = VERTEX_POINT( '', #385 );
#330 = CIRCLE( '', #386, 8.00000000000000 );
#331 = LINE( '', #387, #388 );
#332 = FILL_AREA_STYLE_COLOUR( '', #389 );
#333 = LINE( '', #390, #391 );
#334 = LINE( '', #392, #393 );
#335 = FILL_AREA_STYLE_COLOUR( '', #394 );
#336 = VERTEX_POINT( '', #395 );
#337 = VERTEX_POINT( '', #396 );
#338 = CIRCLE( '', #397, 6.77300000000000 );
#339 = LINE( '', #398, #399 );
#340 = FILL_AREA_STYLE_COLOUR( '', #400 );
#341 = VERTEX_POINT( '', #401 );
#342 = CIRCLE( '', #402, 5.50000000000000 );
#343 = FILL_AREA_STYLE_COLOUR( '', #403 );
#344 = VERTEX_POINT( '', #404 );
#345 = B_SPLINE_CURVE_WITH_KNOTS( '', 3, ( #405, #406, #407, #408 ), .UNSPECIFIED., .F., .F., ( 4, 4 ), ( 0.0333752047769191, 0.0351188466568865 ), .UNSPECIFIED. );
#346 = VERTEX_POINT( '', #409 );
#347 = LINE( '', #410, #411 );
#348 = B_SPLINE_CURVE_WITH_KNOTS( '', 3, ( #412, #413, #414, #415 ), .UNSPECIFIED., .F., .F., ( 4, 4 ), ( 0.0136362270213629, 0.0153780387903499 ), .UNSPECIFIED. );
#349 = FILL_AREA_STYLE_COLOUR( '', #416 );
#350 = VERTEX_POINT( '', #417 );
#351 = CIRCLE( '', #418, 6.00000000000000 );
#352 = VERTEX_POINT( '', #419 );
#353 = CIRCLE( '', #420, 6.00000000000000 );
#354 = FILL_AREA_STYLE_COLOUR( '', #421 );
#355 = CIRCLE( '', #422, 6.77300000000000 );
#356 = FILL_AREA_STYLE_COLOUR( '', #423 );
#357 = B_SPLINE_CURVE_WITH_KNOTS( '', 3, ( #424, #425, #426, #427 ), .UNSPECIFIED., .F., .F., ( 4, 4 ), ( 0.0136362270213629, 0.0153780387903499 ), .UNSPECIFIED. );
#358 = B_SPLINE_CURVE_WITH_KNOTS( '', 3, ( #428, #429, #430, #431 ), .UNSPECIFIED., .F., .F., ( 4, 4 ), ( 0.0333752047769191, 0.0351188466568865 ), .UNSPECIFIED. );
#359 = FILL_AREA_STYLE_COLOUR( '', #432 );
#360 = FILL_AREA_STYLE_COLOUR( '', #433 );
#361 = VERTEX_POINT( '', #434 );
#362 = CIRCLE( '', #435, 5.50000000000000 );
#363 = FILL_AREA_STYLE_COLOUR( '', #436 );
#364 = FILL_AREA_STYLE_COLOUR( '', #437 );
#365 = FILL_AREA_STYLE_COLOUR( '', #438 );
#366 = COLOUR_RGB( '', 0.689999997600000, 0.689999997600000, 0.689999997600000 );
#367 = CARTESIAN_POINT( '', ( 113.000000000000, 8.00000000000002, 0.000000000000000 ) );
#368 = AXIS2_PLACEMENT_3D( '', #439, #440, #441 );
#369 = CARTESIAN_POINT( '', ( 1.22700000000003, -0.899999999999963, 7.94921379760288 ) );
#370 = CARTESIAN_POINT( '', ( 1.22700000000003, -0.899999999999963, -7.94921379760288 ) );
#371 = AXIS2_PLACEMENT_3D( '', #442, #443, #444 );
#372 = CARTESIAN_POINT( '', ( 3.00000000000003, -0.899999999999971, -7.94921379760288 ) );
#373 = CARTESIAN_POINT( '', ( 125.000000000000, -0.899999999999971, -7.94921379760288 ) );
#374 = VECTOR( '', #445, 1000.00000000000 );
#375 = CARTESIAN_POINT( '', ( 3.00000000000003, 0.900000000000029, -7.94921379760288 ) );
#376 = AXIS2_PLACEMENT_3D( '', #446, #447, #448 );
#377 = CARTESIAN_POINT( '', ( 1.22700000000003, 0.900000000000037, -7.94921379760288 ) );
#378 = CARTESIAN_POINT( '', ( 125.000000000000, 0.900000000000029, -7.94921379760288 ) );
#379 = VECTOR( '', #449, 1000.00000000000 );
#380 = CARTESIAN_POINT( '', ( 1.22700000000003, 0.900000000000037, 7.94921379760288 ) );
#381 = AXIS2_PLACEMENT_3D( '', #450, #451, #452 );
#382 = CARTESIAN_POINT( '', ( 3.00000000000003, 0.900000000000029, 7.94921379760288 ) );
#383 = CARTESIAN_POINT( '', ( 125.000000000000, 0.900000000000029, 7.94921379760288 ) );
#384 = VECTOR( '', #453, 1000.00000000000 );
#385 = CARTESIAN_POINT( '', ( 3.00000000000003, -0.899999999999971, 7.94921379760288 ) );
#386 = AXIS2_PLACEMENT_3D( '', #454, #455, #456 );
#387 = CARTESIAN_POINT( '', ( 125.000000000000, -0.899999999999971, 7.94921379760288 ) );
#388 = VECTOR( '', #457, 1000.00000000000 );
#389 = COLOUR_RGB( '', 0.689999997600000, 0.689999997600000, 0.689999997600000 );
#390 = CARTESIAN_POINT( '', ( 3.00000000000003, -0.899999999999971, -10.5000000000000 ) );
#391 = VECTOR( '', #458, 1000.00000000000 );
#392 = CARTESIAN_POINT( '', ( 3.00000000000003, 0.900000000000029, 10.5000000000000 ) );
#393 = VECTOR( '', #459, 1000.00000000000 );
#394 = COLOUR_RGB( '', 0.689999997600000, 0.689999997600000, 0.689999997600000 );
#395 = CARTESIAN_POINT( '', ( 2.84217094304040E-14, -0.899999999999971, 6.71293743453639 ) );
#396 = CARTESIAN_POINT( '', ( 2.84217094304040E-14, -0.899999999999971, -6.71293743453639 ) );
#397 = AXIS2_PLACEMENT_3D( '', #460, #461, #462 );
#398 = CARTESIAN_POINT( '', ( 2.84217094304040E-14, -0.899999999999971, -10.5000000000000 ) );
#399 = VECTOR( '', #463, 1000.00000000000 );
#400 = COLOUR_RGB( '', 0.689999997600000, 0.689999997600000, 0.689999997600000 );
#401 = CARTESIAN_POINT( '', ( 114.154760000000, 5.50000000000002, 0.000000000000000 ) );
#402 = AXIS2_PLACEMENT_3D( '', #464, #465, #466 );
#403 = COLOUR_RGB( '', 0.689999997600000, 0.689999997600000, 0.689999997600000 );
#404 = CARTESIAN_POINT( '', ( 2.84217094304040E-14, 0.900000000000029, 6.71293743453639 ) );
#405 = CARTESIAN_POINT( '', ( 2.93329511168909E-14, 0.900000000000029, 6.71293743453639 ) );
#406 = CARTESIAN_POINT( '', ( 0.408715634480854, 0.900000000000029, 7.12530996434678 ) );
#407 = CARTESIAN_POINT( '', ( 0.817759551175716, 0.900000000000029, 7.53735877974164 ) );
#408 = CARTESIAN_POINT( '', ( 1.22700000000003, 0.900000000000029, 7.94921379760287 ) );
#409 = CARTESIAN_POINT( '', ( 2.84217094304040E-14, 0.900000000000029, -6.71293743453639 ) );
#410 = CARTESIAN_POINT( '', ( 2.84217094304040E-14, 0.900000000000029, 10.5000000000000 ) );
#411 = VECTOR( '', #467, 1000.00000000000 );
#412 = CARTESIAN_POINT( '', ( 1.22700000000003, 0.900000000000029, -7.94921379760288 ) );
#413 = CARTESIAN_POINT( '', ( 0.817760310665043, 0.900000000000029, -7.53735954408322 ) );
#414 = CARTESIAN_POINT( '', ( 0.408716531538618, 0.900000000000029, -7.12531086943078 ) );
#415 = CARTESIAN_POINT( '', ( 2.73909295861972E-14, 0.900000000000029, -6.71293743453639 ) );
#416 = COLOUR_RGB( '', 0.689999997600000, 0.689999997600000, 0.689999997600000 );
#417 = CARTESIAN_POINT( '', ( 123.015955645638, 6.00000000000002, 0.000000000000000 ) );
#418 = AXIS2_PLACEMENT_3D( '', #468, #469, #470 );
#419 = CARTESIAN_POINT( '', ( 120.000000000000, 6.00000000000002, 0.000000000000000 ) );
#420 = AXIS2_PLACEMENT_3D( '', #471, #472, #473 );
#421 = COLOUR_RGB( '', 0.689999997600000, 0.689999997600000, 0.689999997600000 );
#422 = AXIS2_PLACEMENT_3D( '', #474, #475, #476 );
#423 = COLOUR_RGB( '', 0.689999997600000, 0.689999997600000, 0.689999997600000 );
#424 = CARTESIAN_POINT( '', ( 1.22700000000003, -0.899999999999971, 7.94921379760288 ) );
#425 = CARTESIAN_POINT( '', ( 0.817760310665047, -0.899999999999971, 7.53735954408323 ) );
#426 = CARTESIAN_POINT( '', ( 0.408716531538621, -0.899999999999971, 7.12531086943078 ) );
#427 = CARTESIAN_POINT( '', ( 2.90652413737022E-14, -0.899999999999971, 6.71293743453639 ) );
#428 = CARTESIAN_POINT( '', ( 2.73219902488370E-14, -0.899999999999971, -6.71293743453639 ) );
#429 = CARTESIAN_POINT( '', ( 0.408715634480854, -0.899999999999971, -7.12530996434678 ) );
#430 = CARTESIAN_POINT( '', ( 0.817759551175717, -0.899999999999971, -7.53735877974164 ) );
#431 = CARTESIAN_POINT( '', ( 1.22700000000003, -0.899999999999971, -7.94921379760288 ) );
#432 = COLOUR_RGB( '', 0.689999997600000, 0.689999997600000, 0.689999997600000 );
#433 = COLOUR_RGB( '', 0.689999997600000, 0.689999997600000, 0.689999997600000 );
#434 = CARTESIAN_POINT( '', ( 120.000000000000, 5.50000000000002, 0.000000000000000 ) );
#435 = AXIS2_PLACEMENT_3D( '', #477, #478, #479 );
#436 = COLOUR_RGB( '', 0.689999997600000, 0.689999997600000, 0.689999997600000 );
#437 = COLOUR_RGB( '', 0.689999997600000, 0.689999997600000, 0.689999997600000 );
#438 = COLOUR_RGB( '', 0.689999997600000, 0.689999997600000, 0.689999997600000 );
#439 = CARTESIAN_POINT( '', ( 113.000000000000, 2.20510701522914E-14, 0.000000000000000 ) );
#440 = DIRECTION( '', ( 1.00000000000000, -6.12323399573677E-17, -0.000000000000000 ) );
#441 = DIRECTION( '', ( 6.12323399573677E-17, 1.00000000000000, 0.000000000000000 ) );
#442 = CARTESIAN_POINT( '', ( 1.22700000000003, 2.88951924863463E-14, 0.000000000000000 ) );
#443 = DIRECTION( '', ( 1.00000000000000, -6.12323399573677E-17, -0.000000000000000 ) );
#444 = DIRECTION( '', ( 6.12323399573677E-17, 1.00000000000000, 0.000000000000000 ) );
#445 = DIRECTION( '', ( 1.00000000000000, -6.12323399573677E-17, -0.000000000000000 ) );
#446 = CARTESIAN_POINT( '', ( 3.00000000000003, 2.87866275476019E-14, 0.000000000000000 ) );
#447 = DIRECTION( '', ( -1.00000000000000, 0.000000000000000, 0.000000000000000 ) );
#448 = DIRECTION( '', ( 0.000000000000000, 0.000000000000000, 1.00000000000000 ) );
#449 = DIRECTION( '', ( 1.00000000000000, -6.12323399573677E-17, -0.000000000000000 ) );
#450 = CARTESIAN_POINT( '', ( 1.22700000000003, 2.88951924863463E-14, 0.000000000000000 ) );
#451 = DIRECTION( '', ( 1.00000000000000, -6.12323399573677E-17, -0.000000000000000 ) );
#452 = DIRECTION( '', ( 6.12323399573677E-17, 1.00000000000000, 0.000000000000000 ) );
#453 = DIRECTION( '', ( 1.00000000000000, -6.12323399573677E-17, -0.000000000000000 ) );
#454 = CARTESIAN_POINT( '', ( 3.00000000000003, 2.87866275476019E-14, 0.000000000000000 ) );
#455 = DIRECTION( '', ( -1.00000000000000, 0.000000000000000, 0.000000000000000 ) );
#456 = DIRECTION( '', ( 0.000000000000000, 0.000000000000000, 1.00000000000000 ) );
#457 = DIRECTION( '', ( 1.00000000000000, -6.12323399573677E-17, -0.000000000000000 ) );
#458 = DIRECTION( '', ( 0.000000000000000, 0.000000000000000, 1.00000000000000 ) );
#459 = DIRECTION( '', ( 0.000000000000000, 0.000000000000000, -1.00000000000000 ) );
#460 = CARTESIAN_POINT( '', ( 2.77555756156289E-14, 2.89703245674740E-14, 0.000000000000000 ) );
#461 = DIRECTION( '', ( 1.00000000000000, -6.12323399573677E-17, -0.000000000000000 ) );
#462 = DIRECTION( '', ( 6.12323399573677E-17, 1.00000000000000, 0.000000000000000 ) );
#463 = DIRECTION( '', ( 0.000000000000000, 0.000000000000000, 1.00000000000000 ) );
#464 = CARTESIAN_POINT( '', ( 114.154760000000, 2.19803614954022E-14, 0.000000000000000 ) );
#465 = DIRECTION( '', ( 1.00000000000000, -6.12323399573677E-17, -0.000000000000000 ) );
#466 = DIRECTION( '', ( 6.12323399573677E-17, 1.00000000000000, 0.000000000000000 ) );
#467 = DIRECTION( '', ( 0.000000000000000, 0.000000000000000, -1.00000000000000 ) );
#468 = CARTESIAN_POINT( '', ( 123.015955645638, 2.14377697511998E-14, 0.000000000000000 ) );
#469 = DIRECTION( '', ( 1.00000000000000, -6.12323399573677E-17, -0.000000000000000 ) );
#470 = DIRECTION( '', ( 6.12323399573677E-17, 1.00000000000000, 0.000000000000000 ) );
#471 = CARTESIAN_POINT( '', ( 120.000000000000, 2.16224437725898E-14, 0.000000000000000 ) );
#472 = DIRECTION( '', ( 1.00000000000000, -6.12323399573677E-17, -0.000000000000000 ) );
#473 = DIRECTION( '', ( 6.12323399573677E-17, 1.00000000000000, 0.000000000000000 ) );
#474 = CARTESIAN_POINT( '', ( 2.77555756156289E-14, 2.89703245674740E-14, 0.000000000000000 ) );
#475 = DIRECTION( '', ( 1.00000000000000, -6.12323399573677E-17, -0.000000000000000 ) );
#476 = DIRECTION( '', ( 6.12323399573677E-17, 1.00000000000000, 0.000000000000000 ) );
#477 = CARTESIAN_POINT( '', ( 120.000000000000, 2.16224437725898E-14, 0.000000000000000 ) );
#478 = DIRECTION( '', ( 1.00000000000000, -6.12323399573677E-17, -0.000000000000000 ) );
#479 = DIRECTION( '', ( 6.12323399573677E-17, 1.00000000000000, 0.000000000000000 ) );
ENDSEC;
END-ISO-10303-21;
