ISO-10303-21;
HEADER;
FILE_DESCRIPTION( ( 'STEP AP214' ), '1' );
FILE_NAME( '//goodhand-server/Shared Folders/GoodHand Data/Kipp CAD/K0127/27618-03504111.stp', '2020-11-25T11:42:41', ( '' ), ( '' ), ' ', 'PARTsolutions', ' ' );
FILE_SCHEMA( ( 'AUTOMOTIVE_DESIGN { 1 0 10303 214 1 1 1 1 }' ) );
ENDSEC;
DATA;
#1 = MECHANICAL_DESIGN_GEOMETRIC_PRESENTATION_REPRESENTATION( ' ', ( #10, #11, #12, #13, #14, #15, #16, #17, #18, #19, #20, #21, #22 ), #6 );
#2 = PRODUCT_DEFINITION_CONTEXT( '', #23, 'design' );
#3 = APPLICATION_PROTOCOL_DEFINITION( 'international standard', 'automotive_design', 2001, #23 );
#4 = PRODUCT_CATEGORY_RELATIONSHIP( 'NONE', 'NONE', #24, #25 );
#5 = SHAPE_DEFINITION_REPRESENTATION( #26, #27 );
#6 =  ( GEOMETRIC_REPRESENTATION_CONTEXT( 3 )GLOBAL_UNCERTAINTY_ASSIGNED_CONTEXT( ( #30 ) )GLOBAL_UNIT_ASSIGNED_CONTEXT( ( #32, #33, #34 ) )REPRESENTATION_CONTEXT( 'NONE', 'WORKSPACE' ) );
#10 = STYLED_ITEM( '', ( #36 ), #37 );
#11 = STYLED_ITEM( '', ( #38 ), #39 );
#12 = STYLED_ITEM( '', ( #40 ), #41 );
#13 = STYLED_ITEM( '', ( #42 ), #43 );
#14 = STYLED_ITEM( '', ( #44 ), #45 );
#15 = STYLED_ITEM( '', ( #46 ), #47 );
#16 = STYLED_ITEM( '', ( #48 ), #49 );
#17 = STYLED_ITEM( '', ( #50 ), #51 );
#18 = STYLED_ITEM( '', ( #52 ), #53 );
#19 = STYLED_ITEM( '', ( #54 ), #55 );
#20 = STYLED_ITEM( '', ( #56 ), #57 );
#21 = STYLED_ITEM( '', ( #58 ), #59 );
#22 = STYLED_ITEM( '', ( #60 ), #61 );
#23 = APPLICATION_CONTEXT( 'core data for automotive mechanical design processes' );
#24 = PRODUCT_CATEGORY( 'part', 'NONE' );
#25 = PRODUCT_RELATED_PRODUCT_CATEGORY( 'detail', ' ', ( #62 ) );
#26 = PRODUCT_DEFINITION_SHAPE( 'NONE', 'NONE', #63 );
#27 = ADVANCED_BREP_SHAPE_REPRESENTATION( '_27618-03504111', ( #64, #65 ), #6 );
#30 = UNCERTAINTY_MEASURE_WITH_UNIT( LENGTH_MEASURE( 0.00100000000000000 ), #32, '', '' );
#32 =  ( CONVERSION_BASED_UNIT( 'MILLIMETRE', #68 )LENGTH_UNIT(  )NAMED_UNIT( #71 ) );
#33 =  ( NAMED_UNIT( #73 )PLANE_ANGLE_UNIT(  )SI_UNIT( $, .RADIAN. ) );
#34 =  ( NAMED_UNIT( #73 )SI_UNIT( $, .STERADIAN. )SOLID_ANGLE_UNIT(  ) );
#36 = PRESENTATION_STYLE_ASSIGNMENT( ( #79 ) );
#37 = ADVANCED_FACE( '', ( #80, #81 ), #82, .T. );
#38 = PRESENTATION_STYLE_ASSIGNMENT( ( #83 ) );
#39 = ADVANCED_FACE( '', ( #84, #85 ), #86, .F. );
#40 = PRESENTATION_STYLE_ASSIGNMENT( ( #87 ) );
#41 = ADVANCED_FACE( '', ( #88 ), #89, .T. );
#42 = PRESENTATION_STYLE_ASSIGNMENT( ( #90 ) );
#43 = ADVANCED_FACE( '', ( #91, #92 ), #93, .F. );
#44 = PRESENTATION_STYLE_ASSIGNMENT( ( #94 ) );
#45 = ADVANCED_FACE( '', ( #95, #96 ), #97, .F. );
#46 = PRESENTATION_STYLE_ASSIGNMENT( ( #98 ) );
#47 = ADVANCED_FACE( '', ( #99 ), #100, .F. );
#48 = PRESENTATION_STYLE_ASSIGNMENT( ( #101 ) );
#49 = ADVANCED_FACE( '', ( #102, #103 ), #104, .F. );
#50 = PRESENTATION_STYLE_ASSIGNMENT( ( #105 ) );
#51 = ADVANCED_FACE( '', ( #106, #107 ), #108, .F. );
#52 = PRESENTATION_STYLE_ASSIGNMENT( ( #109 ) );
#53 = ADVANCED_FACE( '', ( #110, #111 ), #112, .T. );
#54 = PRESENTATION_STYLE_ASSIGNMENT( ( #113 ) );
#55 = ADVANCED_FACE( '', ( #114, #115 ), #116, .T. );
#56 = PRESENTATION_STYLE_ASSIGNMENT( ( #117 ) );
#57 = ADVANCED_FACE( '', ( #118 ), #119, .T. );
#58 = PRESENTATION_STYLE_ASSIGNMENT( ( #120 ) );
#59 = ADVANCED_FACE( '', ( #121, #122 ), #123, .F. );
#60 = PRESENTATION_STYLE_ASSIGNMENT( ( #124 ) );
#61 = ADVANCED_FACE( '', ( #125, #126 ), #127, .T. );
#62 = PRODUCT( '_27618-03504111', '_27618-03504111', 'PART-_27618-03504111-DESC', ( #128 ) );
#63 = PRODUCT_DEFINITION( 'NONE', 'NONE', #129, #2 );
#64 = MANIFOLD_SOLID_BREP( '_27618-03504111', #130 );
#65 = AXIS2_PLACEMENT_3D( '', #131, #132, #133 );
#68 = LENGTH_MEASURE_WITH_UNIT( LENGTH_MEASURE( 1.00000000000000 ), #134 );
#71 = DIMENSIONAL_EXPONENTS( 1.00000000000000, 0.000000000000000, 0.000000000000000, 0.000000000000000, 0.000000000000000, 0.000000000000000, 0.000000000000000 );
#73 = DIMENSIONAL_EXPONENTS( 0.000000000000000, 0.000000000000000, 0.000000000000000, 0.000000000000000, 0.000000000000000, 0.000000000000000, 0.000000000000000 );
#79 = SURFACE_STYLE_USAGE( .BOTH., #135 );
#80 = FACE_OUTER_BOUND( '', #136, .T. );
#81 = FACE_OUTER_BOUND( '', #137, .T. );
#82 = CYLINDRICAL_SURFACE( '', #138, 4.00000000000000 );
#83 = SURFACE_STYLE_USAGE( .BOTH., #139 );
#84 = FACE_BOUND( '', #140, .T. );
#85 = FACE_OUTER_BOUND( '', #141, .T. );
#86 = PLANE( '', #142 );
#87 = SURFACE_STYLE_USAGE( .BOTH., #143 );
#88 = FACE_OUTER_BOUND( '', #144, .T. );
#89 = PLANE( '', #145 );
#90 = SURFACE_STYLE_USAGE( .BOTH., #146 );
#91 = FACE_BOUND( '', #147, .T. );
#92 = FACE_OUTER_BOUND( '', #148, .T. );
#93 = CONICAL_SURFACE( '', #149, 1.75000000000000, 0.785398163400000 );
#94 = SURFACE_STYLE_USAGE( .BOTH., #150 );
#95 = FACE_OUTER_BOUND( '', #151, .T. );
#96 = FACE_OUTER_BOUND( '', #152, .T. );
#97 = CYLINDRICAL_SURFACE( '', #153, 1.42500000000000 );
#98 = SURFACE_STYLE_USAGE( .BOTH., #154 );
#99 = FACE_OUTER_BOUND( '', #155, .T. );
#100 = PLANE( '', #156 );
#101 = SURFACE_STYLE_USAGE( .BOTH., #157 );
#102 = FACE_BOUND( '', #158, .T. );
#103 = FACE_OUTER_BOUND( '', #159, .T. );
#104 = CONICAL_SURFACE( '', #160, 2.55000000000000, 0.785398163400000 );
#105 = SURFACE_STYLE_USAGE( .BOTH., #161 );
#106 = FACE_OUTER_BOUND( '', #162, .T. );
#107 = FACE_BOUND( '', #163, .T. );
#108 = CONICAL_SURFACE( '', #164, 2.05000000000000, 0.785398163400000 );
#109 = SURFACE_STYLE_USAGE( .BOTH., #165 );
#110 = FACE_BOUND( '', #166, .T. );
#111 = FACE_OUTER_BOUND( '', #167, .T. );
#112 = PLANE( '', #168 );
#113 = SURFACE_STYLE_USAGE( .BOTH., #169 );
#114 = FACE_BOUND( '', #170, .T. );
#115 = FACE_OUTER_BOUND( '', #171, .T. );
#116 = SPHERICAL_SURFACE( '', #172, 4.00000000000000 );
#117 = SURFACE_STYLE_USAGE( .BOTH., #173 );
#118 = FACE_OUTER_BOUND( '', #174, .T. );
#119 = PLANE( '', #175 );
#120 = SURFACE_STYLE_USAGE( .BOTH., #176 );
#121 = FACE_OUTER_BOUND( '', #177, .T. );
#122 = FACE_OUTER_BOUND( '', #178, .T. );
#123 = CYLINDRICAL_SURFACE( '', #179, 2.05000000000000 );
#124 = SURFACE_STYLE_USAGE( .BOTH., #180 );
#125 = FACE_BOUND( '', #181, .T. );
#126 = FACE_OUTER_BOUND( '', #182, .T. );
#127 = PLANE( '', #183 );
#128 = PRODUCT_CONTEXT( '', #23, 'mechanical' );
#129 = PRODUCT_DEFINITION_FORMATION_WITH_SPECIFIED_SOURCE( ' ', 'NONE', #62, .NOT_KNOWN. );
#130 = CLOSED_SHELL( '', ( #55, #37, #39, #43, #45, #47, #41, #53, #61, #57, #49, #59, #51 ) );
#131 = CARTESIAN_POINT( '', ( 0.000000000000000, 0.000000000000000, 0.000000000000000 ) );
#132 = DIRECTION( '', ( 0.000000000000000, 0.000000000000000, 1.00000000000000 ) );
#133 = DIRECTION( '', ( 1.00000000000000, 0.000000000000000, 0.000000000000000 ) );
#134 =  ( LENGTH_UNIT(  )NAMED_UNIT( #71 )SI_UNIT( .MILLI., .METRE. ) );
#135 = SURFACE_SIDE_STYLE( '', ( #185 ) );
#136 = EDGE_LOOP( '', ( #186 ) );
#137 = EDGE_LOOP( '', ( #187, #188, #189, #190, #191, #192, #193, #194 ) );
#138 = AXIS2_PLACEMENT_3D( '', #195, #196, #197 );
#139 = SURFACE_SIDE_STYLE( '', ( #198 ) );
#140 = EDGE_LOOP( '', ( #199 ) );
#141 = EDGE_LOOP( '', ( #200 ) );
#142 = AXIS2_PLACEMENT_3D( '', #201, #202, #203 );
#143 = SURFACE_SIDE_STYLE( '', ( #204 ) );
#144 = EDGE_LOOP( '', ( #205, #206 ) );
#145 = AXIS2_PLACEMENT_3D( '', #207, #208, #209 );
#146 = SURFACE_SIDE_STYLE( '', ( #210 ) );
#147 = EDGE_LOOP( '', ( #211 ) );
#148 = EDGE_LOOP( '', ( #212 ) );
#149 = AXIS2_PLACEMENT_3D( '', #213, #214, #215 );
#150 = SURFACE_SIDE_STYLE( '', ( #216 ) );
#151 = EDGE_LOOP( '', ( #217 ) );
#152 = EDGE_LOOP( '', ( #218 ) );
#153 = AXIS2_PLACEMENT_3D( '', #219, #220, #221 );
#154 = SURFACE_SIDE_STYLE( '', ( #222 ) );
#155 = EDGE_LOOP( '', ( #223 ) );
#156 = AXIS2_PLACEMENT_3D( '', #224, #225, #226 );
#157 = SURFACE_SIDE_STYLE( '', ( #227 ) );
#158 = EDGE_LOOP( '', ( #228 ) );
#159 = EDGE_LOOP( '', ( #229 ) );
#160 = AXIS2_PLACEMENT_3D( '', #230, #231, #232 );
#161 = SURFACE_SIDE_STYLE( '', ( #233 ) );
#162 = EDGE_LOOP( '', ( #234 ) );
#163 = EDGE_LOOP( '', ( #235 ) );
#164 = AXIS2_PLACEMENT_3D( '', #236, #237, #238 );
#165 = SURFACE_SIDE_STYLE( '', ( #239 ) );
#166 = EDGE_LOOP( '', ( #240 ) );
#167 = EDGE_LOOP( '', ( #241, #242, #243, #244 ) );
#168 = AXIS2_PLACEMENT_3D( '', #245, #246, #247 );
#169 = SURFACE_SIDE_STYLE( '', ( #248 ) );
#170 = VERTEX_LOOP( '', #249 );
#171 = EDGE_LOOP( '', ( #250, #251, #252, #253 ) );
#172 = AXIS2_PLACEMENT_3D( '', #254, #255, #256 );
#173 = SURFACE_SIDE_STYLE( '', ( #257 ) );
#174 = EDGE_LOOP( '', ( #258, #259 ) );
#175 = AXIS2_PLACEMENT_3D( '', #260, #261, #262 );
#176 = SURFACE_SIDE_STYLE( '', ( #263 ) );
#177 = EDGE_LOOP( '', ( #264 ) );
#178 = EDGE_LOOP( '', ( #265 ) );
#179 = AXIS2_PLACEMENT_3D( '', #266, #267, #268 );
#180 = SURFACE_SIDE_STYLE( '', ( #269 ) );
#181 = EDGE_LOOP( '', ( #270 ) );
#182 = EDGE_LOOP( '', ( #271, #272, #273, #274 ) );
#183 = AXIS2_PLACEMENT_3D( '', #275, #276, #277 );
#185 = SURFACE_STYLE_FILL_AREA( #278 );
#186 = ORIENTED_EDGE( '', *, *, #279, .F. );
#187 = ORIENTED_EDGE( '', *, *, #280, .F. );
#188 = ORIENTED_EDGE( '', *, *, #281, .F. );
#189 = ORIENTED_EDGE( '', *, *, #282, .T. );
#190 = ORIENTED_EDGE( '', *, *, #283, .F. );
#191 = ORIENTED_EDGE( '', *, *, #284, .F. );
#192 = ORIENTED_EDGE( '', *, *, #285, .F. );
#193 = ORIENTED_EDGE( '', *, *, #286, .T. );
#194 = ORIENTED_EDGE( '', *, *, #287, .F. );
#195 = CARTESIAN_POINT( '', ( 0.000000000000000, 0.000000000000000, 0.000000000000000 ) );
#196 = DIRECTION( '', ( -0.000000000000000, 1.00000000000000, 0.000000000000000 ) );
#197 = DIRECTION( '', ( 0.000000000000000, 0.000000000000000, -1.00000000000000 ) );
#198 = SURFACE_STYLE_FILL_AREA( #288 );
#199 = ORIENTED_EDGE( '', *, *, #289, .F. );
#200 = ORIENTED_EDGE( '', *, *, #279, .T. );
#201 = CARTESIAN_POINT( '', ( 4.00000000000000, 0.000000000000000, 0.000000000000000 ) );
#202 = DIRECTION( '', ( 0.000000000000000, 1.00000000000000, 0.000000000000000 ) );
#203 = DIRECTION( '', ( 0.000000000000000, -0.000000000000000, 1.00000000000000 ) );
#204 = SURFACE_STYLE_FILL_AREA( #290 );
#205 = ORIENTED_EDGE( '', *, *, #291, .T. );
#206 = ORIENTED_EDGE( '', *, *, #280, .T. );
#207 = CARTESIAN_POINT( '', ( -4.00000000000000, 5.00000000000000, 4.00000000000000 ) );
#208 = DIRECTION( '', ( 0.000000000000000, 1.00000000000000, 0.000000000000000 ) );
#209 = DIRECTION( '', ( 0.000000000000000, -0.000000000000000, 1.00000000000000 ) );
#210 = SURFACE_STYLE_FILL_AREA( #292 );
#211 = ORIENTED_EDGE( '', *, *, #293, .F. );
#212 = ORIENTED_EDGE( '', *, *, #289, .T. );
#213 = CARTESIAN_POINT( '', ( 0.000000000000000, 0.000000000000000, 0.000000000000000 ) );
#214 = DIRECTION( '', ( -0.000000000000000, -1.00000000000000, -0.000000000000000 ) );
#215 = DIRECTION( '', ( 0.000000000000000, 0.000000000000000, -1.00000000000000 ) );
#216 = SURFACE_STYLE_FILL_AREA( #294 );
#217 = ORIENTED_EDGE( '', *, *, #295, .F. );
#218 = ORIENTED_EDGE( '', *, *, #293, .T. );
#219 = CARTESIAN_POINT( '', ( 0.000000000000000, 0.000000000000000, 0.000000000000000 ) );
#220 = DIRECTION( '', ( -0.000000000000000, 1.00000000000000, 0.000000000000000 ) );
#221 = DIRECTION( '', ( 0.000000000000000, 0.000000000000000, -1.00000000000000 ) );
#222 = SURFACE_STYLE_FILL_AREA( #296 );
#223 = ORIENTED_EDGE( '', *, *, #295, .T. );
#224 = CARTESIAN_POINT( '', ( 1.42500000000000, 6.00000000000000, 0.000000000000000 ) );
#225 = DIRECTION( '', ( 0.000000000000000, 1.00000000000000, 0.000000000000000 ) );
#226 = DIRECTION( '', ( 0.000000000000000, -0.000000000000000, 1.00000000000000 ) );
#227 = SURFACE_STYLE_FILL_AREA( #297 );
#228 = ORIENTED_EDGE( '', *, *, #298, .T. );
#229 = ORIENTED_EDGE( '', *, *, #299, .F. );
#230 = CARTESIAN_POINT( '', ( -2.00000000000000, 11.0000000000000, 0.000000000000000 ) );
#231 = DIRECTION( '', ( -1.00000000000000, 0.000000000000000, -0.000000000000000 ) );
#232 = DIRECTION( '', ( 0.000000000000000, 0.000000000000000, 1.00000000000000 ) );
#233 = SURFACE_STYLE_FILL_AREA( #300 );
#234 = ORIENTED_EDGE( '', *, *, #301, .T. );
#235 = ORIENTED_EDGE( '', *, *, #302, .F. );
#236 = CARTESIAN_POINT( '', ( 1.50000000000000, 11.0000000000000, 0.000000000000000 ) );
#237 = DIRECTION( '', ( 1.00000000000000, -0.000000000000000, -0.000000000000000 ) );
#238 = DIRECTION( '', ( -0.000000000000000, 0.000000000000000, -1.00000000000000 ) );
#239 = SURFACE_STYLE_FILL_AREA( #303 );
#240 = ORIENTED_EDGE( '', *, *, #299, .T. );
#241 = ORIENTED_EDGE( '', *, *, #281, .T. );
#242 = ORIENTED_EDGE( '', *, *, #291, .F. );
#243 = ORIENTED_EDGE( '', *, *, #287, .T. );
#244 = ORIENTED_EDGE( '', *, *, #304, .F. );
#245 = CARTESIAN_POINT( '', ( -2.00000000000000, 5.00000000000000, 4.00000000000000 ) );
#246 = DIRECTION( '', ( -1.00000000000000, 0.000000000000000, 0.000000000000000 ) );
#247 = DIRECTION( '', ( 0.000000000000000, 0.000000000000000, 1.00000000000000 ) );
#248 = SURFACE_STYLE_FILL_AREA( #305 );
#249 = VERTEX_POINT( '', #306 );
#250 = ORIENTED_EDGE( '', *, *, #282, .F. );
#251 = ORIENTED_EDGE( '', *, *, #304, .T. );
#252 = ORIENTED_EDGE( '', *, *, #286, .F. );
#253 = ORIENTED_EDGE( '', *, *, #307, .T. );
#254 = CARTESIAN_POINT( '', ( 2.60208521396521E-15, 11.0000000000000, 0.000000000000000 ) );
#255 = DIRECTION( '', ( 0.000000000000000, -1.00000000000000, 0.000000000000000 ) );
#256 = DIRECTION( '', ( 1.00000000000000, 0.000000000000000, 0.000000000000000 ) );
#257 = SURFACE_STYLE_FILL_AREA( #308 );
#258 = ORIENTED_EDGE( '', *, *, #309, .F. );
#259 = ORIENTED_EDGE( '', *, *, #284, .T. );
#260 = CARTESIAN_POINT( '', ( 2.00000000000000, 5.00000000000000, 4.00000000000000 ) );
#261 = DIRECTION( '', ( 0.000000000000000, 1.00000000000000, 0.000000000000000 ) );
#262 = DIRECTION( '', ( 0.000000000000000, -0.000000000000000, 1.00000000000000 ) );
#263 = SURFACE_STYLE_FILL_AREA( #310 );
#264 = ORIENTED_EDGE( '', *, *, #302, .T. );
#265 = ORIENTED_EDGE( '', *, *, #298, .F. );
#266 = CARTESIAN_POINT( '', ( 2.00000000000000, 11.0000000000000, 0.000000000000000 ) );
#267 = DIRECTION( '', ( -1.00000000000000, -0.000000000000000, 0.000000000000000 ) );
#268 = DIRECTION( '', ( -0.000000000000000, 0.000000000000000, -1.00000000000000 ) );
#269 = SURFACE_STYLE_FILL_AREA( #311 );
#270 = ORIENTED_EDGE( '', *, *, #301, .F. );
#271 = ORIENTED_EDGE( '', *, *, #285, .T. );
#272 = ORIENTED_EDGE( '', *, *, #309, .T. );
#273 = ORIENTED_EDGE( '', *, *, #283, .T. );
#274 = ORIENTED_EDGE( '', *, *, #307, .F. );
#275 = CARTESIAN_POINT( '', ( 2.00000000000000, 15.0000000000000, 4.00000000000000 ) );
#276 = DIRECTION( '', ( 1.00000000000000, 0.000000000000000, -0.000000000000000 ) );
#277 = DIRECTION( '', ( -0.000000000000000, 0.000000000000000, -1.00000000000000 ) );
#278 = FILL_AREA_STYLE( '', ( #312 ) );
#279 = EDGE_CURVE( '', #313, #313, #314, .T. );
#280 = EDGE_CURVE( '', #315, #316, #317, .T. );
#281 = EDGE_CURVE( '', #318, #315, #319, .T. );
#282 = EDGE_CURVE( '', #318, #320, #321, .T. );
#283 = EDGE_CURVE( '', #322, #320, #323, .F. );
#284 = EDGE_CURVE( '', #324, #322, #325, .T. );
#285 = EDGE_CURVE( '', #326, #324, #327, .T. );
#286 = EDGE_CURVE( '', #326, #328, #329, .T. );
#287 = EDGE_CURVE( '', #316, #328, #330, .F. );
#288 = FILL_AREA_STYLE( '', ( #331 ) );
#289 = EDGE_CURVE( '', #332, #332, #333, .T. );
#290 = FILL_AREA_STYLE( '', ( #334 ) );
#291 = EDGE_CURVE( '', #316, #315, #335, .T. );
#292 = FILL_AREA_STYLE( '', ( #336 ) );
#293 = EDGE_CURVE( '', #337, #337, #338, .T. );
#294 = FILL_AREA_STYLE( '', ( #339 ) );
#295 = EDGE_CURVE( '', #340, #340, #341, .T. );
#296 = FILL_AREA_STYLE( '', ( #342 ) );
#297 = FILL_AREA_STYLE( '', ( #343 ) );
#298 = EDGE_CURVE( '', #344, #344, #345, .T. );
#299 = EDGE_CURVE( '', #346, #346, #347, .T. );
#300 = FILL_AREA_STYLE( '', ( #348 ) );
#301 = EDGE_CURVE( '', #349, #349, #350, .T. );
#302 = EDGE_CURVE( '', #351, #351, #352, .T. );
#303 = FILL_AREA_STYLE( '', ( #353 ) );
#304 = EDGE_CURVE( '', #318, #328, #354, .F. );
#305 = FILL_AREA_STYLE( '', ( #355 ) );
#306 = CARTESIAN_POINT( '', ( 2.84701457379468E-15, 15.0000000000000, 0.000000000000000 ) );
#307 = EDGE_CURVE( '', #326, #320, #356, .F. );
#308 = FILL_AREA_STYLE( '', ( #357 ) );
#309 = EDGE_CURVE( '', #324, #322, #358, .T. );
#310 = FILL_AREA_STYLE( '', ( #359 ) );
#311 = FILL_AREA_STYLE( '', ( #360 ) );
#312 = FILL_AREA_STYLE_COLOUR( '', #361 );
#313 = VERTEX_POINT( '', #362 );
#314 = CIRCLE( '', #363, 4.00000000000000 );
#315 = VERTEX_POINT( '', #364 );
#316 = VERTEX_POINT( '', #365 );
#317 = CIRCLE( '', #366, 4.00000000000000 );
#318 = VERTEX_POINT( '', #367 );
#319 = LINE( '', #368, #369 );
#320 = VERTEX_POINT( '', #370 );
#321 = CIRCLE( '', #371, 4.00000000000000 );
#322 = VERTEX_POINT( '', #372 );
#323 = LINE( '', #373, #374 );
#324 = VERTEX_POINT( '', #375 );
#325 = CIRCLE( '', #376, 4.00000000000000 );
#326 = VERTEX_POINT( '', #377 );
#327 = LINE( '', #378, #379 );
#328 = VERTEX_POINT( '', #380 );
#329 = CIRCLE( '', #381, 4.00000000000000 );
#330 = LINE( '', #382, #383 );
#331 = FILL_AREA_STYLE_COLOUR( '', #384 );
#332 = VERTEX_POINT( '', #385 );
#333 = CIRCLE( '', #386, 1.75000000000000 );
#334 = FILL_AREA_STYLE_COLOUR( '', #387 );
#335 = LINE( '', #388, #389 );
#336 = FILL_AREA_STYLE_COLOUR( '', #390 );
#337 = VERTEX_POINT( '', #391 );
#338 = CIRCLE( '', #392, 1.42500000000000 );
#339 = FILL_AREA_STYLE_COLOUR( '', #393 );
#340 = VERTEX_POINT( '', #394 );
#341 = CIRCLE( '', #395, 1.42500000000000 );
#342 = FILL_AREA_STYLE_COLOUR( '', #396 );
#343 = FILL_AREA_STYLE_COLOUR( '', #397 );
#344 = VERTEX_POINT( '', #398 );
#345 = CIRCLE( '', #399, 2.05000000000000 );
#346 = VERTEX_POINT( '', #400 );
#347 = CIRCLE( '', #401, 2.55000000000000 );
#348 = FILL_AREA_STYLE_COLOUR( '', #402 );
#349 = VERTEX_POINT( '', #403 );
#350 = CIRCLE( '', #404, 2.55000000000000 );
#351 = VERTEX_POINT( '', #405 );
#352 = CIRCLE( '', #406, 2.05000000000000 );
#353 = FILL_AREA_STYLE_COLOUR( '', #407 );
#354 = CIRCLE( '', #408, 3.46410161510000 );
#355 = FILL_AREA_STYLE_COLOUR( '', #409 );
#356 = CIRCLE( '', #410, 3.46410161510000 );
#357 = FILL_AREA_STYLE_COLOUR( '', #411 );
#358 = LINE( '', #412, #413 );
#359 = FILL_AREA_STYLE_COLOUR( '', #414 );
#360 = FILL_AREA_STYLE_COLOUR( '', #415 );
#361 = COLOUR_RGB( '', 0.689999997600000, 0.689999997600000, 0.689999997600000 );
#362 = CARTESIAN_POINT( '', ( 0.000000000000000, 0.000000000000000, -4.00000000000000 ) );
#363 = AXIS2_PLACEMENT_3D( '', #416, #417, #418 );
#364 = CARTESIAN_POINT( '', ( -2.00000000000000, 5.00000000000000, -3.46410161513775 ) );
#365 = CARTESIAN_POINT( '', ( -2.00000000000000, 5.00000000000000, 3.46410161513775 ) );
#366 = AXIS2_PLACEMENT_3D( '', #419, #420, #421 );
#367 = CARTESIAN_POINT( '', ( -2.00000000000000, 11.0000000000000, -3.46410161513775 ) );
#368 = CARTESIAN_POINT( '', ( -2.00000000000000, 0.000000000000000, -3.46410161513775 ) );
#369 = VECTOR( '', #422, 1000.00000000000 );
#370 = CARTESIAN_POINT( '', ( 2.00000000000000, 11.0000000000000, -3.46410161513775 ) );
#371 = AXIS2_PLACEMENT_3D( '', #423, #424, #425 );
#372 = CARTESIAN_POINT( '', ( 2.00000000000000, 5.00000000000000, -3.46410161513775 ) );
#373 = CARTESIAN_POINT( '', ( 2.00000000000000, 0.000000000000000, -3.46410161513775 ) );
#374 = VECTOR( '', #426, 1000.00000000000 );
#375 = CARTESIAN_POINT( '', ( 2.00000000000000, 5.00000000000000, 3.46410161513775 ) );
#376 = AXIS2_PLACEMENT_3D( '', #427, #428, #429 );
#377 = CARTESIAN_POINT( '', ( 2.00000000000000, 11.0000000000000, 3.46410161513775 ) );
#378 = CARTESIAN_POINT( '', ( 2.00000000000000, 0.000000000000000, 3.46410161513775 ) );
#379 = VECTOR( '', #430, 1000.00000000000 );
#380 = CARTESIAN_POINT( '', ( -2.00000000000000, 11.0000000000000, 3.46410161513775 ) );
#381 = AXIS2_PLACEMENT_3D( '', #431, #432, #433 );
#382 = CARTESIAN_POINT( '', ( -2.00000000000000, 0.000000000000000, 3.46410161513775 ) );
#383 = VECTOR( '', #434, 1000.00000000000 );
#384 = COLOUR_RGB( '', 0.689999997600000, 0.689999997600000, 0.689999997600000 );
#385 = CARTESIAN_POINT( '', ( 0.000000000000000, 0.000000000000000, -1.75000000000000 ) );
#386 = AXIS2_PLACEMENT_3D( '', #435, #436, #437 );
#387 = COLOUR_RGB( '', 0.689999997600000, 0.689999997600000, 0.689999997600000 );
#388 = CARTESIAN_POINT( '', ( -2.00000000000000, 5.00000000000000, 4.00000000000000 ) );
#389 = VECTOR( '', #438, 1000.00000000000 );
#390 = COLOUR_RGB( '', 0.689999997600000, 0.689999997600000, 0.689999997600000 );
#391 = CARTESIAN_POINT( '', ( 0.000000000000000, 0.325000000000000, -1.42500000000000 ) );
#392 = AXIS2_PLACEMENT_3D( '', #439, #440, #441 );
#393 = COLOUR_RGB( '', 0.689999997600000, 0.689999997600000, 0.689999997600000 );
#394 = CARTESIAN_POINT( '', ( 0.000000000000000, 6.00000000000000, -1.42500000000000 ) );
#395 = AXIS2_PLACEMENT_3D( '', #442, #443, #444 );
#396 = COLOUR_RGB( '', 0.689999997600000, 0.689999997600000, 0.689999997600000 );
#397 = COLOUR_RGB( '', 0.689999997600000, 0.689999997600000, 0.689999997600000 );
#398 = CARTESIAN_POINT( '', ( -1.50000000000000, 11.0000000000000, -2.05000000000000 ) );
#399 = AXIS2_PLACEMENT_3D( '', #445, #446, #447 );
#400 = CARTESIAN_POINT( '', ( -2.00000000000000, 11.0000000000000, -2.55000000000000 ) );
#401 = AXIS2_PLACEMENT_3D( '', #448, #449, #450 );
#402 = COLOUR_RGB( '', 0.689999997600000, 0.689999997600000, 0.689999997600000 );
#403 = CARTESIAN_POINT( '', ( 2.00000000000000, 11.0000000000000, -2.55000000000000 ) );
#404 = AXIS2_PLACEMENT_3D( '', #451, #452, #453 );
#405 = CARTESIAN_POINT( '', ( 1.50000000000000, 11.0000000000000, -2.05000000000000 ) );
#406 = AXIS2_PLACEMENT_3D( '', #454, #455, #456 );
#407 = COLOUR_RGB( '', 0.689999997600000, 0.689999997600000, 0.689999997600000 );
#408 = AXIS2_PLACEMENT_3D( '', #457, #458, #459 );
#409 = COLOUR_RGB( '', 0.689999997600000, 0.689999997600000, 0.689999997600000 );
#410 = AXIS2_PLACEMENT_3D( '', #460, #461, #462 );
#411 = COLOUR_RGB( '', 0.689999997600000, 0.689999997600000, 0.689999997600000 );
#412 = CARTESIAN_POINT( '', ( 2.00000000000000, 5.00000000000000, 4.00000000000000 ) );
#413 = VECTOR( '', #463, 1000.00000000000 );
#414 = COLOUR_RGB( '', 0.689999997600000, 0.689999997600000, 0.689999997600000 );
#415 = COLOUR_RGB( '', 0.689999997600000, 0.689999997600000, 0.689999997600000 );
#416 = CARTESIAN_POINT( '', ( 0.000000000000000, 0.000000000000000, 0.000000000000000 ) );
#417 = DIRECTION( '', ( 0.000000000000000, -1.00000000000000, -0.000000000000000 ) );
#418 = DIRECTION( '', ( 0.000000000000000, 0.000000000000000, -1.00000000000000 ) );
#419 = CARTESIAN_POINT( '', ( 0.000000000000000, 5.00000000000000, 0.000000000000000 ) );
#420 = DIRECTION( '', ( 0.000000000000000, 1.00000000000000, 0.000000000000000 ) );
#421 = DIRECTION( '', ( 0.000000000000000, -0.000000000000000, 1.00000000000000 ) );
#422 = DIRECTION( '', ( -0.000000000000000, -1.00000000000000, -0.000000000000000 ) );
#423 = CARTESIAN_POINT( '', ( 0.000000000000000, 11.0000000000000, 0.000000000000000 ) );
#424 = DIRECTION( '', ( 0.000000000000000, -1.00000000000000, -0.000000000000000 ) );
#425 = DIRECTION( '', ( 0.000000000000000, 0.000000000000000, -1.00000000000000 ) );
#426 = DIRECTION( '', ( -0.000000000000000, -1.00000000000000, -0.000000000000000 ) );
#427 = CARTESIAN_POINT( '', ( 0.000000000000000, 5.00000000000000, 0.000000000000000 ) );
#428 = DIRECTION( '', ( 0.000000000000000, 1.00000000000000, 0.000000000000000 ) );
#429 = DIRECTION( '', ( 0.000000000000000, -0.000000000000000, 1.00000000000000 ) );
#430 = DIRECTION( '', ( -0.000000000000000, -1.00000000000000, -0.000000000000000 ) );
#431 = CARTESIAN_POINT( '', ( 0.000000000000000, 11.0000000000000, 0.000000000000000 ) );
#432 = DIRECTION( '', ( 0.000000000000000, -1.00000000000000, -0.000000000000000 ) );
#433 = DIRECTION( '', ( 0.000000000000000, 0.000000000000000, -1.00000000000000 ) );
#434 = DIRECTION( '', ( -0.000000000000000, -1.00000000000000, -0.000000000000000 ) );
#435 = CARTESIAN_POINT( '', ( 0.000000000000000, 0.000000000000000, 0.000000000000000 ) );
#436 = DIRECTION( '', ( 0.000000000000000, -1.00000000000000, -0.000000000000000 ) );
#437 = DIRECTION( '', ( 0.000000000000000, 0.000000000000000, -1.00000000000000 ) );
#438 = DIRECTION( '', ( -0.000000000000000, -0.000000000000000, -1.00000000000000 ) );
#439 = CARTESIAN_POINT( '', ( 0.000000000000000, 0.325000000000000, 0.000000000000000 ) );
#440 = DIRECTION( '', ( 0.000000000000000, -1.00000000000000, -0.000000000000000 ) );
#441 = DIRECTION( '', ( 0.000000000000000, 0.000000000000000, -1.00000000000000 ) );
#442 = CARTESIAN_POINT( '', ( 0.000000000000000, 6.00000000000000, 0.000000000000000 ) );
#443 = DIRECTION( '', ( 0.000000000000000, -1.00000000000000, -0.000000000000000 ) );
#444 = DIRECTION( '', ( 0.000000000000000, 0.000000000000000, -1.00000000000000 ) );
#445 = CARTESIAN_POINT( '', ( -1.50000000000000, 11.0000000000000, 0.000000000000000 ) );
#446 = DIRECTION( '', ( 1.00000000000000, 0.000000000000000, -0.000000000000000 ) );
#447 = DIRECTION( '', ( -0.000000000000000, 0.000000000000000, -1.00000000000000 ) );
#448 = CARTESIAN_POINT( '', ( -2.00000000000000, 11.0000000000000, 0.000000000000000 ) );
#449 = DIRECTION( '', ( 1.00000000000000, 0.000000000000000, -0.000000000000000 ) );
#450 = DIRECTION( '', ( -0.000000000000000, 0.000000000000000, -1.00000000000000 ) );
#451 = CARTESIAN_POINT( '', ( 2.00000000000000, 11.0000000000000, 0.000000000000000 ) );
#452 = DIRECTION( '', ( 1.00000000000000, 0.000000000000000, -0.000000000000000 ) );
#453 = DIRECTION( '', ( -0.000000000000000, 0.000000000000000, -1.00000000000000 ) );
#454 = CARTESIAN_POINT( '', ( 1.50000000000000, 11.0000000000000, 0.000000000000000 ) );
#455 = DIRECTION( '', ( 1.00000000000000, 0.000000000000000, -0.000000000000000 ) );
#456 = DIRECTION( '', ( -0.000000000000000, 0.000000000000000, -1.00000000000000 ) );
#457 = CARTESIAN_POINT( '', ( -2.00000000000000, 11.0000000000000, 0.000000000000000 ) );
#458 = DIRECTION( '', ( -1.00000000000000, 0.000000000000000, 0.000000000000000 ) );
#459 = DIRECTION( '', ( 0.000000000000000, 0.000000000000000, 1.00000000000000 ) );
#460 = CARTESIAN_POINT( '', ( 2.00000000000000, 11.0000000000000, 0.000000000000000 ) );
#461 = DIRECTION( '', ( 1.00000000000000, 0.000000000000000, -0.000000000000000 ) );
#462 = DIRECTION( '', ( -0.000000000000000, 0.000000000000000, -1.00000000000000 ) );
#463 = DIRECTION( '', ( -0.000000000000000, -0.000000000000000, -1.00000000000000 ) );
ENDSEC;
END-ISO-10303-21;
