ISO-10303-21;
HEADER;
FILE_DESCRIPTION( ( 'STEP AP214' ), '1' );
FILE_NAME( '//goodhand-server/Shared Folders/GoodHand Data/Kipp CAD/K0545/K0545.10.stp', '2020-12-08T15:17:00', ( '' ), ( '' ), ' ', 'PARTsolutions', ' ' );
FILE_SCHEMA( ( 'AUTOMOTIVE_DESIGN { 1 0 10303 214 1 1 1 1 }' ) );
ENDSEC;
DATA;
#1 = MECHANICAL_DESIGN_GEOMETRIC_PRESENTATION_REPRESENTATION( ' ', ( #10, #11, #12 ), #6 );
#2 = PRODUCT_DEFINITION_CONTEXT( '', #13, 'design' );
#3 = APPLICATION_PROTOCOL_DEFINITION( 'international standard', 'automotive_design', 2001, #13 );
#4 = PRODUCT_CATEGORY_RELATIONSHIP( 'NONE', 'NONE', #14, #15 );
#5 = SHAPE_DEFINITION_REPRESENTATION( #16, #17 );
#6 =  ( GEOMETRIC_REPRESENTATION_CONTEXT( 3 )GLOBAL_UNCERTAINTY_ASSIGNED_CONTEXT( ( #20 ) )GLOBAL_UNIT_ASSIGNED_CONTEXT( ( #22, #23, #24 ) )REPRESENTATION_CONTEXT( 'NONE', 'WORKSPACE' ) );
#10 = STYLED_ITEM( '', ( #26 ), #27 );
#11 = STYLED_ITEM( '', ( #28 ), #29 );
#12 = STYLED_ITEM( '', ( #30 ), #31 );
#13 = APPLICATION_CONTEXT( 'core data for automotive mechanical design processes' );
#14 = PRODUCT_CATEGORY( 'part', 'NONE' );
#15 = PRODUCT_RELATED_PRODUCT_CATEGORY( 'detail', ' ', ( #32 ) );
#16 = PRODUCT_DEFINITION_SHAPE( 'NONE', 'NONE', #33 );
#17 = ADVANCED_BREP_SHAPE_REPRESENTATION( '_K0545.10', ( #34, #35 ), #6 );
#20 = UNCERTAINTY_MEASURE_WITH_UNIT( LENGTH_MEASURE( 0.00100000000000000 ), #22, '', '' );
#22 =  ( CONVERSION_BASED_UNIT( 'MILLIMETRE', #38 )LENGTH_UNIT(  )NAMED_UNIT( #41 ) );
#23 =  ( NAMED_UNIT( #43 )PLANE_ANGLE_UNIT(  )SI_UNIT( $, .RADIAN. ) );
#24 =  ( NAMED_UNIT( #43 )SI_UNIT( $, .STERADIAN. )SOLID_ANGLE_UNIT(  ) );
#26 = PRESENTATION_STYLE_ASSIGNMENT( ( #49 ) );
#27 = ADVANCED_FACE( '', ( #50 ), #51, .F. );
#28 = PRESENTATION_STYLE_ASSIGNMENT( ( #52 ) );
#29 = ADVANCED_FACE( '', ( #53 ), #54, .F. );
#30 = PRESENTATION_STYLE_ASSIGNMENT( ( #55 ) );
#31 = ADVANCED_FACE( '', ( #56, #57 ), #58, .T. );
#32 = PRODUCT( '_K0545.10', '_K0545.10', 'PART-_K0545.10-DESC', ( #59 ) );
#33 = PRODUCT_DEFINITION( 'NONE', 'NONE', #60, #2 );
#34 = MANIFOLD_SOLID_BREP( '_K0545.10', #61 );
#35 = AXIS2_PLACEMENT_3D( '', #62, #63, #64 );
#38 = LENGTH_MEASURE_WITH_UNIT( LENGTH_MEASURE( 1.00000000000000 ), #65 );
#41 = DIMENSIONAL_EXPONENTS( 1.00000000000000, 0.000000000000000, 0.000000000000000, 0.000000000000000, 0.000000000000000, 0.000000000000000, 0.000000000000000 );
#43 = DIMENSIONAL_EXPONENTS( 0.000000000000000, 0.000000000000000, 0.000000000000000, 0.000000000000000, 0.000000000000000, 0.000000000000000, 0.000000000000000 );
#49 = SURFACE_STYLE_USAGE( .BOTH., #66 );
#50 = FACE_OUTER_BOUND( '', #67, .T. );
#51 = PLANE( '', #68 );
#52 = SURFACE_STYLE_USAGE( .BOTH., #69 );
#53 = FACE_OUTER_BOUND( '', #70, .T. );
#54 = PLANE( '', #71 );
#55 = SURFACE_STYLE_USAGE( .BOTH., #72 );
#56 = FACE_OUTER_BOUND( '', #73, .T. );
#57 = FACE_OUTER_BOUND( '', #74, .T. );
#58 = CYLINDRICAL_SURFACE( '', #75, 25.0000000000000 );
#59 = PRODUCT_CONTEXT( '', #13, 'mechanical' );
#60 = PRODUCT_DEFINITION_FORMATION_WITH_SPECIFIED_SOURCE( ' ', 'NONE', #32, .NOT_KNOWN. );
#61 = CLOSED_SHELL( '', ( #31, #27, #29 ) );
#62 = CARTESIAN_POINT( '', ( 0.000000000000000, 0.000000000000000, 0.000000000000000 ) );
#63 = DIRECTION( '', ( 0.000000000000000, 0.000000000000000, 1.00000000000000 ) );
#64 = DIRECTION( '', ( 1.00000000000000, 0.000000000000000, 0.000000000000000 ) );
#65 =  ( LENGTH_UNIT(  )NAMED_UNIT( #41 )SI_UNIT( .MILLI., .METRE. ) );
#66 = SURFACE_SIDE_STYLE( '', ( #77 ) );
#67 = EDGE_LOOP( '', ( #78 ) );
#68 = AXIS2_PLACEMENT_3D( '', #79, #80, #81 );
#69 = SURFACE_SIDE_STYLE( '', ( #82 ) );
#70 = EDGE_LOOP( '', ( #83 ) );
#71 = AXIS2_PLACEMENT_3D( '', #84, #85, #86 );
#72 = SURFACE_SIDE_STYLE( '', ( #87 ) );
#73 = EDGE_LOOP( '', ( #88 ) );
#74 = EDGE_LOOP( '', ( #89 ) );
#75 = AXIS2_PLACEMENT_3D( '', #90, #91, #92 );
#77 = SURFACE_STYLE_FILL_AREA( #93 );
#78 = ORIENTED_EDGE( '', *, *, #94, .T. );
#79 = CARTESIAN_POINT( '', ( 50.0000000000000, 25.0000000000000, 0.000000000000000 ) );
#80 = DIRECTION( '', ( -1.00000000000000, 0.000000000000000, 0.000000000000000 ) );
#81 = DIRECTION( '', ( 0.000000000000000, 0.000000000000000, 1.00000000000000 ) );
#82 = SURFACE_STYLE_FILL_AREA( #95 );
#83 = ORIENTED_EDGE( '', *, *, #96, .F. );
#84 = CARTESIAN_POINT( '', ( 0.000000000000000, 0.000000000000000, 0.000000000000000 ) );
#85 = DIRECTION( '', ( 1.00000000000000, 0.000000000000000, -0.000000000000000 ) );
#86 = DIRECTION( '', ( -0.000000000000000, 0.000000000000000, -1.00000000000000 ) );
#87 = SURFACE_STYLE_FILL_AREA( #97 );
#88 = ORIENTED_EDGE( '', *, *, #94, .F. );
#89 = ORIENTED_EDGE( '', *, *, #96, .T. );
#90 = CARTESIAN_POINT( '', ( 50.0000000000000, 0.000000000000000, 0.000000000000000 ) );
#91 = DIRECTION( '', ( -1.00000000000000, -0.000000000000000, 0.000000000000000 ) );
#92 = DIRECTION( '', ( -0.000000000000000, 0.000000000000000, -1.00000000000000 ) );
#93 = FILL_AREA_STYLE( '', ( #98 ) );
#94 = EDGE_CURVE( '', #99, #99, #100, .T. );
#95 = FILL_AREA_STYLE( '', ( #101 ) );
#96 = EDGE_CURVE( '', #102, #102, #103, .T. );
#97 = FILL_AREA_STYLE( '', ( #104 ) );
#98 = FILL_AREA_STYLE_COLOUR( '', #105 );
#99 = VERTEX_POINT( '', #106 );
#100 = CIRCLE( '', #107, 25.0000000000000 );
#101 = FILL_AREA_STYLE_COLOUR( '', #108 );
#102 = VERTEX_POINT( '', #109 );
#103 = CIRCLE( '', #110, 25.0000000000000 );
#104 = FILL_AREA_STYLE_COLOUR( '', #111 );
#105 = COLOUR_RGB( '', 0.689999997600000, 0.689999997600000, 0.689999997600000 );
#106 = CARTESIAN_POINT( '', ( 50.0000000000000, 0.000000000000000, -25.0000000000000 ) );
#107 = AXIS2_PLACEMENT_3D( '', #112, #113, #114 );
#108 = COLOUR_RGB( '', 0.689999997600000, 0.689999997600000, 0.689999997600000 );
#109 = CARTESIAN_POINT( '', ( 0.000000000000000, 0.000000000000000, -25.0000000000000 ) );
#110 = AXIS2_PLACEMENT_3D( '', #115, #116, #117 );
#111 = COLOUR_RGB( '', 0.689999997600000, 0.689999997600000, 0.689999997600000 );
#112 = CARTESIAN_POINT( '', ( 50.0000000000000, 0.000000000000000, 0.000000000000000 ) );
#113 = DIRECTION( '', ( 1.00000000000000, 0.000000000000000, -0.000000000000000 ) );
#114 = DIRECTION( '', ( -0.000000000000000, 0.000000000000000, -1.00000000000000 ) );
#115 = CARTESIAN_POINT( '', ( 0.000000000000000, 0.000000000000000, 0.000000000000000 ) );
#116 = DIRECTION( '', ( 1.00000000000000, 0.000000000000000, -0.000000000000000 ) );
#117 = DIRECTION( '', ( -0.000000000000000, 0.000000000000000, -1.00000000000000 ) );
ENDSEC;
END-ISO-10303-21;
