ISO-10303-21;
HEADER;
FILE_DESCRIPTION( ( 'STEP AP214' ), '1' );
FILE_NAME( '//goodhand-server/Shared Folders/GoodHand Data/Kipp CAD/K0573/K0573.02001555.stp', '2020-12-09T08:46:18', ( '' ), ( '' ), ' ', 'PARTsolutions', ' ' );
FILE_SCHEMA( ( 'AUTOMOTIVE_DESIGN { 1 0 10303 214 1 1 1 1 }' ) );
ENDSEC;
DATA;
#1 = MECHANICAL_DESIGN_GEOMETRIC_PRESENTATION_REPRESENTATION( ' ', ( #10, #11, #12, #13, #14, #15 ), #6 );
#2 = PRODUCT_DEFINITION_CONTEXT( '', #16, 'design' );
#3 = APPLICATION_PROTOCOL_DEFINITION( 'international standard', 'automotive_design', 2001, #16 );
#4 = PRODUCT_CATEGORY_RELATIONSHIP( 'NONE', 'NONE', #17, #18 );
#5 = SHAPE_DEFINITION_REPRESENTATION( #19, #20 );
#6 =  ( GEOMETRIC_REPRESENTATION_CONTEXT( 3 )GLOBAL_UNCERTAINTY_ASSIGNED_CONTEXT( ( #23 ) )GLOBAL_UNIT_ASSIGNED_CONTEXT( ( #25, #26, #27 ) )REPRESENTATION_CONTEXT( 'NONE', 'WORKSPACE' ) );
#10 = STYLED_ITEM( '', ( #29 ), #30 );
#11 = STYLED_ITEM( '', ( #31 ), #32 );
#12 = STYLED_ITEM( '', ( #33 ), #34 );
#13 = STYLED_ITEM( '', ( #35 ), #36 );
#14 = STYLED_ITEM( '', ( #37 ), #38 );
#15 = STYLED_ITEM( '', ( #39 ), #40 );
#16 = APPLICATION_CONTEXT( 'core data for automotive mechanical design processes' );
#17 = PRODUCT_CATEGORY( 'part', 'NONE' );
#18 = PRODUCT_RELATED_PRODUCT_CATEGORY( 'detail', ' ', ( #41 ) );
#19 = PRODUCT_DEFINITION_SHAPE( 'NONE', 'NONE', #42 );
#20 = ADVANCED_BREP_SHAPE_REPRESENTATION( '_K0573.02001555', ( #43, #44 ), #6 );
#23 = UNCERTAINTY_MEASURE_WITH_UNIT( LENGTH_MEASURE( 0.00100000000000000 ), #25, '', '' );
#25 =  ( CONVERSION_BASED_UNIT( 'MILLIMETRE', #47 )LENGTH_UNIT(  )NAMED_UNIT( #50 ) );
#26 =  ( NAMED_UNIT( #52 )PLANE_ANGLE_UNIT(  )SI_UNIT( $, .RADIAN. ) );
#27 =  ( NAMED_UNIT( #52 )SI_UNIT( $, .STERADIAN. )SOLID_ANGLE_UNIT(  ) );
#29 = PRESENTATION_STYLE_ASSIGNMENT( ( #58 ) );
#30 = ADVANCED_FACE( '', ( #59 ), #60, .F. );
#31 = PRESENTATION_STYLE_ASSIGNMENT( ( #61 ) );
#32 = ADVANCED_FACE( '', ( #62 ), #63, .F. );
#33 = PRESENTATION_STYLE_ASSIGNMENT( ( #64 ) );
#34 = ADVANCED_FACE( '', ( #65, #66 ), #67, .F. );
#35 = PRESENTATION_STYLE_ASSIGNMENT( ( #68 ) );
#36 = ADVANCED_FACE( '', ( #69, #70 ), #71, .F. );
#37 = PRESENTATION_STYLE_ASSIGNMENT( ( #72 ) );
#38 = ADVANCED_FACE( '', ( #73, #74 ), #75, .F. );
#39 = PRESENTATION_STYLE_ASSIGNMENT( ( #76 ) );
#40 = ADVANCED_FACE( '', ( #77, #78 ), #79, .T. );
#41 = PRODUCT( '_K0573.02001555', '_K0573.02001555', 'PART-_K0573.02001555-DESC', ( #80 ) );
#42 = PRODUCT_DEFINITION( 'NONE', 'NONE', #81, #2 );
#43 = MANIFOLD_SOLID_BREP( '_K0573.02001555', #82 );
#44 = AXIS2_PLACEMENT_3D( '', #83, #84, #85 );
#47 = LENGTH_MEASURE_WITH_UNIT( LENGTH_MEASURE( 1.00000000000000 ), #86 );
#50 = DIMENSIONAL_EXPONENTS( 1.00000000000000, 0.000000000000000, 0.000000000000000, 0.000000000000000, 0.000000000000000, 0.000000000000000, 0.000000000000000 );
#52 = DIMENSIONAL_EXPONENTS( 0.000000000000000, 0.000000000000000, 0.000000000000000, 0.000000000000000, 0.000000000000000, 0.000000000000000, 0.000000000000000 );
#58 = SURFACE_STYLE_USAGE( .BOTH., #87 );
#59 = FACE_OUTER_BOUND( '', #88, .T. );
#60 = PLANE( '', #89 );
#61 = SURFACE_STYLE_USAGE( .BOTH., #90 );
#62 = FACE_OUTER_BOUND( '', #91, .T. );
#63 = PLANE( '', #92 );
#64 = SURFACE_STYLE_USAGE( .BOTH., #93 );
#65 = FACE_OUTER_BOUND( '', #94, .T. );
#66 = FACE_OUTER_BOUND( '', #95, .T. );
#67 = CYLINDRICAL_SURFACE( '', #96, 2.45850000000000 );
#68 = SURFACE_STYLE_USAGE( .BOTH., #97 );
#69 = FACE_BOUND( '', #98, .T. );
#70 = FACE_OUTER_BOUND( '', #99, .T. );
#71 = CONICAL_SURFACE( '', #100, 3.00000000000000, 0.785398163400000 );
#72 = SURFACE_STYLE_USAGE( .BOTH., #101 );
#73 = FACE_BOUND( '', #102, .T. );
#74 = FACE_OUTER_BOUND( '', #103, .T. );
#75 = PLANE( '', #104 );
#76 = SURFACE_STYLE_USAGE( .BOTH., #105 );
#77 = FACE_OUTER_BOUND( '', #106, .T. );
#78 = FACE_OUTER_BOUND( '', #107, .T. );
#79 = CYLINDRICAL_SURFACE( '', #108, 10.0000000000000 );
#80 = PRODUCT_CONTEXT( '', #16, 'mechanical' );
#81 = PRODUCT_DEFINITION_FORMATION_WITH_SPECIFIED_SOURCE( ' ', 'NONE', #41, .NOT_KNOWN. );
#82 = CLOSED_SHELL( '', ( #34, #36, #38, #40, #32, #30 ) );
#83 = CARTESIAN_POINT( '', ( 0.000000000000000, 0.000000000000000, 0.000000000000000 ) );
#84 = DIRECTION( '', ( 0.000000000000000, 0.000000000000000, 1.00000000000000 ) );
#85 = DIRECTION( '', ( 1.00000000000000, 0.000000000000000, 0.000000000000000 ) );
#86 =  ( LENGTH_UNIT(  )NAMED_UNIT( #50 )SI_UNIT( .MILLI., .METRE. ) );
#87 = SURFACE_SIDE_STYLE( '', ( #110 ) );
#88 = EDGE_LOOP( '', ( #111 ) );
#89 = AXIS2_PLACEMENT_3D( '', #112, #113, #114 );
#90 = SURFACE_SIDE_STYLE( '', ( #115 ) );
#91 = EDGE_LOOP( '', ( #116 ) );
#92 = AXIS2_PLACEMENT_3D( '', #117, #118, #119 );
#93 = SURFACE_SIDE_STYLE( '', ( #120 ) );
#94 = EDGE_LOOP( '', ( #121 ) );
#95 = EDGE_LOOP( '', ( #122 ) );
#96 = AXIS2_PLACEMENT_3D( '', #123, #124, #125 );
#97 = SURFACE_SIDE_STYLE( '', ( #126 ) );
#98 = EDGE_LOOP( '', ( #127 ) );
#99 = EDGE_LOOP( '', ( #128 ) );
#100 = AXIS2_PLACEMENT_3D( '', #129, #130, #131 );
#101 = SURFACE_SIDE_STYLE( '', ( #132 ) );
#102 = EDGE_LOOP( '', ( #133 ) );
#103 = EDGE_LOOP( '', ( #134 ) );
#104 = AXIS2_PLACEMENT_3D( '', #135, #136, #137 );
#105 = SURFACE_SIDE_STYLE( '', ( #138 ) );
#106 = EDGE_LOOP( '', ( #139 ) );
#107 = EDGE_LOOP( '', ( #140 ) );
#108 = AXIS2_PLACEMENT_3D( '', #141, #142, #143 );
#110 = SURFACE_STYLE_FILL_AREA( #144 );
#111 = ORIENTED_EDGE( '', *, *, #145, .T. );
#112 = CARTESIAN_POINT( '', ( 2.45850000000000, 6.00000000000000, 0.000000000000000 ) );
#113 = DIRECTION( '', ( 0.000000000000000, 1.00000000000000, 0.000000000000000 ) );
#114 = DIRECTION( '', ( 0.000000000000000, -0.000000000000000, 1.00000000000000 ) );
#115 = SURFACE_STYLE_FILL_AREA( #146 );
#116 = ORIENTED_EDGE( '', *, *, #147, .F. );
#117 = CARTESIAN_POINT( '', ( 0.000000000000000, 15.0000000000000, 0.000000000000000 ) );
#118 = DIRECTION( '', ( 0.000000000000000, -1.00000000000000, -0.000000000000000 ) );
#119 = DIRECTION( '', ( 0.000000000000000, 0.000000000000000, -1.00000000000000 ) );
#120 = SURFACE_STYLE_FILL_AREA( #148 );
#121 = ORIENTED_EDGE( '', *, *, #145, .F. );
#122 = ORIENTED_EDGE( '', *, *, #149, .T. );
#123 = CARTESIAN_POINT( '', ( 0.000000000000000, 0.000000000000000, 0.000000000000000 ) );
#124 = DIRECTION( '', ( -0.000000000000000, 1.00000000000000, 0.000000000000000 ) );
#125 = DIRECTION( '', ( 0.000000000000000, 0.000000000000000, -1.00000000000000 ) );
#126 = SURFACE_STYLE_FILL_AREA( #150 );
#127 = ORIENTED_EDGE( '', *, *, #149, .F. );
#128 = ORIENTED_EDGE( '', *, *, #151, .T. );
#129 = CARTESIAN_POINT( '', ( 0.000000000000000, 0.000000000000000, 0.000000000000000 ) );
#130 = DIRECTION( '', ( -0.000000000000000, -1.00000000000000, -0.000000000000000 ) );
#131 = DIRECTION( '', ( 0.000000000000000, 0.000000000000000, -1.00000000000000 ) );
#132 = SURFACE_STYLE_FILL_AREA( #152 );
#133 = ORIENTED_EDGE( '', *, *, #151, .F. );
#134 = ORIENTED_EDGE( '', *, *, #153, .T. );
#135 = CARTESIAN_POINT( '', ( 10.0000000000000, 0.000000000000000, 0.000000000000000 ) );
#136 = DIRECTION( '', ( 0.000000000000000, 1.00000000000000, 0.000000000000000 ) );
#137 = DIRECTION( '', ( 0.000000000000000, -0.000000000000000, 1.00000000000000 ) );
#138 = SURFACE_STYLE_FILL_AREA( #154 );
#139 = ORIENTED_EDGE( '', *, *, #153, .F. );
#140 = ORIENTED_EDGE( '', *, *, #147, .T. );
#141 = CARTESIAN_POINT( '', ( 0.000000000000000, 0.000000000000000, 0.000000000000000 ) );
#142 = DIRECTION( '', ( -0.000000000000000, 1.00000000000000, 0.000000000000000 ) );
#143 = DIRECTION( '', ( 0.000000000000000, 0.000000000000000, -1.00000000000000 ) );
#144 = FILL_AREA_STYLE( '', ( #155 ) );
#145 = EDGE_CURVE( '', #156, #156, #157, .T. );
#146 = FILL_AREA_STYLE( '', ( #158 ) );
#147 = EDGE_CURVE( '', #159, #159, #160, .T. );
#148 = FILL_AREA_STYLE( '', ( #161 ) );
#149 = EDGE_CURVE( '', #162, #162, #163, .T. );
#150 = FILL_AREA_STYLE( '', ( #164 ) );
#151 = EDGE_CURVE( '', #165, #165, #166, .T. );
#152 = FILL_AREA_STYLE( '', ( #167 ) );
#153 = EDGE_CURVE( '', #168, #168, #169, .T. );
#154 = FILL_AREA_STYLE( '', ( #170 ) );
#155 = FILL_AREA_STYLE_COLOUR( '', #171 );
#156 = VERTEX_POINT( '', #172 );
#157 = CIRCLE( '', #173, 2.45850000000000 );
#158 = FILL_AREA_STYLE_COLOUR( '', #174 );
#159 = VERTEX_POINT( '', #175 );
#160 = CIRCLE( '', #176, 10.0000000000000 );
#161 = FILL_AREA_STYLE_COLOUR( '', #177 );
#162 = VERTEX_POINT( '', #178 );
#163 = CIRCLE( '', #179, 2.45850000000000 );
#164 = FILL_AREA_STYLE_COLOUR( '', #180 );
#165 = VERTEX_POINT( '', #181 );
#166 = CIRCLE( '', #182, 3.00000000000000 );
#167 = FILL_AREA_STYLE_COLOUR( '', #183 );
#168 = VERTEX_POINT( '', #184 );
#169 = CIRCLE( '', #185, 10.0000000000000 );
#170 = FILL_AREA_STYLE_COLOUR( '', #186 );
#171 = COLOUR_RGB( '', 0.689999997600000, 0.689999997600000, 0.689999997600000 );
#172 = CARTESIAN_POINT( '', ( 0.000000000000000, 6.00000000000000, -2.45850000000000 ) );
#173 = AXIS2_PLACEMENT_3D( '', #187, #188, #189 );
#174 = COLOUR_RGB( '', 0.689999997600000, 0.689999997600000, 0.689999997600000 );
#175 = CARTESIAN_POINT( '', ( 0.000000000000000, 15.0000000000000, -10.0000000000000 ) );
#176 = AXIS2_PLACEMENT_3D( '', #190, #191, #192 );
#177 = COLOUR_RGB( '', 0.689999997600000, 0.689999997600000, 0.689999997600000 );
#178 = CARTESIAN_POINT( '', ( 0.000000000000000, 0.541500000000000, -2.45850000000000 ) );
#179 = AXIS2_PLACEMENT_3D( '', #193, #194, #195 );
#180 = COLOUR_RGB( '', 0.689999997600000, 0.689999997600000, 0.689999997600000 );
#181 = CARTESIAN_POINT( '', ( 0.000000000000000, 0.000000000000000, -3.00000000000000 ) );
#182 = AXIS2_PLACEMENT_3D( '', #196, #197, #198 );
#183 = COLOUR_RGB( '', 0.689999997600000, 0.689999997600000, 0.689999997600000 );
#184 = CARTESIAN_POINT( '', ( 0.000000000000000, 0.000000000000000, -10.0000000000000 ) );
#185 = AXIS2_PLACEMENT_3D( '', #199, #200, #201 );
#186 = COLOUR_RGB( '', 0.689999997600000, 0.689999997600000, 0.689999997600000 );
#187 = CARTESIAN_POINT( '', ( 0.000000000000000, 6.00000000000000, 0.000000000000000 ) );
#188 = DIRECTION( '', ( 0.000000000000000, -1.00000000000000, -0.000000000000000 ) );
#189 = DIRECTION( '', ( 0.000000000000000, 0.000000000000000, -1.00000000000000 ) );
#190 = CARTESIAN_POINT( '', ( 0.000000000000000, 15.0000000000000, 0.000000000000000 ) );
#191 = DIRECTION( '', ( 0.000000000000000, -1.00000000000000, -0.000000000000000 ) );
#192 = DIRECTION( '', ( 0.000000000000000, 0.000000000000000, -1.00000000000000 ) );
#193 = CARTESIAN_POINT( '', ( 0.000000000000000, 0.541500000000000, 0.000000000000000 ) );
#194 = DIRECTION( '', ( 0.000000000000000, -1.00000000000000, -0.000000000000000 ) );
#195 = DIRECTION( '', ( 0.000000000000000, 0.000000000000000, -1.00000000000000 ) );
#196 = CARTESIAN_POINT( '', ( 0.000000000000000, 0.000000000000000, 0.000000000000000 ) );
#197 = DIRECTION( '', ( 0.000000000000000, -1.00000000000000, -0.000000000000000 ) );
#198 = DIRECTION( '', ( 0.000000000000000, 0.000000000000000, -1.00000000000000 ) );
#199 = CARTESIAN_POINT( '', ( 0.000000000000000, 0.000000000000000, 0.000000000000000 ) );
#200 = DIRECTION( '', ( 0.000000000000000, -1.00000000000000, -0.000000000000000 ) );
#201 = DIRECTION( '', ( 0.000000000000000, 0.000000000000000, -1.00000000000000 ) );
ENDSEC;
END-ISO-10303-21;
