ISO-10303-21;
HEADER;
FILE_DESCRIPTION( ( 'STEP AP214' ), '1' );
FILE_NAME( '//goodhand-server/Shared Folders/GoodHand Data/Kipp CAD/K0293/K0293.320.stp', '2020-11-27T12:54:08', ( '' ), ( '' ), ' ', 'PARTsolutions', ' ' );
FILE_SCHEMA( ( 'AUTOMOTIVE_DESIGN { 1 0 10303 214 1 1 1 1 }' ) );
ENDSEC;
DATA;
#1 = MECHANICAL_DESIGN_GEOMETRIC_PRESENTATION_REPRESENTATION( ' ', ( #10, #11, #12, #13, #14, #15, #16, #17, #18, #19, #20, #21 ), #6 );
#2 = PRODUCT_DEFINITION_CONTEXT( '', #22, 'design' );
#3 = APPLICATION_PROTOCOL_DEFINITION( 'international standard', 'automotive_design', 2001, #22 );
#4 = PRODUCT_CATEGORY_RELATIONSHIP( 'NONE', 'NONE', #23, #24 );
#5 = SHAPE_DEFINITION_REPRESENTATION( #25, #26 );
#6 =  ( GEOMETRIC_REPRESENTATION_CONTEXT( 3 )GLOBAL_UNCERTAINTY_ASSIGNED_CONTEXT( ( #29 ) )GLOBAL_UNIT_ASSIGNED_CONTEXT( ( #31, #32, #33 ) )REPRESENTATION_CONTEXT( 'NONE', 'WORKSPACE' ) );
#10 = STYLED_ITEM( '', ( #35 ), #36 );
#11 = STYLED_ITEM( '', ( #37 ), #38 );
#12 = STYLED_ITEM( '', ( #39 ), #40 );
#13 = STYLED_ITEM( '', ( #41 ), #42 );
#14 = STYLED_ITEM( '', ( #43 ), #44 );
#15 = STYLED_ITEM( '', ( #45 ), #46 );
#16 = STYLED_ITEM( '', ( #47 ), #48 );
#17 = STYLED_ITEM( '', ( #49 ), #50 );
#18 = STYLED_ITEM( '', ( #51 ), #52 );
#19 = STYLED_ITEM( '', ( #53 ), #54 );
#20 = STYLED_ITEM( '', ( #55 ), #56 );
#21 = STYLED_ITEM( '', ( #57 ), #58 );
#22 = APPLICATION_CONTEXT( 'core data for automotive mechanical design processes' );
#23 = PRODUCT_CATEGORY( 'part', 'NONE' );
#24 = PRODUCT_RELATED_PRODUCT_CATEGORY( 'detail', ' ', ( #59 ) );
#25 = PRODUCT_DEFINITION_SHAPE( 'NONE', 'NONE', #60 );
#26 = ADVANCED_BREP_SHAPE_REPRESENTATION( '_K0293.320', ( #61, #62 ), #6 );
#29 = UNCERTAINTY_MEASURE_WITH_UNIT( LENGTH_MEASURE( 0.00100000000000000 ), #31, '', '' );
#31 =  ( CONVERSION_BASED_UNIT( 'MILLIMETRE', #65 )LENGTH_UNIT(  )NAMED_UNIT( #68 ) );
#32 =  ( NAMED_UNIT( #70 )PLANE_ANGLE_UNIT(  )SI_UNIT( $, .RADIAN. ) );
#33 =  ( NAMED_UNIT( #70 )SI_UNIT( $, .STERADIAN. )SOLID_ANGLE_UNIT(  ) );
#35 = PRESENTATION_STYLE_ASSIGNMENT( ( #76 ) );
#36 = ADVANCED_FACE( '', ( #77, #78 ), #79, .T. );
#37 = PRESENTATION_STYLE_ASSIGNMENT( ( #80 ) );
#38 = ADVANCED_FACE( '', ( #81, #82 ), #83, .F. );
#39 = PRESENTATION_STYLE_ASSIGNMENT( ( #84 ) );
#40 = ADVANCED_FACE( '', ( #85 ), #86, .F. );
#41 = PRESENTATION_STYLE_ASSIGNMENT( ( #87 ) );
#42 = ADVANCED_FACE( '', ( #88, #89 ), #90, .T. );
#43 = PRESENTATION_STYLE_ASSIGNMENT( ( #91 ) );
#44 = ADVANCED_FACE( '', ( #92 ), #93, .F. );
#45 = PRESENTATION_STYLE_ASSIGNMENT( ( #94 ) );
#46 = ADVANCED_FACE( '', ( #95, #96 ), #97, .F. );
#47 = PRESENTATION_STYLE_ASSIGNMENT( ( #98 ) );
#48 = ADVANCED_FACE( '', ( #99, #100 ), #101, .T. );
#49 = PRESENTATION_STYLE_ASSIGNMENT( ( #102 ) );
#50 = ADVANCED_FACE( '', ( #103, #104 ), #105, .F. );
#51 = PRESENTATION_STYLE_ASSIGNMENT( ( #106 ) );
#52 = ADVANCED_FACE( '', ( #107, #108 ), #109, .T. );
#53 = PRESENTATION_STYLE_ASSIGNMENT( ( #110 ) );
#54 = ADVANCED_FACE( '', ( #111, #112 ), #113, .T. );
#55 = PRESENTATION_STYLE_ASSIGNMENT( ( #114 ) );
#56 = ADVANCED_FACE( '', ( #115, #116 ), #117, .T. );
#57 = PRESENTATION_STYLE_ASSIGNMENT( ( #118 ) );
#58 = ADVANCED_FACE( '', ( #119, #120 ), #121, .F. );
#59 = PRODUCT( '_K0293.320', '_K0293.320', 'PART-_K0293.320-DESC', ( #122 ) );
#60 = PRODUCT_DEFINITION( 'NONE', 'NONE', #123, #2 );
#61 = MANIFOLD_SOLID_BREP( '_K0293.320', #124 );
#62 = AXIS2_PLACEMENT_3D( '', #125, #126, #127 );
#65 = LENGTH_MEASURE_WITH_UNIT( LENGTH_MEASURE( 1.00000000000000 ), #128 );
#68 = DIMENSIONAL_EXPONENTS( 1.00000000000000, 0.000000000000000, 0.000000000000000, 0.000000000000000, 0.000000000000000, 0.000000000000000, 0.000000000000000 );
#70 = DIMENSIONAL_EXPONENTS( 0.000000000000000, 0.000000000000000, 0.000000000000000, 0.000000000000000, 0.000000000000000, 0.000000000000000, 0.000000000000000 );
#76 = SURFACE_STYLE_USAGE( .BOTH., #129 );
#77 = FACE_OUTER_BOUND( '', #130, .T. );
#78 = FACE_BOUND( '', #131, .T. );
#79 = CONICAL_SURFACE( '', #132, 7.58845726810000, 0.261799387800000 );
#80 = SURFACE_STYLE_USAGE( .BOTH., #133 );
#81 = FACE_BOUND( '', #134, .T. );
#82 = FACE_OUTER_BOUND( '', #135, .T. );
#83 = PLANE( '', #136 );
#84 = SURFACE_STYLE_USAGE( .BOTH., #137 );
#85 = FACE_OUTER_BOUND( '', #138, .T. );
#86 = PLANE( '', #139 );
#87 = SURFACE_STYLE_USAGE( .BOTH., #140 );
#88 = FACE_OUTER_BOUND( '', #141, .T. );
#89 = FACE_BOUND( '', #142, .T. );
#90 = CONICAL_SURFACE( '', #143, 5.80000000000000, 0.261799387800000 );
#91 = SURFACE_STYLE_USAGE( .BOTH., #144 );
#92 = FACE_OUTER_BOUND( '', #145, .T. );
#93 = PLANE( '', #146 );
#94 = SURFACE_STYLE_USAGE( .BOTH., #147 );
#95 = FACE_BOUND( '', #148, .T. );
#96 = FACE_OUTER_BOUND( '', #149, .T. );
#97 = PLANE( '', #150 );
#98 = SURFACE_STYLE_USAGE( .BOTH., #151 );
#99 = FACE_OUTER_BOUND( '', #152, .T. );
#100 = FACE_OUTER_BOUND( '', #153, .T. );
#101 = CYLINDRICAL_SURFACE( '', #154, 5.80000000000000 );
#102 = SURFACE_STYLE_USAGE( .BOTH., #155 );
#103 = FACE_BOUND( '', #156, .T. );
#104 = FACE_OUTER_BOUND( '', #157, .T. );
#105 = CONICAL_SURFACE( '', #158, 6.80000000000000, 1.43116998660000 );
#106 = SURFACE_STYLE_USAGE( .BOTH., #159 );
#107 = FACE_OUTER_BOUND( '', #160, .T. );
#108 = FACE_OUTER_BOUND( '', #161, .T. );
#109 = CYLINDRICAL_SURFACE( '', #162, 10.0000000000000 );
#110 = SURFACE_STYLE_USAGE( .BOTH., #163 );
#111 = FACE_BOUND( '', #164, .T. );
#112 = FACE_OUTER_BOUND( '', #165, .T. );
#113 = CONICAL_SURFACE( '', #166, 6.00000000000000, 0.261799387800000 );
#114 = SURFACE_STYLE_USAGE( .BOTH., #167 );
#115 = FACE_OUTER_BOUND( '', #168, .T. );
#116 = FACE_OUTER_BOUND( '', #169, .T. );
#117 = CYLINDRICAL_SURFACE( '', #170, 6.00000000000000 );
#118 = SURFACE_STYLE_USAGE( .BOTH., #171 );
#119 = FACE_OUTER_BOUND( '', #172, .T. );
#120 = FACE_OUTER_BOUND( '', #173, .T. );
#121 = TOROIDAL_SURFACE( '', #174, 6.00000000000000, 0.200000000000000 );
#122 = PRODUCT_CONTEXT( '', #22, 'mechanical' );
#123 = PRODUCT_DEFINITION_FORMATION_WITH_SPECIFIED_SOURCE( ' ', 'NONE', #59, .NOT_KNOWN. );
#124 = CLOSED_SHELL( '', ( #54, #56, #42, #48, #58, #46, #50, #38, #52, #36, #44, #40 ) );
#125 = CARTESIAN_POINT( '', ( 0.000000000000000, 0.000000000000000, 0.000000000000000 ) );
#126 = DIRECTION( '', ( 0.000000000000000, 0.000000000000000, 1.00000000000000 ) );
#127 = DIRECTION( '', ( 1.00000000000000, 0.000000000000000, 0.000000000000000 ) );
#128 =  ( LENGTH_UNIT(  )NAMED_UNIT( #68 )SI_UNIT( .MILLI., .METRE. ) );
#129 = SURFACE_SIDE_STYLE( '', ( #176 ) );
#130 = EDGE_LOOP( '', ( #177 ) );
#131 = EDGE_LOOP( '', ( #178 ) );
#132 = AXIS2_PLACEMENT_3D( '', #179, #180, #181 );
#133 = SURFACE_SIDE_STYLE( '', ( #182 ) );
#134 = EDGE_LOOP( '', ( #183 ) );
#135 = EDGE_LOOP( '', ( #184 ) );
#136 = AXIS2_PLACEMENT_3D( '', #185, #186, #187 );
#137 = SURFACE_SIDE_STYLE( '', ( #188 ) );
#138 = EDGE_LOOP( '', ( #189 ) );
#139 = AXIS2_PLACEMENT_3D( '', #190, #191, #192 );
#140 = SURFACE_SIDE_STYLE( '', ( #193 ) );
#141 = EDGE_LOOP( '', ( #194 ) );
#142 = EDGE_LOOP( '', ( #195 ) );
#143 = AXIS2_PLACEMENT_3D( '', #196, #197, #198 );
#144 = SURFACE_SIDE_STYLE( '', ( #199 ) );
#145 = EDGE_LOOP( '', ( #200 ) );
#146 = AXIS2_PLACEMENT_3D( '', #201, #202, #203 );
#147 = SURFACE_SIDE_STYLE( '', ( #204 ) );
#148 = EDGE_LOOP( '', ( #205 ) );
#149 = EDGE_LOOP( '', ( #206 ) );
#150 = AXIS2_PLACEMENT_3D( '', #207, #208, #209 );
#151 = SURFACE_SIDE_STYLE( '', ( #210 ) );
#152 = EDGE_LOOP( '', ( #211 ) );
#153 = EDGE_LOOP( '', ( #212 ) );
#154 = AXIS2_PLACEMENT_3D( '', #213, #214, #215 );
#155 = SURFACE_SIDE_STYLE( '', ( #216 ) );
#156 = EDGE_LOOP( '', ( #217 ) );
#157 = EDGE_LOOP( '', ( #218 ) );
#158 = AXIS2_PLACEMENT_3D( '', #219, #220, #221 );
#159 = SURFACE_SIDE_STYLE( '', ( #222 ) );
#160 = EDGE_LOOP( '', ( #223 ) );
#161 = EDGE_LOOP( '', ( #224 ) );
#162 = AXIS2_PLACEMENT_3D( '', #225, #226, #227 );
#163 = SURFACE_SIDE_STYLE( '', ( #228 ) );
#164 = EDGE_LOOP( '', ( #229 ) );
#165 = EDGE_LOOP( '', ( #230 ) );
#166 = AXIS2_PLACEMENT_3D( '', #231, #232, #233 );
#167 = SURFACE_SIDE_STYLE( '', ( #234 ) );
#168 = EDGE_LOOP( '', ( #235 ) );
#169 = EDGE_LOOP( '', ( #236 ) );
#170 = AXIS2_PLACEMENT_3D( '', #237, #238, #239 );
#171 = SURFACE_SIDE_STYLE( '', ( #240 ) );
#172 = EDGE_LOOP( '', ( #241 ) );
#173 = EDGE_LOOP( '', ( #242 ) );
#174 = AXIS2_PLACEMENT_3D( '', #243, #244, #245 );
#176 = SURFACE_STYLE_FILL_AREA( #246 );
#177 = ORIENTED_EDGE( '', *, *, #247, .F. );
#178 = ORIENTED_EDGE( '', *, *, #248, .T. );
#179 = CARTESIAN_POINT( '', ( 0.000000000000000, 25.0000000000000, 0.000000000000000 ) );
#180 = DIRECTION( '', ( -0.000000000000000, -1.00000000000000, -0.000000000000000 ) );
#181 = DIRECTION( '', ( 0.000000000000000, 0.000000000000000, -1.00000000000000 ) );
#182 = SURFACE_STYLE_FILL_AREA( #249 );
#183 = ORIENTED_EDGE( '', *, *, #250, .F. );
#184 = ORIENTED_EDGE( '', *, *, #251, .T. );
#185 = CARTESIAN_POINT( '', ( 10.0000000000000, 0.000000000000000, 0.000000000000000 ) );
#186 = DIRECTION( '', ( 0.000000000000000, 1.00000000000000, 0.000000000000000 ) );
#187 = DIRECTION( '', ( 0.000000000000000, -0.000000000000000, 1.00000000000000 ) );
#188 = SURFACE_STYLE_FILL_AREA( #252 );
#189 = ORIENTED_EDGE( '', *, *, #253, .T. );
#190 = CARTESIAN_POINT( '', ( 5.46410161513775, -18.0000000000000, 0.000000000000000 ) );
#191 = DIRECTION( '', ( 0.000000000000000, 1.00000000000000, 0.000000000000000 ) );
#192 = DIRECTION( '', ( 0.000000000000000, -0.000000000000000, 1.00000000000000 ) );
#193 = SURFACE_STYLE_FILL_AREA( #254 );
#194 = ORIENTED_EDGE( '', *, *, #255, .F. );
#195 = ORIENTED_EDGE( '', *, *, #256, .T. );
#196 = CARTESIAN_POINT( '', ( 0.000000000000000, -1.35358983848623, 0.000000000000000 ) );
#197 = DIRECTION( '', ( -0.000000000000000, -1.00000000000000, -0.000000000000000 ) );
#198 = DIRECTION( '', ( 0.000000000000000, 0.000000000000000, -1.00000000000000 ) );
#199 = SURFACE_STYLE_FILL_AREA( #257 );
#200 = ORIENTED_EDGE( '', *, *, #248, .F. );
#201 = CARTESIAN_POINT( '', ( 0.000000000000000, 25.0000000000000, 0.000000000000000 ) );
#202 = DIRECTION( '', ( 0.000000000000000, -1.00000000000000, -0.000000000000000 ) );
#203 = DIRECTION( '', ( 0.000000000000000, 0.000000000000000, -1.00000000000000 ) );
#204 = SURFACE_STYLE_FILL_AREA( #258 );
#205 = ORIENTED_EDGE( '', *, *, #259, .F. );
#206 = ORIENTED_EDGE( '', *, *, #260, .T. );
#207 = CARTESIAN_POINT( '', ( 6.08846302776158, 0.100000000000000, 0.000000000000000 ) );
#208 = DIRECTION( '', ( 0.000000000000000, 1.00000000000000, 0.000000000000000 ) );
#209 = DIRECTION( '', ( 0.000000000000000, -0.000000000000000, 1.00000000000000 ) );
#210 = SURFACE_STYLE_FILL_AREA( #261 );
#211 = ORIENTED_EDGE( '', *, *, #256, .F. );
#212 = ORIENTED_EDGE( '', *, *, #262, .T. );
#213 = CARTESIAN_POINT( '', ( 0.000000000000000, -18.0000000000000, 0.000000000000000 ) );
#214 = DIRECTION( '', ( -0.000000000000000, 1.00000000000000, 0.000000000000000 ) );
#215 = DIRECTION( '', ( 0.000000000000000, 0.000000000000000, -1.00000000000000 ) );
#216 = SURFACE_STYLE_FILL_AREA( #263 );
#217 = ORIENTED_EDGE( '', *, *, #260, .F. );
#218 = ORIENTED_EDGE( '', *, *, #250, .T. );
#219 = CARTESIAN_POINT( '', ( 0.000000000000000, 0.000000000000000, 0.000000000000000 ) );
#220 = DIRECTION( '', ( -0.000000000000000, -1.00000000000000, -0.000000000000000 ) );
#221 = DIRECTION( '', ( 0.000000000000000, 0.000000000000000, -1.00000000000000 ) );
#222 = SURFACE_STYLE_FILL_AREA( #264 );
#223 = ORIENTED_EDGE( '', *, *, #251, .F. );
#224 = ORIENTED_EDGE( '', *, *, #247, .T. );
#225 = CARTESIAN_POINT( '', ( 0.000000000000000, -18.0000000000000, 0.000000000000000 ) );
#226 = DIRECTION( '', ( -0.000000000000000, 1.00000000000000, 0.000000000000000 ) );
#227 = DIRECTION( '', ( 0.000000000000000, 0.000000000000000, -1.00000000000000 ) );
#228 = SURFACE_STYLE_FILL_AREA( #265 );
#229 = ORIENTED_EDGE( '', *, *, #253, .F. );
#230 = ORIENTED_EDGE( '', *, *, #266, .T. );
#231 = CARTESIAN_POINT( '', ( 0.000000000000000, -16.0000000000000, 0.000000000000000 ) );
#232 = DIRECTION( '', ( -0.000000000000000, 1.00000000000000, 0.000000000000000 ) );
#233 = DIRECTION( '', ( 0.000000000000000, -0.000000000000000, 1.00000000000000 ) );
#234 = SURFACE_STYLE_FILL_AREA( #267 );
#235 = ORIENTED_EDGE( '', *, *, #266, .F. );
#236 = ORIENTED_EDGE( '', *, *, #255, .T. );
#237 = CARTESIAN_POINT( '', ( 0.000000000000000, -18.0000000000000, 0.000000000000000 ) );
#238 = DIRECTION( '', ( -0.000000000000000, 1.00000000000000, 0.000000000000000 ) );
#239 = DIRECTION( '', ( 0.000000000000000, 0.000000000000000, -1.00000000000000 ) );
#240 = SURFACE_STYLE_FILL_AREA( #268 );
#241 = ORIENTED_EDGE( '', *, *, #262, .F. );
#242 = ORIENTED_EDGE( '', *, *, #259, .T. );
#243 = CARTESIAN_POINT( '', ( 0.000000000000000, -0.100000000000002, 0.000000000000000 ) );
#244 = DIRECTION( '', ( 0.000000000000000, -1.00000000000000, -0.000000000000000 ) );
#245 = DIRECTION( '', ( 0.000000000000000, 0.000000000000000, -1.00000000000000 ) );
#246 = FILL_AREA_STYLE( '', ( #269 ) );
#247 = EDGE_CURVE( '', #270, #270, #271, .T. );
#248 = EDGE_CURVE( '', #272, #272, #273, .T. );
#249 = FILL_AREA_STYLE( '', ( #274 ) );
#250 = EDGE_CURVE( '', #275, #275, #276, .T. );
#251 = EDGE_CURVE( '', #277, #277, #278, .T. );
#252 = FILL_AREA_STYLE( '', ( #279 ) );
#253 = EDGE_CURVE( '', #280, #280, #281, .T. );
#254 = FILL_AREA_STYLE( '', ( #282 ) );
#255 = EDGE_CURVE( '', #283, #283, #284, .T. );
#256 = EDGE_CURVE( '', #285, #285, #286, .T. );
#257 = FILL_AREA_STYLE( '', ( #287 ) );
#258 = FILL_AREA_STYLE( '', ( #288 ) );
#259 = EDGE_CURVE( '', #289, #289, #290, .T. );
#260 = EDGE_CURVE( '', #291, #291, #292, .T. );
#261 = FILL_AREA_STYLE( '', ( #293 ) );
#262 = EDGE_CURVE( '', #294, #294, #295, .T. );
#263 = FILL_AREA_STYLE( '', ( #296 ) );
#264 = FILL_AREA_STYLE( '', ( #297 ) );
#265 = FILL_AREA_STYLE( '', ( #298 ) );
#266 = EDGE_CURVE( '', #299, #299, #300, .T. );
#267 = FILL_AREA_STYLE( '', ( #301 ) );
#268 = FILL_AREA_STYLE( '', ( #302 ) );
#269 = FILL_AREA_STYLE_COLOUR( '', #303 );
#270 = VERTEX_POINT( '', #304 );
#271 = CIRCLE( '', #305, 10.0000000000000 );
#272 = VERTEX_POINT( '', #306 );
#273 = CIRCLE( '', #307, 7.58845726810000 );
#274 = FILL_AREA_STYLE_COLOUR( '', #308 );
#275 = VERTEX_POINT( '', #309 );
#276 = CIRCLE( '', #310, 6.80000000000000 );
#277 = VERTEX_POINT( '', #311 );
#278 = CIRCLE( '', #312, 10.0000000000000 );
#279 = FILL_AREA_STYLE_COLOUR( '', #313 );
#280 = VERTEX_POINT( '', #314 );
#281 = CIRCLE( '', #315, 5.46410161510000 );
#282 = FILL_AREA_STYLE_COLOUR( '', #316 );
#283 = VERTEX_POINT( '', #317 );
#284 = CIRCLE( '', #318, 6.00000000000000 );
#285 = VERTEX_POINT( '', #319 );
#286 = CIRCLE( '', #320, 5.80000000000000 );
#287 = FILL_AREA_STYLE_COLOUR( '', #321 );
#288 = FILL_AREA_STYLE_COLOUR( '', #322 );
#289 = VERTEX_POINT( '', #323 );
#290 = CIRCLE( '', #324, 6.00000000000000 );
#291 = VERTEX_POINT( '', #325 );
#292 = CIRCLE( '', #326, 6.08846302780000 );
#293 = FILL_AREA_STYLE_COLOUR( '', #327 );
#294 = VERTEX_POINT( '', #328 );
#295 = CIRCLE( '', #329, 5.80000000000000 );
#296 = FILL_AREA_STYLE_COLOUR( '', #330 );
#297 = FILL_AREA_STYLE_COLOUR( '', #331 );
#298 = FILL_AREA_STYLE_COLOUR( '', #332 );
#299 = VERTEX_POINT( '', #333 );
#300 = CIRCLE( '', #334, 6.00000000000000 );
#301 = FILL_AREA_STYLE_COLOUR( '', #335 );
#302 = FILL_AREA_STYLE_COLOUR( '', #336 );
#303 = COLOUR_RGB( '', 0.689999997600000, 0.689999997600000, 0.689999997600000 );
#304 = CARTESIAN_POINT( '', ( 0.000000000000000, 16.0000000000000, -10.0000000000000 ) );
#305 = AXIS2_PLACEMENT_3D( '', #337, #338, #339 );
#306 = CARTESIAN_POINT( '', ( 0.000000000000000, 25.0000000000000, -7.58845726811990 ) );
#307 = AXIS2_PLACEMENT_3D( '', #340, #341, #342 );
#308 = COLOUR_RGB( '', 0.689999997600000, 0.689999997600000, 0.689999997600000 );
#309 = CARTESIAN_POINT( '', ( 0.000000000000000, 0.000000000000000, -6.80000000000001 ) );
#310 = AXIS2_PLACEMENT_3D( '', #343, #344, #345 );
#311 = CARTESIAN_POINT( '', ( 0.000000000000000, 0.000000000000000, -10.0000000000000 ) );
#312 = AXIS2_PLACEMENT_3D( '', #346, #347, #348 );
#313 = COLOUR_RGB( '', 0.689999997600000, 0.689999997600000, 0.689999997600000 );
#314 = CARTESIAN_POINT( '', ( 0.000000000000000, -18.0000000000000, -5.46410161513775 ) );
#315 = AXIS2_PLACEMENT_3D( '', #349, #350, #351 );
#316 = COLOUR_RGB( '', 0.689999997600000, 0.689999997600000, 0.689999997600000 );
#317 = CARTESIAN_POINT( '', ( 0.000000000000000, -2.10000000000000, -6.00000000000000 ) );
#318 = AXIS2_PLACEMENT_3D( '', #352, #353, #354 );
#319 = CARTESIAN_POINT( '', ( 0.000000000000000, -1.35358983848623, -5.80000000000000 ) );
#320 = AXIS2_PLACEMENT_3D( '', #355, #356, #357 );
#321 = COLOUR_RGB( '', 0.689999997600000, 0.689999997600000, 0.689999997600000 );
#322 = COLOUR_RGB( '', 0.689999997600000, 0.689999997600000, 0.689999997600000 );
#323 = CARTESIAN_POINT( '', ( 0.000000000000000, 0.0999999999999994, -6.00000000000000 ) );
#324 = AXIS2_PLACEMENT_3D( '', #358, #359, #360 );
#325 = CARTESIAN_POINT( '', ( 0.000000000000000, 0.0999999999999994, -6.08846302776158 ) );
#326 = AXIS2_PLACEMENT_3D( '', #361, #362, #363 );
#327 = COLOUR_RGB( '', 0.689999997600000, 0.689999997600000, 0.689999997600000 );
#328 = CARTESIAN_POINT( '', ( 0.000000000000000, -0.0999999999999994, -5.80000000000000 ) );
#329 = AXIS2_PLACEMENT_3D( '', #364, #365, #366 );
#330 = COLOUR_RGB( '', 0.689999997600000, 0.689999997600000, 0.689999997600000 );
#331 = COLOUR_RGB( '', 0.689999997600000, 0.689999997600000, 0.689999997600000 );
#332 = COLOUR_RGB( '', 0.689999997600000, 0.689999997600000, 0.689999997600000 );
#333 = CARTESIAN_POINT( '', ( 0.000000000000000, -16.0000000000000, -6.00000000000000 ) );
#334 = AXIS2_PLACEMENT_3D( '', #367, #368, #369 );
#335 = COLOUR_RGB( '', 0.689999997600000, 0.689999997600000, 0.689999997600000 );
#336 = COLOUR_RGB( '', 0.689999997600000, 0.689999997600000, 0.689999997600000 );
#337 = CARTESIAN_POINT( '', ( 0.000000000000000, 16.0000000000000, 0.000000000000000 ) );
#338 = DIRECTION( '', ( 0.000000000000000, -1.00000000000000, -0.000000000000000 ) );
#339 = DIRECTION( '', ( 0.000000000000000, 0.000000000000000, -1.00000000000000 ) );
#340 = CARTESIAN_POINT( '', ( 0.000000000000000, 25.0000000000000, 0.000000000000000 ) );
#341 = DIRECTION( '', ( 0.000000000000000, -1.00000000000000, -0.000000000000000 ) );
#342 = DIRECTION( '', ( 0.000000000000000, 0.000000000000000, -1.00000000000000 ) );
#343 = CARTESIAN_POINT( '', ( 0.000000000000000, 0.000000000000000, 0.000000000000000 ) );
#344 = DIRECTION( '', ( 0.000000000000000, -1.00000000000000, -0.000000000000000 ) );
#345 = DIRECTION( '', ( 0.000000000000000, 0.000000000000000, -1.00000000000000 ) );
#346 = CARTESIAN_POINT( '', ( 0.000000000000000, 0.000000000000000, 0.000000000000000 ) );
#347 = DIRECTION( '', ( 0.000000000000000, -1.00000000000000, -0.000000000000000 ) );
#348 = DIRECTION( '', ( 0.000000000000000, 0.000000000000000, -1.00000000000000 ) );
#349 = CARTESIAN_POINT( '', ( 0.000000000000000, -18.0000000000000, 0.000000000000000 ) );
#350 = DIRECTION( '', ( 0.000000000000000, -1.00000000000000, -0.000000000000000 ) );
#351 = DIRECTION( '', ( 0.000000000000000, 0.000000000000000, -1.00000000000000 ) );
#352 = CARTESIAN_POINT( '', ( 0.000000000000000, -2.10000000000000, 0.000000000000000 ) );
#353 = DIRECTION( '', ( 0.000000000000000, -1.00000000000000, -0.000000000000000 ) );
#354 = DIRECTION( '', ( 0.000000000000000, 0.000000000000000, -1.00000000000000 ) );
#355 = CARTESIAN_POINT( '', ( 0.000000000000000, -1.35358983848623, 0.000000000000000 ) );
#356 = DIRECTION( '', ( 0.000000000000000, -1.00000000000000, -0.000000000000000 ) );
#357 = DIRECTION( '', ( 0.000000000000000, 0.000000000000000, -1.00000000000000 ) );
#358 = CARTESIAN_POINT( '', ( 0.000000000000000, 0.0999999999999994, 0.000000000000000 ) );
#359 = DIRECTION( '', ( 0.000000000000000, -1.00000000000000, -0.000000000000000 ) );
#360 = DIRECTION( '', ( 0.000000000000000, 0.000000000000000, -1.00000000000000 ) );
#361 = CARTESIAN_POINT( '', ( 0.000000000000000, 0.0999999999999994, 0.000000000000000 ) );
#362 = DIRECTION( '', ( 0.000000000000000, -1.00000000000000, -0.000000000000000 ) );
#363 = DIRECTION( '', ( 0.000000000000000, 0.000000000000000, -1.00000000000000 ) );
#364 = CARTESIAN_POINT( '', ( 0.000000000000000, -0.0999999999999994, 0.000000000000000 ) );
#365 = DIRECTION( '', ( 0.000000000000000, -1.00000000000000, -0.000000000000000 ) );
#366 = DIRECTION( '', ( 0.000000000000000, 0.000000000000000, -1.00000000000000 ) );
#367 = CARTESIAN_POINT( '', ( 0.000000000000000, -16.0000000000000, 0.000000000000000 ) );
#368 = DIRECTION( '', ( 0.000000000000000, -1.00000000000000, -0.000000000000000 ) );
#369 = DIRECTION( '', ( 0.000000000000000, 0.000000000000000, -1.00000000000000 ) );
ENDSEC;
END-ISO-10303-21;
