ISO-10303-21;
HEADER;
FILE_DESCRIPTION( ( 'STEP AP214' ), '1' );
FILE_NAME( '//goodhand-server/Shared Folders/GoodHand Data/Kipp CAD/K0493/K0493.4140X500_500.stp', '2020-12-08T10:33:36', ( '' ), ( '' ), ' ', 'PARTsolutions', ' ' );
FILE_SCHEMA( ( 'AUTOMOTIVE_DESIGN { 1 0 10303 214 1 1 1 1 }' ) );
ENDSEC;
DATA;
#1 = MECHANICAL_DESIGN_GEOMETRIC_PRESENTATION_REPRESENTATION( ' ', ( #10, #11, #12, #13, #14, #15, #16, #17, #18, #19 ), #6 );
#2 = PRODUCT_DEFINITION_CONTEXT( '', #20, 'design' );
#3 = APPLICATION_PROTOCOL_DEFINITION( 'international standard', 'automotive_design', 2001, #20 );
#4 = PRODUCT_CATEGORY_RELATIONSHIP( 'NONE', 'NONE', #21, #22 );
#5 = SHAPE_DEFINITION_REPRESENTATION( #23, #24 );
#6 =  ( GEOMETRIC_REPRESENTATION_CONTEXT( 3 )GLOBAL_UNCERTAINTY_ASSIGNED_CONTEXT( ( #27 ) )GLOBAL_UNIT_ASSIGNED_CONTEXT( ( #29, #30, #31 ) )REPRESENTATION_CONTEXT( 'NONE', 'WORKSPACE' ) );
#10 = STYLED_ITEM( '', ( #33 ), #34 );
#11 = STYLED_ITEM( '', ( #35 ), #36 );
#12 = STYLED_ITEM( '', ( #37 ), #38 );
#13 = STYLED_ITEM( '', ( #39 ), #40 );
#14 = STYLED_ITEM( '', ( #41 ), #42 );
#15 = STYLED_ITEM( '', ( #43 ), #44 );
#16 = STYLED_ITEM( '', ( #45 ), #46 );
#17 = STYLED_ITEM( '', ( #47 ), #48 );
#18 = STYLED_ITEM( '', ( #49 ), #50 );
#19 = STYLED_ITEM( '', ( #51 ), #52 );
#20 = APPLICATION_CONTEXT( 'core data for automotive mechanical design processes' );
#21 = PRODUCT_CATEGORY( 'part', 'NONE' );
#22 = PRODUCT_RELATED_PRODUCT_CATEGORY( 'detail', ' ', ( #53 ) );
#23 = PRODUCT_DEFINITION_SHAPE( 'NONE', 'NONE', #54 );
#24 = ADVANCED_BREP_SHAPE_REPRESENTATION( '_K0493.4140X500_500', ( #55, #56 ), #6 );
#27 = UNCERTAINTY_MEASURE_WITH_UNIT( LENGTH_MEASURE( 0.00100000000000000 ), #29, '', '' );
#29 =  ( CONVERSION_BASED_UNIT( 'MILLIMETRE', #59 )LENGTH_UNIT(  )NAMED_UNIT( #62 ) );
#30 =  ( NAMED_UNIT( #64 )PLANE_ANGLE_UNIT(  )SI_UNIT( $, .RADIAN. ) );
#31 =  ( NAMED_UNIT( #64 )SI_UNIT( $, .STERADIAN. )SOLID_ANGLE_UNIT(  ) );
#33 = PRESENTATION_STYLE_ASSIGNMENT( ( #70 ) );
#34 = ADVANCED_FACE( '', ( #71 ), #72, .T. );
#35 = PRESENTATION_STYLE_ASSIGNMENT( ( #73 ) );
#36 = ADVANCED_FACE( '', ( #74, #75 ), #76, .F. );
#37 = PRESENTATION_STYLE_ASSIGNMENT( ( #77 ) );
#38 = ADVANCED_FACE( '', ( #78, #79 ), #80, .T. );
#39 = PRESENTATION_STYLE_ASSIGNMENT( ( #81 ) );
#40 = ADVANCED_FACE( '', ( #82 ), #83, .F. );
#41 = PRESENTATION_STYLE_ASSIGNMENT( ( #84 ) );
#42 = ADVANCED_FACE( '', ( #85 ), #86, .T. );
#43 = PRESENTATION_STYLE_ASSIGNMENT( ( #87 ) );
#44 = ADVANCED_FACE( '', ( #88 ), #89, .T. );
#45 = PRESENTATION_STYLE_ASSIGNMENT( ( #90 ) );
#46 = ADVANCED_FACE( '', ( #91 ), #92, .F. );
#47 = PRESENTATION_STYLE_ASSIGNMENT( ( #93 ) );
#48 = ADVANCED_FACE( '', ( #94 ), #95, .F. );
#49 = PRESENTATION_STYLE_ASSIGNMENT( ( #96 ) );
#50 = ADVANCED_FACE( '', ( #97 ), #98, .T. );
#51 = PRESENTATION_STYLE_ASSIGNMENT( ( #99 ) );
#52 = ADVANCED_FACE( '', ( #100 ), #101, .F. );
#53 = PRODUCT( '_K0493.4140X500_500', '_K0493.4140X500_500', 'PART-_K0493.4140X500_500-DESC', ( #102 ) );
#54 = PRODUCT_DEFINITION( 'NONE', 'NONE', #103, #2 );
#55 = MANIFOLD_SOLID_BREP( '_K0493.4140X500_500', #104 );
#56 = AXIS2_PLACEMENT_3D( '', #105, #106, #107 );
#59 = LENGTH_MEASURE_WITH_UNIT( LENGTH_MEASURE( 1.00000000000000 ), #108 );
#62 = DIMENSIONAL_EXPONENTS( 1.00000000000000, 0.000000000000000, 0.000000000000000, 0.000000000000000, 0.000000000000000, 0.000000000000000, 0.000000000000000 );
#64 = DIMENSIONAL_EXPONENTS( 0.000000000000000, 0.000000000000000, 0.000000000000000, 0.000000000000000, 0.000000000000000, 0.000000000000000, 0.000000000000000 );
#70 = SURFACE_STYLE_USAGE( .BOTH., #109 );
#71 = FACE_OUTER_BOUND( '', #110, .T. );
#72 = PLANE( '', #111 );
#73 = SURFACE_STYLE_USAGE( .BOTH., #112 );
#74 = FACE_OUTER_BOUND( '', #113, .T. );
#75 = FACE_BOUND( '', #114, .T. );
#76 = PLANE( '', #115 );
#77 = SURFACE_STYLE_USAGE( .BOTH., #116 );
#78 = FACE_OUTER_BOUND( '', #117, .T. );
#79 = FACE_BOUND( '', #118, .T. );
#80 = PLANE( '', #119 );
#81 = SURFACE_STYLE_USAGE( .BOTH., #120 );
#82 = FACE_OUTER_BOUND( '', #121, .T. );
#83 = PLANE( '', #122 );
#84 = SURFACE_STYLE_USAGE( .BOTH., #123 );
#85 = FACE_OUTER_BOUND( '', #124, .T. );
#86 = PLANE( '', #125 );
#87 = SURFACE_STYLE_USAGE( .BOTH., #126 );
#88 = FACE_OUTER_BOUND( '', #127, .T. );
#89 = PLANE( '', #128 );
#90 = SURFACE_STYLE_USAGE( .BOTH., #129 );
#91 = FACE_OUTER_BOUND( '', #130, .T. );
#92 = PLANE( '', #131 );
#93 = SURFACE_STYLE_USAGE( .BOTH., #132 );
#94 = FACE_OUTER_BOUND( '', #133, .T. );
#95 = PLANE( '', #134 );
#96 = SURFACE_STYLE_USAGE( .BOTH., #135 );
#97 = FACE_OUTER_BOUND( '', #136, .T. );
#98 = PLANE( '', #137 );
#99 = SURFACE_STYLE_USAGE( .BOTH., #138 );
#100 = FACE_OUTER_BOUND( '', #139, .T. );
#101 = PLANE( '', #140 );
#102 = PRODUCT_CONTEXT( '', #20, 'mechanical' );
#103 = PRODUCT_DEFINITION_FORMATION_WITH_SPECIFIED_SOURCE( ' ', 'NONE', #53, .NOT_KNOWN. );
#104 = CLOSED_SHELL( '', ( #52, #46, #40, #38, #36, #48, #42, #50, #34, #44 ) );
#105 = CARTESIAN_POINT( '', ( 0.000000000000000, 0.000000000000000, 0.000000000000000 ) );
#106 = DIRECTION( '', ( 0.000000000000000, 0.000000000000000, 1.00000000000000 ) );
#107 = DIRECTION( '', ( 1.00000000000000, 0.000000000000000, 0.000000000000000 ) );
#108 =  ( LENGTH_UNIT(  )NAMED_UNIT( #62 )SI_UNIT( .MILLI., .METRE. ) );
#109 = SURFACE_SIDE_STYLE( '', ( #142 ) );
#110 = EDGE_LOOP( '', ( #143, #144, #145, #146 ) );
#111 = AXIS2_PLACEMENT_3D( '', #147, #148, #149 );
#112 = SURFACE_SIDE_STYLE( '', ( #150 ) );
#113 = EDGE_LOOP( '', ( #151, #152, #153, #154 ) );
#114 = EDGE_LOOP( '', ( #155, #156, #157, #158 ) );
#115 = AXIS2_PLACEMENT_3D( '', #159, #160, #161 );
#116 = SURFACE_SIDE_STYLE( '', ( #162 ) );
#117 = EDGE_LOOP( '', ( #163, #164, #165, #166 ) );
#118 = EDGE_LOOP( '', ( #167, #168, #169, #170 ) );
#119 = AXIS2_PLACEMENT_3D( '', #171, #172, #173 );
#120 = SURFACE_SIDE_STYLE( '', ( #174 ) );
#121 = EDGE_LOOP( '', ( #175, #176, #177, #178 ) );
#122 = AXIS2_PLACEMENT_3D( '', #179, #180, #181 );
#123 = SURFACE_SIDE_STYLE( '', ( #182 ) );
#124 = EDGE_LOOP( '', ( #183, #184, #185, #186 ) );
#125 = AXIS2_PLACEMENT_3D( '', #187, #188, #189 );
#126 = SURFACE_SIDE_STYLE( '', ( #190 ) );
#127 = EDGE_LOOP( '', ( #191, #192, #193, #194 ) );
#128 = AXIS2_PLACEMENT_3D( '', #195, #196, #197 );
#129 = SURFACE_SIDE_STYLE( '', ( #198 ) );
#130 = EDGE_LOOP( '', ( #199, #200, #201, #202 ) );
#131 = AXIS2_PLACEMENT_3D( '', #203, #204, #205 );
#132 = SURFACE_SIDE_STYLE( '', ( #206 ) );
#133 = EDGE_LOOP( '', ( #207, #208, #209, #210 ) );
#134 = AXIS2_PLACEMENT_3D( '', #211, #212, #213 );
#135 = SURFACE_SIDE_STYLE( '', ( #214 ) );
#136 = EDGE_LOOP( '', ( #215, #216, #217, #218 ) );
#137 = AXIS2_PLACEMENT_3D( '', #219, #220, #221 );
#138 = SURFACE_SIDE_STYLE( '', ( #222 ) );
#139 = EDGE_LOOP( '', ( #223, #224, #225, #226 ) );
#140 = AXIS2_PLACEMENT_3D( '', #227, #228, #229 );
#142 = SURFACE_STYLE_FILL_AREA( #230 );
#143 = ORIENTED_EDGE( '', *, *, #231, .F. );
#144 = ORIENTED_EDGE( '', *, *, #232, .F. );
#145 = ORIENTED_EDGE( '', *, *, #233, .T. );
#146 = ORIENTED_EDGE( '', *, *, #234, .T. );
#147 = CARTESIAN_POINT( '', ( 500.000000000000, -17.0000000000000, -17.0000000000000 ) );
#148 = DIRECTION( '', ( 0.000000000000000, 0.000000000000000, 1.00000000000000 ) );
#149 = DIRECTION( '', ( 1.00000000000000, 0.000000000000000, -0.000000000000000 ) );
#150 = SURFACE_STYLE_FILL_AREA( #235 );
#151 = ORIENTED_EDGE( '', *, *, #236, .F. );
#152 = ORIENTED_EDGE( '', *, *, #237, .F. );
#153 = ORIENTED_EDGE( '', *, *, #238, .F. );
#154 = ORIENTED_EDGE( '', *, *, #239, .F. );
#155 = ORIENTED_EDGE( '', *, *, #240, .T. );
#156 = ORIENTED_EDGE( '', *, *, #241, .T. );
#157 = ORIENTED_EDGE( '', *, *, #231, .T. );
#158 = ORIENTED_EDGE( '', *, *, #242, .T. );
#159 = CARTESIAN_POINT( '', ( 0.000000000000000, 0.000000000000000, 0.000000000000000 ) );
#160 = DIRECTION( '', ( 1.00000000000000, 0.000000000000000, 0.000000000000000 ) );
#161 = DIRECTION( '', ( 0.000000000000000, 0.000000000000000, -1.00000000000000 ) );
#162 = SURFACE_STYLE_FILL_AREA( #243 );
#163 = ORIENTED_EDGE( '', *, *, #244, .T. );
#164 = ORIENTED_EDGE( '', *, *, #245, .T. );
#165 = ORIENTED_EDGE( '', *, *, #246, .T. );
#166 = ORIENTED_EDGE( '', *, *, #247, .T. );
#167 = ORIENTED_EDGE( '', *, *, #248, .F. );
#168 = ORIENTED_EDGE( '', *, *, #249, .F. );
#169 = ORIENTED_EDGE( '', *, *, #250, .F. );
#170 = ORIENTED_EDGE( '', *, *, #233, .F. );
#171 = CARTESIAN_POINT( '', ( 500.000000000000, 0.000000000000000, 0.000000000000000 ) );
#172 = DIRECTION( '', ( 1.00000000000000, 0.000000000000000, 0.000000000000000 ) );
#173 = DIRECTION( '', ( 0.000000000000000, 0.000000000000000, -1.00000000000000 ) );
#174 = SURFACE_STYLE_FILL_AREA( #251 );
#175 = ORIENTED_EDGE( '', *, *, #236, .T. );
#176 = ORIENTED_EDGE( '', *, *, #252, .F. );
#177 = ORIENTED_EDGE( '', *, *, #244, .F. );
#178 = ORIENTED_EDGE( '', *, *, #253, .T. );
#179 = CARTESIAN_POINT( '', ( 500.000000000000, 20.0000000000000, 20.0000000000000 ) );
#180 = DIRECTION( '', ( 0.000000000000000, 0.000000000000000, -1.00000000000000 ) );
#181 = DIRECTION( '', ( -1.00000000000000, 0.000000000000000, 0.000000000000000 ) );
#182 = SURFACE_STYLE_FILL_AREA( #254 );
#183 = ORIENTED_EDGE( '', *, *, #240, .F. );
#184 = ORIENTED_EDGE( '', *, *, #255, .F. );
#185 = ORIENTED_EDGE( '', *, *, #249, .T. );
#186 = ORIENTED_EDGE( '', *, *, #256, .T. );
#187 = CARTESIAN_POINT( '', ( 500.000000000000, 17.0000000000000, 17.0000000000000 ) );
#188 = DIRECTION( '', ( 0.000000000000000, 0.000000000000000, -1.00000000000000 ) );
#189 = DIRECTION( '', ( -1.00000000000000, 0.000000000000000, 0.000000000000000 ) );
#190 = SURFACE_STYLE_FILL_AREA( #257 );
#191 = ORIENTED_EDGE( '', *, *, #242, .F. );
#192 = ORIENTED_EDGE( '', *, *, #234, .F. );
#193 = ORIENTED_EDGE( '', *, *, #250, .T. );
#194 = ORIENTED_EDGE( '', *, *, #255, .T. );
#195 = CARTESIAN_POINT( '', ( 500.000000000000, 17.0000000000000, -17.0000000000000 ) );
#196 = DIRECTION( '', ( 0.000000000000000, -1.00000000000000, 0.000000000000000 ) );
#197 = DIRECTION( '', ( 0.000000000000000, 0.000000000000000, -1.00000000000000 ) );
#198 = SURFACE_STYLE_FILL_AREA( #258 );
#199 = ORIENTED_EDGE( '', *, *, #238, .T. );
#200 = ORIENTED_EDGE( '', *, *, #259, .F. );
#201 = ORIENTED_EDGE( '', *, *, #246, .F. );
#202 = ORIENTED_EDGE( '', *, *, #260, .T. );
#203 = CARTESIAN_POINT( '', ( 500.000000000000, -20.0000000000000, -20.0000000000000 ) );
#204 = DIRECTION( '', ( 0.000000000000000, 0.000000000000000, 1.00000000000000 ) );
#205 = DIRECTION( '', ( 1.00000000000000, 0.000000000000000, -0.000000000000000 ) );
#206 = SURFACE_STYLE_FILL_AREA( #261 );
#207 = ORIENTED_EDGE( '', *, *, #237, .T. );
#208 = ORIENTED_EDGE( '', *, *, #253, .F. );
#209 = ORIENTED_EDGE( '', *, *, #247, .F. );
#210 = ORIENTED_EDGE( '', *, *, #259, .T. );
#211 = CARTESIAN_POINT( '', ( 500.000000000000, 20.0000000000000, -20.0000000000000 ) );
#212 = DIRECTION( '', ( 0.000000000000000, -1.00000000000000, 0.000000000000000 ) );
#213 = DIRECTION( '', ( 0.000000000000000, 0.000000000000000, -1.00000000000000 ) );
#214 = SURFACE_STYLE_FILL_AREA( #262 );
#215 = ORIENTED_EDGE( '', *, *, #241, .F. );
#216 = ORIENTED_EDGE( '', *, *, #256, .F. );
#217 = ORIENTED_EDGE( '', *, *, #248, .T. );
#218 = ORIENTED_EDGE( '', *, *, #232, .T. );
#219 = CARTESIAN_POINT( '', ( 500.000000000000, -17.0000000000000, 17.0000000000000 ) );
#220 = DIRECTION( '', ( -0.000000000000000, 1.00000000000000, 0.000000000000000 ) );
#221 = DIRECTION( '', ( 0.000000000000000, -0.000000000000000, 1.00000000000000 ) );
#222 = SURFACE_STYLE_FILL_AREA( #263 );
#223 = ORIENTED_EDGE( '', *, *, #239, .T. );
#224 = ORIENTED_EDGE( '', *, *, #260, .F. );
#225 = ORIENTED_EDGE( '', *, *, #245, .F. );
#226 = ORIENTED_EDGE( '', *, *, #252, .T. );
#227 = CARTESIAN_POINT( '', ( 500.000000000000, -20.0000000000000, 20.0000000000000 ) );
#228 = DIRECTION( '', ( -0.000000000000000, 1.00000000000000, 0.000000000000000 ) );
#229 = DIRECTION( '', ( 0.000000000000000, -0.000000000000000, 1.00000000000000 ) );
#230 = FILL_AREA_STYLE( '', ( #264 ) );
#231 = EDGE_CURVE( '', #265, #266, #267, .T. );
#232 = EDGE_CURVE( '', #268, #265, #269, .T. );
#233 = EDGE_CURVE( '', #268, #270, #271, .T. );
#234 = EDGE_CURVE( '', #270, #266, #272, .T. );
#235 = FILL_AREA_STYLE( '', ( #273 ) );
#236 = EDGE_CURVE( '', #274, #275, #276, .T. );
#237 = EDGE_CURVE( '', #277, #274, #278, .T. );
#238 = EDGE_CURVE( '', #279, #277, #280, .T. );
#239 = EDGE_CURVE( '', #275, #279, #281, .T. );
#240 = EDGE_CURVE( '', #282, #283, #284, .T. );
#241 = EDGE_CURVE( '', #283, #265, #285, .T. );
#242 = EDGE_CURVE( '', #266, #282, #286, .T. );
#243 = FILL_AREA_STYLE( '', ( #287 ) );
#244 = EDGE_CURVE( '', #288, #289, #290, .T. );
#245 = EDGE_CURVE( '', #289, #291, #292, .T. );
#246 = EDGE_CURVE( '', #291, #293, #294, .T. );
#247 = EDGE_CURVE( '', #293, #288, #295, .T. );
#248 = EDGE_CURVE( '', #296, #268, #297, .T. );
#249 = EDGE_CURVE( '', #298, #296, #299, .T. );
#250 = EDGE_CURVE( '', #270, #298, #300, .T. );
#251 = FILL_AREA_STYLE( '', ( #301 ) );
#252 = EDGE_CURVE( '', #289, #275, #302, .T. );
#253 = EDGE_CURVE( '', #288, #274, #303, .T. );
#254 = FILL_AREA_STYLE( '', ( #304 ) );
#255 = EDGE_CURVE( '', #298, #282, #305, .T. );
#256 = EDGE_CURVE( '', #296, #283, #306, .T. );
#257 = FILL_AREA_STYLE( '', ( #307 ) );
#258 = FILL_AREA_STYLE( '', ( #308 ) );
#259 = EDGE_CURVE( '', #293, #277, #309, .T. );
#260 = EDGE_CURVE( '', #291, #279, #310, .T. );
#261 = FILL_AREA_STYLE( '', ( #311 ) );
#262 = FILL_AREA_STYLE( '', ( #312 ) );
#263 = FILL_AREA_STYLE( '', ( #313 ) );
#264 = FILL_AREA_STYLE_COLOUR( '', #314 );
#265 = VERTEX_POINT( '', #315 );
#266 = VERTEX_POINT( '', #316 );
#267 = LINE( '', #317, #318 );
#268 = VERTEX_POINT( '', #319 );
#269 = LINE( '', #320, #321 );
#270 = VERTEX_POINT( '', #322 );
#271 = LINE( '', #323, #324 );
#272 = LINE( '', #325, #326 );
#273 = FILL_AREA_STYLE_COLOUR( '', #327 );
#274 = VERTEX_POINT( '', #328 );
#275 = VERTEX_POINT( '', #329 );
#276 = LINE( '', #330, #331 );
#277 = VERTEX_POINT( '', #332 );
#278 = LINE( '', #333, #334 );
#279 = VERTEX_POINT( '', #335 );
#280 = LINE( '', #336, #337 );
#281 = LINE( '', #338, #339 );
#282 = VERTEX_POINT( '', #340 );
#283 = VERTEX_POINT( '', #341 );
#284 = LINE( '', #342, #343 );
#285 = LINE( '', #344, #345 );
#286 = LINE( '', #346, #347 );
#287 = FILL_AREA_STYLE_COLOUR( '', #348 );
#288 = VERTEX_POINT( '', #349 );
#289 = VERTEX_POINT( '', #350 );
#290 = LINE( '', #351, #352 );
#291 = VERTEX_POINT( '', #353 );
#292 = LINE( '', #354, #355 );
#293 = VERTEX_POINT( '', #356 );
#294 = LINE( '', #357, #358 );
#295 = LINE( '', #359, #360 );
#296 = VERTEX_POINT( '', #361 );
#297 = LINE( '', #362, #363 );
#298 = VERTEX_POINT( '', #364 );
#299 = LINE( '', #365, #366 );
#300 = LINE( '', #367, #368 );
#301 = FILL_AREA_STYLE_COLOUR( '', #369 );
#302 = LINE( '', #370, #371 );
#303 = LINE( '', #372, #373 );
#304 = FILL_AREA_STYLE_COLOUR( '', #374 );
#305 = LINE( '', #375, #376 );
#306 = LINE( '', #377, #378 );
#307 = FILL_AREA_STYLE_COLOUR( '', #379 );
#308 = FILL_AREA_STYLE_COLOUR( '', #380 );
#309 = LINE( '', #381, #382 );
#310 = LINE( '', #383, #384 );
#311 = FILL_AREA_STYLE_COLOUR( '', #385 );
#312 = FILL_AREA_STYLE_COLOUR( '', #386 );
#313 = FILL_AREA_STYLE_COLOUR( '', #387 );
#314 = COLOUR_RGB( '', 0.689999997600000, 0.689999997600000, 0.689999997600000 );
#315 = CARTESIAN_POINT( '', ( 0.000000000000000, -17.0000000000000, -17.0000000000000 ) );
#316 = CARTESIAN_POINT( '', ( 0.000000000000000, 17.0000000000000, -17.0000000000000 ) );
#317 = CARTESIAN_POINT( '', ( 0.000000000000000, -17.0000000000000, -17.0000000000000 ) );
#318 = VECTOR( '', #388, 1000.00000000000 );
#319 = CARTESIAN_POINT( '', ( 500.000000000000, -17.0000000000000, -17.0000000000000 ) );
#320 = CARTESIAN_POINT( '', ( 500.000000000000, -17.0000000000000, -17.0000000000000 ) );
#321 = VECTOR( '', #389, 1000.00000000000 );
#322 = CARTESIAN_POINT( '', ( 500.000000000000, 17.0000000000000, -17.0000000000000 ) );
#323 = CARTESIAN_POINT( '', ( 500.000000000000, -17.0000000000000, -17.0000000000000 ) );
#324 = VECTOR( '', #390, 1000.00000000000 );
#325 = CARTESIAN_POINT( '', ( 500.000000000000, 17.0000000000000, -17.0000000000000 ) );
#326 = VECTOR( '', #391, 1000.00000000000 );
#327 = COLOUR_RGB( '', 0.689999997600000, 0.689999997600000, 0.689999997600000 );
#328 = CARTESIAN_POINT( '', ( 0.000000000000000, 20.0000000000000, 20.0000000000000 ) );
#329 = CARTESIAN_POINT( '', ( 0.000000000000000, -20.0000000000000, 20.0000000000000 ) );
#330 = CARTESIAN_POINT( '', ( 0.000000000000000, 20.0000000000000, 20.0000000000000 ) );
#331 = VECTOR( '', #392, 1000.00000000000 );
#332 = CARTESIAN_POINT( '', ( 0.000000000000000, 20.0000000000000, -20.0000000000000 ) );
#333 = CARTESIAN_POINT( '', ( 0.000000000000000, 20.0000000000000, -20.0000000000000 ) );
#334 = VECTOR( '', #393, 1000.00000000000 );
#335 = CARTESIAN_POINT( '', ( 0.000000000000000, -20.0000000000000, -20.0000000000000 ) );
#336 = CARTESIAN_POINT( '', ( 0.000000000000000, -20.0000000000000, -20.0000000000000 ) );
#337 = VECTOR( '', #394, 1000.00000000000 );
#338 = CARTESIAN_POINT( '', ( 0.000000000000000, -20.0000000000000, 20.0000000000000 ) );
#339 = VECTOR( '', #395, 1000.00000000000 );
#340 = CARTESIAN_POINT( '', ( 0.000000000000000, 17.0000000000000, 17.0000000000000 ) );
#341 = CARTESIAN_POINT( '', ( 0.000000000000000, -17.0000000000000, 17.0000000000000 ) );
#342 = CARTESIAN_POINT( '', ( 0.000000000000000, 17.0000000000000, 17.0000000000000 ) );
#343 = VECTOR( '', #396, 1000.00000000000 );
#344 = CARTESIAN_POINT( '', ( 0.000000000000000, -17.0000000000000, 17.0000000000000 ) );
#345 = VECTOR( '', #397, 1000.00000000000 );
#346 = CARTESIAN_POINT( '', ( 0.000000000000000, 17.0000000000000, -17.0000000000000 ) );
#347 = VECTOR( '', #398, 1000.00000000000 );
#348 = COLOUR_RGB( '', 0.689999997600000, 0.689999997600000, 0.689999997600000 );
#349 = CARTESIAN_POINT( '', ( 500.000000000000, 20.0000000000000, 20.0000000000000 ) );
#350 = CARTESIAN_POINT( '', ( 500.000000000000, -20.0000000000000, 20.0000000000000 ) );
#351 = CARTESIAN_POINT( '', ( 500.000000000000, 20.0000000000000, 20.0000000000000 ) );
#352 = VECTOR( '', #399, 1000.00000000000 );
#353 = CARTESIAN_POINT( '', ( 500.000000000000, -20.0000000000000, -20.0000000000000 ) );
#354 = CARTESIAN_POINT( '', ( 500.000000000000, -20.0000000000000, 20.0000000000000 ) );
#355 = VECTOR( '', #400, 1000.00000000000 );
#356 = CARTESIAN_POINT( '', ( 500.000000000000, 20.0000000000000, -20.0000000000000 ) );
#357 = CARTESIAN_POINT( '', ( 500.000000000000, -20.0000000000000, -20.0000000000000 ) );
#358 = VECTOR( '', #401, 1000.00000000000 );
#359 = CARTESIAN_POINT( '', ( 500.000000000000, 20.0000000000000, -20.0000000000000 ) );
#360 = VECTOR( '', #402, 1000.00000000000 );
#361 = CARTESIAN_POINT( '', ( 500.000000000000, -17.0000000000000, 17.0000000000000 ) );
#362 = CARTESIAN_POINT( '', ( 500.000000000000, -17.0000000000000, 17.0000000000000 ) );
#363 = VECTOR( '', #403, 1000.00000000000 );
#364 = CARTESIAN_POINT( '', ( 500.000000000000, 17.0000000000000, 17.0000000000000 ) );
#365 = CARTESIAN_POINT( '', ( 500.000000000000, 17.0000000000000, 17.0000000000000 ) );
#366 = VECTOR( '', #404, 1000.00000000000 );
#367 = CARTESIAN_POINT( '', ( 500.000000000000, 17.0000000000000, -17.0000000000000 ) );
#368 = VECTOR( '', #405, 1000.00000000000 );
#369 = COLOUR_RGB( '', 0.689999997600000, 0.689999997600000, 0.689999997600000 );
#370 = CARTESIAN_POINT( '', ( 500.000000000000, -20.0000000000000, 20.0000000000000 ) );
#371 = VECTOR( '', #406, 1000.00000000000 );
#372 = CARTESIAN_POINT( '', ( 500.000000000000, 20.0000000000000, 20.0000000000000 ) );
#373 = VECTOR( '', #407, 1000.00000000000 );
#374 = COLOUR_RGB( '', 0.689999997600000, 0.689999997600000, 0.689999997600000 );
#375 = CARTESIAN_POINT( '', ( 500.000000000000, 17.0000000000000, 17.0000000000000 ) );
#376 = VECTOR( '', #408, 1000.00000000000 );
#377 = CARTESIAN_POINT( '', ( 500.000000000000, -17.0000000000000, 17.0000000000000 ) );
#378 = VECTOR( '', #409, 1000.00000000000 );
#379 = COLOUR_RGB( '', 0.689999997600000, 0.689999997600000, 0.689999997600000 );
#380 = COLOUR_RGB( '', 0.689999997600000, 0.689999997600000, 0.689999997600000 );
#381 = CARTESIAN_POINT( '', ( 500.000000000000, 20.0000000000000, -20.0000000000000 ) );
#382 = VECTOR( '', #410, 1000.00000000000 );
#383 = CARTESIAN_POINT( '', ( 500.000000000000, -20.0000000000000, -20.0000000000000 ) );
#384 = VECTOR( '', #411, 1000.00000000000 );
#385 = COLOUR_RGB( '', 0.689999997600000, 0.689999997600000, 0.689999997600000 );
#386 = COLOUR_RGB( '', 0.689999997600000, 0.689999997600000, 0.689999997600000 );
#387 = COLOUR_RGB( '', 0.689999997600000, 0.689999997600000, 0.689999997600000 );
#388 = DIRECTION( '', ( 0.000000000000000, 1.00000000000000, 0.000000000000000 ) );
#389 = DIRECTION( '', ( -1.00000000000000, -0.000000000000000, -0.000000000000000 ) );
#390 = DIRECTION( '', ( 0.000000000000000, 1.00000000000000, 0.000000000000000 ) );
#391 = DIRECTION( '', ( -1.00000000000000, -0.000000000000000, -0.000000000000000 ) );
#392 = DIRECTION( '', ( 0.000000000000000, -1.00000000000000, 0.000000000000000 ) );
#393 = DIRECTION( '', ( 0.000000000000000, 0.000000000000000, 1.00000000000000 ) );
#394 = DIRECTION( '', ( 0.000000000000000, 1.00000000000000, 0.000000000000000 ) );
#395 = DIRECTION( '', ( 0.000000000000000, 0.000000000000000, -1.00000000000000 ) );
#396 = DIRECTION( '', ( 0.000000000000000, -1.00000000000000, 0.000000000000000 ) );
#397 = DIRECTION( '', ( 0.000000000000000, 0.000000000000000, -1.00000000000000 ) );
#398 = DIRECTION( '', ( 0.000000000000000, 0.000000000000000, 1.00000000000000 ) );
#399 = DIRECTION( '', ( 0.000000000000000, -1.00000000000000, 0.000000000000000 ) );
#400 = DIRECTION( '', ( 0.000000000000000, 0.000000000000000, -1.00000000000000 ) );
#401 = DIRECTION( '', ( 0.000000000000000, 1.00000000000000, 0.000000000000000 ) );
#402 = DIRECTION( '', ( 0.000000000000000, 0.000000000000000, 1.00000000000000 ) );
#403 = DIRECTION( '', ( 0.000000000000000, 0.000000000000000, -1.00000000000000 ) );
#404 = DIRECTION( '', ( 0.000000000000000, -1.00000000000000, 0.000000000000000 ) );
#405 = DIRECTION( '', ( 0.000000000000000, 0.000000000000000, 1.00000000000000 ) );
#406 = DIRECTION( '', ( -1.00000000000000, -0.000000000000000, -0.000000000000000 ) );
#407 = DIRECTION( '', ( -1.00000000000000, -0.000000000000000, -0.000000000000000 ) );
#408 = DIRECTION( '', ( -1.00000000000000, -0.000000000000000, -0.000000000000000 ) );
#409 = DIRECTION( '', ( -1.00000000000000, -0.000000000000000, -0.000000000000000 ) );
#410 = DIRECTION( '', ( -1.00000000000000, -0.000000000000000, -0.000000000000000 ) );
#411 = DIRECTION( '', ( -1.00000000000000, -0.000000000000000, -0.000000000000000 ) );
ENDSEC;
END-ISO-10303-21;
