ISO-10303-21;
HEADER;
FILE_DESCRIPTION( ( 'STEP AP214' ), '1' );
FILE_NAME( '//goodhand-server/Shared Folders/GoodHand Data/Kipp CAD/K0390/K0390.20X150.stp', '2020-12-07T10:15:13', ( '' ), ( '' ), ' ', 'PARTsolutions', ' ' );
FILE_SCHEMA( ( 'AUTOMOTIVE_DESIGN { 1 0 10303 214 1 1 1 1 }' ) );
ENDSEC;
DATA;
#1 = MECHANICAL_DESIGN_GEOMETRIC_PRESENTATION_REPRESENTATION( ' ', ( #10, #11, #12, #13, #14, #15, #16, #17, #18, #19, #20, #21, #22 ), #6 );
#2 = PRODUCT_DEFINITION_CONTEXT( '', #23, 'design' );
#3 = APPLICATION_PROTOCOL_DEFINITION( 'international standard', 'automotive_design', 2001, #23 );
#4 = PRODUCT_CATEGORY_RELATIONSHIP( 'NONE', 'NONE', #24, #25 );
#5 = SHAPE_DEFINITION_REPRESENTATION( #26, #27 );
#6 =  ( GEOMETRIC_REPRESENTATION_CONTEXT( 3 )GLOBAL_UNCERTAINTY_ASSIGNED_CONTEXT( ( #30 ) )GLOBAL_UNIT_ASSIGNED_CONTEXT( ( #32, #33, #34 ) )REPRESENTATION_CONTEXT( 'NONE', 'WORKSPACE' ) );
#10 = STYLED_ITEM( '', ( #36 ), #37 );
#11 = STYLED_ITEM( '', ( #38 ), #39 );
#12 = STYLED_ITEM( '', ( #40 ), #41 );
#13 = STYLED_ITEM( '', ( #42 ), #43 );
#14 = STYLED_ITEM( '', ( #44 ), #45 );
#15 = STYLED_ITEM( '', ( #46 ), #47 );
#16 = STYLED_ITEM( '', ( #48 ), #49 );
#17 = STYLED_ITEM( '', ( #50 ), #51 );
#18 = STYLED_ITEM( '', ( #52 ), #53 );
#19 = STYLED_ITEM( '', ( #54 ), #55 );
#20 = STYLED_ITEM( '', ( #56 ), #57 );
#21 = STYLED_ITEM( '', ( #58 ), #59 );
#22 = STYLED_ITEM( '', ( #60 ), #61 );
#23 = APPLICATION_CONTEXT( 'core data for automotive mechanical design processes' );
#24 = PRODUCT_CATEGORY( 'part', 'NONE' );
#25 = PRODUCT_RELATED_PRODUCT_CATEGORY( 'detail', ' ', ( #62 ) );
#26 = PRODUCT_DEFINITION_SHAPE( 'NONE', 'NONE', #63 );
#27 = ADVANCED_BREP_SHAPE_REPRESENTATION( '_K0390.20X150', ( #64, #65 ), #6 );
#30 = UNCERTAINTY_MEASURE_WITH_UNIT( LENGTH_MEASURE( 0.00100000000000000 ), #32, '', '' );
#32 =  ( CONVERSION_BASED_UNIT( 'MILLIMETRE', #68 )LENGTH_UNIT(  )NAMED_UNIT( #71 ) );
#33 =  ( NAMED_UNIT( #73 )PLANE_ANGLE_UNIT(  )SI_UNIT( $, .RADIAN. ) );
#34 =  ( NAMED_UNIT( #73 )SI_UNIT( $, .STERADIAN. )SOLID_ANGLE_UNIT(  ) );
#36 = PRESENTATION_STYLE_ASSIGNMENT( ( #79 ) );
#37 = ADVANCED_FACE( '', ( #80, #81 ), #82, .F. );
#38 = PRESENTATION_STYLE_ASSIGNMENT( ( #83 ) );
#39 = ADVANCED_FACE( '', ( #84 ), #85, .F. );
#40 = PRESENTATION_STYLE_ASSIGNMENT( ( #86 ) );
#41 = ADVANCED_FACE( '', ( #87, #88 ), #89, .T. );
#42 = PRESENTATION_STYLE_ASSIGNMENT( ( #90 ) );
#43 = ADVANCED_FACE( '', ( #91 ), #92, .F. );
#44 = PRESENTATION_STYLE_ASSIGNMENT( ( #93 ) );
#45 = ADVANCED_FACE( '', ( #94, #95 ), #96, .T. );
#46 = PRESENTATION_STYLE_ASSIGNMENT( ( #97 ) );
#47 = ADVANCED_FACE( '', ( #98 ), #99, .T. );
#48 = PRESENTATION_STYLE_ASSIGNMENT( ( #100 ) );
#49 = ADVANCED_FACE( '', ( #101, #102 ), #103, .T. );
#50 = PRESENTATION_STYLE_ASSIGNMENT( ( #104 ) );
#51 = ADVANCED_FACE( '', ( #105 ), #106, .T. );
#52 = PRESENTATION_STYLE_ASSIGNMENT( ( #107 ) );
#53 = ADVANCED_FACE( '', ( #108 ), #109, .F. );
#54 = PRESENTATION_STYLE_ASSIGNMENT( ( #110 ) );
#55 = ADVANCED_FACE( '', ( #111, #112 ), #113, .T. );
#56 = PRESENTATION_STYLE_ASSIGNMENT( ( #114 ) );
#57 = ADVANCED_FACE( '', ( #115, #116 ), #117, .T. );
#58 = PRESENTATION_STYLE_ASSIGNMENT( ( #118 ) );
#59 = ADVANCED_FACE( '', ( #119 ), #120, .F. );
#60 = PRESENTATION_STYLE_ASSIGNMENT( ( #121 ) );
#61 = ADVANCED_FACE( '', ( #122 ), #123, .T. );
#62 = PRODUCT( '_K0390.20X150', '_K0390.20X150', 'PART-_K0390.20X150-DESC', ( #124 ) );
#63 = PRODUCT_DEFINITION( 'NONE', 'NONE', #125, #2 );
#64 = MANIFOLD_SOLID_BREP( '_K0390.20X150', #126 );
#65 = AXIS2_PLACEMENT_3D( '', #127, #128, #129 );
#68 = LENGTH_MEASURE_WITH_UNIT( LENGTH_MEASURE( 1.00000000000000 ), #130 );
#71 = DIMENSIONAL_EXPONENTS( 1.00000000000000, 0.000000000000000, 0.000000000000000, 0.000000000000000, 0.000000000000000, 0.000000000000000, 0.000000000000000 );
#73 = DIMENSIONAL_EXPONENTS( 0.000000000000000, 0.000000000000000, 0.000000000000000, 0.000000000000000, 0.000000000000000, 0.000000000000000, 0.000000000000000 );
#79 = SURFACE_STYLE_USAGE( .BOTH., #131 );
#80 = FACE_OUTER_BOUND( '', #132, .T. );
#81 = FACE_BOUND( '', #133, .T. );
#82 = PLANE( '', #134 );
#83 = SURFACE_STYLE_USAGE( .BOTH., #135 );
#84 = FACE_OUTER_BOUND( '', #136, .T. );
#85 = PLANE( '', #137 );
#86 = SURFACE_STYLE_USAGE( .BOTH., #138 );
#87 = FACE_BOUND( '', #139, .T. );
#88 = FACE_OUTER_BOUND( '', #140, .T. );
#89 = SPHERICAL_SURFACE( '', #141, 12.9998500000000 );
#90 = SURFACE_STYLE_USAGE( .BOTH., #142 );
#91 = FACE_OUTER_BOUND( '', #143, .T. );
#92 = PLANE( '', #144 );
#93 = SURFACE_STYLE_USAGE( .BOTH., #145 );
#94 = FACE_BOUND( '', #146, .T. );
#95 = FACE_OUTER_BOUND( '', #147, .T. );
#96 = CONICAL_SURFACE( '', #148, 10.0000000000000, 1.12234211560000 );
#97 = SURFACE_STYLE_USAGE( .BOTH., #149 );
#98 = FACE_OUTER_BOUND( '', #150, .T. );
#99 = PLANE( '', #151 );
#100 = SURFACE_STYLE_USAGE( .BOTH., #152 );
#101 = FACE_OUTER_BOUND( '', #153, .T. );
#102 = FACE_OUTER_BOUND( '', #154, .T. );
#103 = CYLINDRICAL_SURFACE( '', #155, 7.75000000000000 );
#104 = SURFACE_STYLE_USAGE( .BOTH., #156 );
#105 = FACE_OUTER_BOUND( '', #157, .T. );
#106 = CONICAL_SURFACE( '', #158, 8.46650000000000, 0.785398163400000 );
#107 = SURFACE_STYLE_USAGE( .BOTH., #159 );
#108 = FACE_OUTER_BOUND( '', #160, .T. );
#109 = PLANE( '', #161 );
#110 = SURFACE_STYLE_USAGE( .BOTH., #162 );
#111 = FACE_OUTER_BOUND( '', #163, .T. );
#112 = FACE_OUTER_BOUND( '', #164, .T. );
#113 = CYLINDRICAL_SURFACE( '', #165, 7.20000000000000 );
#114 = SURFACE_STYLE_USAGE( .BOTH., #166 );
#115 = FACE_OUTER_BOUND( '', #167, .T. );
#116 = FACE_OUTER_BOUND( '', #168, .T. );
#117 = CYLINDRICAL_SURFACE( '', #169, 10.0000000000000 );
#118 = SURFACE_STYLE_USAGE( .BOTH., #170 );
#119 = FACE_OUTER_BOUND( '', #171, .T. );
#120 = PLANE( '', #172 );
#121 = SURFACE_STYLE_USAGE( .BOTH., #173 );
#122 = FACE_OUTER_BOUND( '', #174, .T. );
#123 = CONICAL_SURFACE( '', #175, 8.46650000000000, 0.785398163400000 );
#124 = PRODUCT_CONTEXT( '', #23, 'mechanical' );
#125 = PRODUCT_DEFINITION_FORMATION_WITH_SPECIFIED_SOURCE( ' ', 'NONE', #62, .NOT_KNOWN. );
#126 = CLOSED_SHELL( '', ( #43, #53, #41, #49, #37, #55, #45, #57, #61, #59, #51, #39, #47 ) );
#127 = CARTESIAN_POINT( '', ( 0.000000000000000, 0.000000000000000, 0.000000000000000 ) );
#128 = DIRECTION( '', ( 0.000000000000000, 0.000000000000000, 1.00000000000000 ) );
#129 = DIRECTION( '', ( 1.00000000000000, 0.000000000000000, 0.000000000000000 ) );
#130 =  ( LENGTH_UNIT(  )NAMED_UNIT( #71 )SI_UNIT( .MILLI., .METRE. ) );
#131 = SURFACE_SIDE_STYLE( '', ( #177 ) );
#132 = EDGE_LOOP( '', ( #178 ) );
#133 = EDGE_LOOP( '', ( #179 ) );
#134 = AXIS2_PLACEMENT_3D( '', #180, #181, #182 );
#135 = SURFACE_SIDE_STYLE( '', ( #183 ) );
#136 = EDGE_LOOP( '', ( #184, #185 ) );
#137 = AXIS2_PLACEMENT_3D( '', #186, #187, #188 );
#138 = SURFACE_SIDE_STYLE( '', ( #189 ) );
#139 = VERTEX_LOOP( '', #190 );
#140 = EDGE_LOOP( '', ( #191 ) );
#141 = AXIS2_PLACEMENT_3D( '', #192, #193, #194 );
#142 = SURFACE_SIDE_STYLE( '', ( #195 ) );
#143 = EDGE_LOOP( '', ( #196, #197, #198, #199, #200, #201 ) );
#144 = AXIS2_PLACEMENT_3D( '', #202, #203, #204 );
#145 = SURFACE_SIDE_STYLE( '', ( #205 ) );
#146 = EDGE_LOOP( '', ( #206 ) );
#147 = EDGE_LOOP( '', ( #207 ) );
#148 = AXIS2_PLACEMENT_3D( '', #208, #209, #210 );
#149 = SURFACE_SIDE_STYLE( '', ( #211 ) );
#150 = EDGE_LOOP( '', ( #212, #213, #214, #215 ) );
#151 = AXIS2_PLACEMENT_3D( '', #216, #217, #218 );
#152 = SURFACE_SIDE_STYLE( '', ( #219 ) );
#153 = EDGE_LOOP( '', ( #220 ) );
#154 = EDGE_LOOP( '', ( #221 ) );
#155 = AXIS2_PLACEMENT_3D( '', #222, #223, #224 );
#156 = SURFACE_SIDE_STYLE( '', ( #225 ) );
#157 = EDGE_LOOP( '', ( #226, #227, #228, #229 ) );
#158 = AXIS2_PLACEMENT_3D( '', #230, #231, #232 );
#159 = SURFACE_SIDE_STYLE( '', ( #233 ) );
#160 = EDGE_LOOP( '', ( #234, #235, #236, #237, #238, #239 ) );
#161 = AXIS2_PLACEMENT_3D( '', #240, #241, #242 );
#162 = SURFACE_SIDE_STYLE( '', ( #243 ) );
#163 = EDGE_LOOP( '', ( #244 ) );
#164 = EDGE_LOOP( '', ( #245 ) );
#165 = AXIS2_PLACEMENT_3D( '', #246, #247, #248 );
#166 = SURFACE_SIDE_STYLE( '', ( #249 ) );
#167 = EDGE_LOOP( '', ( #250 ) );
#168 = EDGE_LOOP( '', ( #251, #252, #253, #254, #255, #256, #257, #258 ) );
#169 = AXIS2_PLACEMENT_3D( '', #259, #260, #261 );
#170 = SURFACE_SIDE_STYLE( '', ( #262 ) );
#171 = EDGE_LOOP( '', ( #263, #264 ) );
#172 = AXIS2_PLACEMENT_3D( '', #265, #266, #267 );
#173 = SURFACE_SIDE_STYLE( '', ( #268 ) );
#174 = EDGE_LOOP( '', ( #269, #270, #271, #272 ) );
#175 = AXIS2_PLACEMENT_3D( '', #273, #274, #275 );
#177 = SURFACE_STYLE_FILL_AREA( #276 );
#178 = ORIENTED_EDGE( '', *, *, #277, .F. );
#179 = ORIENTED_EDGE( '', *, *, #278, .T. );
#180 = CARTESIAN_POINT( '', ( 144.500000000000, 7.20000000000001, 0.000000000000000 ) );
#181 = DIRECTION( '', ( 1.00000000000000, -6.12323399573677E-17, -0.000000000000000 ) );
#182 = DIRECTION( '', ( 6.12323399573677E-17, 1.00000000000000, 0.000000000000000 ) );
#183 = SURFACE_STYLE_FILL_AREA( #279 );
#184 = ORIENTED_EDGE( '', *, *, #280, .F. );
#185 = ORIENTED_EDGE( '', *, *, #281, .F. );
#186 = CARTESIAN_POINT( '', ( -2.59211803124527E-16, 1.80666351906064E-14, 0.000000000000000 ) );
#187 = DIRECTION( '', ( 1.00000000000000, -6.12323399573677E-17, -0.000000000000000 ) );
#188 = DIRECTION( '', ( 6.12323399573677E-17, 1.00000000000000, 0.000000000000000 ) );
#189 = SURFACE_STYLE_FILL_AREA( #282 );
#190 = VERTEX_POINT( '', #283 );
#191 = ORIENTED_EDGE( '', *, *, #284, .T. );
#192 = CARTESIAN_POINT( '', ( 137.000150000000, -1.04950770296597E-13, 0.000000000000000 ) );
#193 = DIRECTION( '', ( 1.00000000000000, 0.000000000000000, 0.000000000000000 ) );
#194 = DIRECTION( '', ( 0.000000000000000, 1.00000000000000, 0.000000000000000 ) );
#195 = SURFACE_STYLE_FILL_AREA( #285 );
#196 = ORIENTED_EDGE( '', *, *, #286, .F. );
#197 = ORIENTED_EDGE( '', *, *, #281, .T. );
#198 = ORIENTED_EDGE( '', *, *, #287, .F. );
#199 = ORIENTED_EDGE( '', *, *, #288, .F. );
#200 = ORIENTED_EDGE( '', *, *, #289, .F. );
#201 = ORIENTED_EDGE( '', *, *, #290, .F. );
#202 = CARTESIAN_POINT( '', ( 3.00000000000000, 0.900000000000018, 10.5000000000000 ) );
#203 = DIRECTION( '', ( 0.000000000000000, 1.00000000000000, 0.000000000000000 ) );
#204 = DIRECTION( '', ( 0.000000000000000, -0.000000000000000, 1.00000000000000 ) );
#205 = SURFACE_STYLE_FILL_AREA( #291 );
#206 = ORIENTED_EDGE( '', *, *, #292, .F. );
#207 = ORIENTED_EDGE( '', *, *, #293, .T. );
#208 = CARTESIAN_POINT( '', ( 136.000000000000, 9.73903695640440E-15, 0.000000000000000 ) );
#209 = DIRECTION( '', ( -1.00000000000000, 6.12323399573677E-17, -0.000000000000000 ) );
#210 = DIRECTION( '', ( -6.12323399573677E-17, -1.00000000000000, 0.000000000000000 ) );
#211 = SURFACE_STYLE_FILL_AREA( #294 );
#212 = ORIENTED_EDGE( '', *, *, #295, .T. );
#213 = ORIENTED_EDGE( '', *, *, #296, .T. );
#214 = ORIENTED_EDGE( '', *, *, #297, .T. );
#215 = ORIENTED_EDGE( '', *, *, #289, .T. );
#216 = CARTESIAN_POINT( '', ( 3.00000000000000, 0.000000000000000, 0.000000000000000 ) );
#217 = DIRECTION( '', ( -1.00000000000000, 0.000000000000000, 0.000000000000000 ) );
#218 = DIRECTION( '', ( 0.000000000000000, 0.000000000000000, 1.00000000000000 ) );
#219 = SURFACE_STYLE_FILL_AREA( #298 );
#220 = ORIENTED_EDGE( '', *, *, #284, .F. );
#221 = ORIENTED_EDGE( '', *, *, #277, .T. );
#222 = CARTESIAN_POINT( '', ( 150.000000000000, 8.88178419700125E-15, 0.000000000000000 ) );
#223 = DIRECTION( '', ( -1.00000000000000, 6.12323399573677E-17, 0.000000000000000 ) );
#224 = DIRECTION( '', ( 6.12323399573677E-17, 1.00000000000000, 0.000000000000000 ) );
#225 = SURFACE_STYLE_FILL_AREA( #299 );
#226 = ORIENTED_EDGE( '', *, *, #300, .F. );
#227 = ORIENTED_EDGE( '', *, *, #301, .T. );
#228 = ORIENTED_EDGE( '', *, *, #302, .T. );
#229 = ORIENTED_EDGE( '', *, *, #303, .T. );
#230 = CARTESIAN_POINT( '', ( 0.000000000000000, 1.80666351906064E-14, 0.000000000000000 ) );
#231 = DIRECTION( '', ( 1.00000000000000, -6.12323399573677E-17, -0.000000000000000 ) );
#232 = DIRECTION( '', ( 6.12323399573677E-17, 1.00000000000000, 0.000000000000000 ) );
#233 = SURFACE_STYLE_FILL_AREA( #304 );
#234 = ORIENTED_EDGE( '', *, *, #305, .T. );
#235 = ORIENTED_EDGE( '', *, *, #301, .F. );
#236 = ORIENTED_EDGE( '', *, *, #306, .F. );
#237 = ORIENTED_EDGE( '', *, *, #296, .F. );
#238 = ORIENTED_EDGE( '', *, *, #307, .F. );
#239 = ORIENTED_EDGE( '', *, *, #303, .F. );
#240 = CARTESIAN_POINT( '', ( 3.00000000000000, -0.899999999999982, -10.5000000000000 ) );
#241 = DIRECTION( '', ( 0.000000000000000, -1.00000000000000, 0.000000000000000 ) );
#242 = DIRECTION( '', ( 0.000000000000000, 0.000000000000000, -1.00000000000000 ) );
#243 = SURFACE_STYLE_FILL_AREA( #308 );
#244 = ORIENTED_EDGE( '', *, *, #278, .F. );
#245 = ORIENTED_EDGE( '', *, *, #292, .T. );
#246 = CARTESIAN_POINT( '', ( 150.000000000000, 8.88178419700125E-15, 0.000000000000000 ) );
#247 = DIRECTION( '', ( -1.00000000000000, 6.12323399573676E-17, 0.000000000000000 ) );
#248 = DIRECTION( '', ( 6.12323399573676E-17, 1.00000000000000, 0.000000000000000 ) );
#249 = SURFACE_STYLE_FILL_AREA( #309 );
#250 = ORIENTED_EDGE( '', *, *, #293, .F. );
#251 = ORIENTED_EDGE( '', *, *, #300, .T. );
#252 = ORIENTED_EDGE( '', *, *, #307, .T. );
#253 = ORIENTED_EDGE( '', *, *, #295, .F. );
#254 = ORIENTED_EDGE( '', *, *, #288, .T. );
#255 = ORIENTED_EDGE( '', *, *, #310, .T. );
#256 = ORIENTED_EDGE( '', *, *, #290, .T. );
#257 = ORIENTED_EDGE( '', *, *, #297, .F. );
#258 = ORIENTED_EDGE( '', *, *, #306, .T. );
#259 = CARTESIAN_POINT( '', ( 150.000000000000, 8.88178419700125E-15, 0.000000000000000 ) );
#260 = DIRECTION( '', ( -1.00000000000000, 6.12323399573677E-17, 0.000000000000000 ) );
#261 = DIRECTION( '', ( 6.12323399573677E-17, 1.00000000000000, 0.000000000000000 ) );
#262 = SURFACE_STYLE_FILL_AREA( #311 );
#263 = ORIENTED_EDGE( '', *, *, #302, .F. );
#264 = ORIENTED_EDGE( '', *, *, #305, .F. );
#265 = CARTESIAN_POINT( '', ( -2.59211803124527E-16, 1.80666351906064E-14, 0.000000000000000 ) );
#266 = DIRECTION( '', ( 1.00000000000000, -6.12323399573677E-17, -0.000000000000000 ) );
#267 = DIRECTION( '', ( 6.12323399573677E-17, 1.00000000000000, 0.000000000000000 ) );
#268 = SURFACE_STYLE_FILL_AREA( #312 );
#269 = ORIENTED_EDGE( '', *, *, #280, .T. );
#270 = ORIENTED_EDGE( '', *, *, #286, .T. );
#271 = ORIENTED_EDGE( '', *, *, #310, .F. );
#272 = ORIENTED_EDGE( '', *, *, #287, .T. );
#273 = CARTESIAN_POINT( '', ( 0.000000000000000, 1.80666351906064E-14, 0.000000000000000 ) );
#274 = DIRECTION( '', ( 1.00000000000000, -6.12323399573677E-17, -0.000000000000000 ) );
#275 = DIRECTION( '', ( 6.12323399573677E-17, 1.00000000000000, 0.000000000000000 ) );
#276 = FILL_AREA_STYLE( '', ( #313 ) );
#277 = EDGE_CURVE( '', #314, #314, #315, .T. );
#278 = EDGE_CURVE( '', #316, #316, #317, .T. );
#279 = FILL_AREA_STYLE( '', ( #318 ) );
#280 = EDGE_CURVE( '', #319, #320, #321, .T. );
#281 = EDGE_CURVE( '', #320, #319, #322, .T. );
#282 = FILL_AREA_STYLE( '', ( #323 ) );
#283 = CARTESIAN_POINT( '', ( 150.000000000000, -1.04950770296597E-13, 0.000000000000000 ) );
#284 = EDGE_CURVE( '', #324, #324, #325, .T. );
#285 = FILL_AREA_STYLE( '', ( #326 ) );
#286 = EDGE_CURVE( '', #320, #327, #328, .T. );
#287 = EDGE_CURVE( '', #329, #319, #330, .T. );
#288 = EDGE_CURVE( '', #331, #329, #332, .F. );
#289 = EDGE_CURVE( '', #333, #331, #334, .T. );
#290 = EDGE_CURVE( '', #327, #333, #335, .T. );
#291 = FILL_AREA_STYLE( '', ( #336 ) );
#292 = EDGE_CURVE( '', #337, #337, #338, .T. );
#293 = EDGE_CURVE( '', #339, #339, #340, .T. );
#294 = FILL_AREA_STYLE( '', ( #341 ) );
#295 = EDGE_CURVE( '', #331, #342, #343, .T. );
#296 = EDGE_CURVE( '', #342, #344, #345, .T. );
#297 = EDGE_CURVE( '', #344, #333, #346, .T. );
#298 = FILL_AREA_STYLE( '', ( #347 ) );
#299 = FILL_AREA_STYLE( '', ( #348 ) );
#300 = EDGE_CURVE( '', #349, #350, #351, .T. );
#301 = EDGE_CURVE( '', #349, #352, #353, .T. );
#302 = EDGE_CURVE( '', #352, #354, #355, .T. );
#303 = EDGE_CURVE( '', #354, #350, #356, .T. );
#304 = FILL_AREA_STYLE( '', ( #357 ) );
#305 = EDGE_CURVE( '', #354, #352, #358, .T. );
#306 = EDGE_CURVE( '', #344, #349, #359, .F. );
#307 = EDGE_CURVE( '', #350, #342, #360, .T. );
#308 = FILL_AREA_STYLE( '', ( #361 ) );
#309 = FILL_AREA_STYLE( '', ( #362 ) );
#310 = EDGE_CURVE( '', #329, #327, #363, .T. );
#311 = FILL_AREA_STYLE( '', ( #364 ) );
#312 = FILL_AREA_STYLE( '', ( #365 ) );
#313 = FILL_AREA_STYLE_COLOUR( '', #366 );
#314 = VERTEX_POINT( '', #367 );
#315 = CIRCLE( '', #368, 7.75000000000000 );
#316 = VERTEX_POINT( '', #369 );
#317 = CIRCLE( '', #370, 7.20000000000000 );
#318 = FILL_AREA_STYLE_COLOUR( '', #371 );
#319 = VERTEX_POINT( '', #372 );
#320 = VERTEX_POINT( '', #373 );
#321 = CIRCLE( '', #374, 8.46650000000000 );
#322 = LINE( '', #375, #376 );
#323 = FILL_AREA_STYLE_COLOUR( '', #377 );
#324 = VERTEX_POINT( '', #378 );
#325 = CIRCLE( '', #379, 7.75000000000000 );
#326 = FILL_AREA_STYLE_COLOUR( '', #380 );
#327 = VERTEX_POINT( '', #381 );
#328 = B_SPLINE_CURVE_WITH_KNOTS( '', 3, ( #382, #383, #384, #385 ), .UNSPECIFIED., .F., .F., ( 4, 4 ), ( 0.0420335464893133, 0.0442124251860489 ), .UNSPECIFIED. );
#329 = VERTEX_POINT( '', #386 );
#330 = B_SPLINE_CURVE_WITH_KNOTS( '', 3, ( #387, #388, #389, #390 ), .UNSPECIFIED., .F., .F., ( 4, 4 ), ( 0.0170363399290314, 0.0192102676191475 ), .UNSPECIFIED. );
#331 = VERTEX_POINT( '', #391 );
#332 = LINE( '', #392, #393 );
#333 = VERTEX_POINT( '', #394 );
#334 = LINE( '', #395, #396 );
#335 = LINE( '', #397, #398 );
#336 = FILL_AREA_STYLE_COLOUR( '', #399 );
#337 = VERTEX_POINT( '', #400 );
#338 = CIRCLE( '', #401, 7.20000000000000 );
#339 = VERTEX_POINT( '', #402 );
#340 = CIRCLE( '', #403, 10.0000000000000 );
#341 = FILL_AREA_STYLE_COLOUR( '', #404 );
#342 = VERTEX_POINT( '', #405 );
#343 = CIRCLE( '', #406, 10.0000000000000 );
#344 = VERTEX_POINT( '', #407 );
#345 = LINE( '', #408, #409 );
#346 = CIRCLE( '', #410, 10.0000000000000 );
#347 = FILL_AREA_STYLE_COLOUR( '', #411 );
#348 = FILL_AREA_STYLE_COLOUR( '', #412 );
#349 = VERTEX_POINT( '', #413 );
#350 = VERTEX_POINT( '', #414 );
#351 = CIRCLE( '', #415, 10.0000000000000 );
#352 = VERTEX_POINT( '', #416 );
#353 = B_SPLINE_CURVE_WITH_KNOTS( '', 3, ( #417, #418, #419, #420 ), .UNSPECIFIED., .F., .F., ( 4, 4 ), ( 0.0170363399290314, 0.0192102676191475 ), .UNSPECIFIED. );
#354 = VERTEX_POINT( '', #421 );
#355 = CIRCLE( '', #422, 8.46650000000000 );
#356 = B_SPLINE_CURVE_WITH_KNOTS( '', 3, ( #423, #424, #425, #426 ), .UNSPECIFIED., .F., .F., ( 4, 4 ), ( 0.0420335464893133, 0.0442124251860489 ), .UNSPECIFIED. );
#357 = FILL_AREA_STYLE_COLOUR( '', #427 );
#358 = LINE( '', #428, #429 );
#359 = LINE( '', #430, #431 );
#360 = LINE( '', #432, #433 );
#361 = FILL_AREA_STYLE_COLOUR( '', #434 );
#362 = FILL_AREA_STYLE_COLOUR( '', #435 );
#363 = CIRCLE( '', #436, 10.0000000000000 );
#364 = FILL_AREA_STYLE_COLOUR( '', #437 );
#365 = FILL_AREA_STYLE_COLOUR( '', #438 );
#366 = COLOUR_RGB( '', 0.689999997600000, 0.689999997600000, 0.689999997600000 );
#367 = CARTESIAN_POINT( '', ( 144.500000000000, 7.75000000000001, 0.000000000000000 ) );
#368 = AXIS2_PLACEMENT_3D( '', #439, #440, #441 );
#369 = CARTESIAN_POINT( '', ( 144.500000000000, 7.20000000000001, 0.000000000000000 ) );
#370 = AXIS2_PLACEMENT_3D( '', #442, #443, #444 );
#371 = COLOUR_RGB( '', 0.689999997600000, 0.689999997600000, 0.689999997600000 );
#372 = CARTESIAN_POINT( '', ( 0.000000000000000, 0.900000000000018, -8.41852850859341 ) );
#373 = CARTESIAN_POINT( '', ( 0.000000000000000, 0.900000000000018, 8.41852850859341 ) );
#374 = AXIS2_PLACEMENT_3D( '', #445, #446, #447 );
#375 = CARTESIAN_POINT( '', ( 0.000000000000000, 0.900000000000018, 10.5000000000000 ) );
#376 = VECTOR( '', #448, 1000.00000000000 );
#377 = COLOUR_RGB( '', 0.689999997600000, 0.689999997600000, 0.689999997600000 );
#378 = CARTESIAN_POINT( '', ( 147.437276042283, 7.75000000000001, 0.000000000000000 ) );
#379 = AXIS2_PLACEMENT_3D( '', #449, #450, #451 );
#380 = COLOUR_RGB( '', 0.689999997600000, 0.689999997600000, 0.689999997600000 );
#381 = CARTESIAN_POINT( '', ( 1.53349999999999, 0.900000000000027, 9.95941765365827 ) );
#382 = CARTESIAN_POINT( '', ( -3.19226937863748E-15, 0.900000000000018, 8.41852850859341 ) );
#383 = CARTESIAN_POINT( '', ( 0.510941899449504, 0.900000000000018, 8.93238191982478 ) );
#384 = CARTESIAN_POINT( '', ( 1.02214318709474, 0.900000000000018, 9.44597717883550 ) );
#385 = CARTESIAN_POINT( '', ( 1.53349999999999, 0.900000000000018, 9.95941765365827 ) );
#386 = CARTESIAN_POINT( '', ( 1.53349999999999, 0.900000000000027, -9.95941765365827 ) );
#387 = CARTESIAN_POINT( '', ( 1.53349999999999, 0.900000000000018, -9.95941765365827 ) );
#388 = CARTESIAN_POINT( '', ( 1.02214317772920, 0.900000000000018, -9.44597716943180 ) );
#389 = CARTESIAN_POINT( '', ( 0.510941888387717, 0.900000000000018, -8.93238190869996 ) );
#390 = CARTESIAN_POINT( '', ( 2.56762404246564E-15, 0.900000000000018, -8.41852850859341 ) );
#391 = CARTESIAN_POINT( '', ( 3.00000000000000, 0.900000000000018, -9.95941765365827 ) );
#392 = CARTESIAN_POINT( '', ( 150.000000000000, 0.900000000000018, -9.95941765365827 ) );
#393 = VECTOR( '', #452, 1000.00000000000 );
#394 = CARTESIAN_POINT( '', ( 3.00000000000000, 0.900000000000018, 9.95941765365827 ) );
#395 = CARTESIAN_POINT( '', ( 3.00000000000000, 0.900000000000018, 10.5000000000000 ) );
#396 = VECTOR( '', #453, 1000.00000000000 );
#397 = CARTESIAN_POINT( '', ( 150.000000000000, 0.900000000000018, 9.95941765365827 ) );
#398 = VECTOR( '', #454, 1000.00000000000 );
#399 = COLOUR_RGB( '', 0.689999997600000, 0.689999997600000, 0.689999997600000 );
#400 = CARTESIAN_POINT( '', ( 137.347220000000, 7.20000000000001, 0.000000000000000 ) );
#401 = AXIS2_PLACEMENT_3D( '', #455, #456, #457 );
#402 = CARTESIAN_POINT( '', ( 136.000000000000, 10.0000000000000, 0.000000000000000 ) );
#403 = AXIS2_PLACEMENT_3D( '', #458, #459, #460 );
#404 = COLOUR_RGB( '', 0.689999997600000, 0.689999997600000, 0.689999997600000 );
#405 = CARTESIAN_POINT( '', ( 3.00000000000000, -0.899999999999982, -9.95941765365827 ) );
#406 = AXIS2_PLACEMENT_3D( '', #461, #462, #463 );
#407 = CARTESIAN_POINT( '', ( 3.00000000000000, -0.899999999999982, 9.95941765365827 ) );
#408 = CARTESIAN_POINT( '', ( 3.00000000000000, -0.899999999999982, -10.5000000000000 ) );
#409 = VECTOR( '', #464, 1000.00000000000 );
#410 = AXIS2_PLACEMENT_3D( '', #465, #466, #467 );
#411 = COLOUR_RGB( '', 0.689999997600000, 0.689999997600000, 0.689999997600000 );
#412 = COLOUR_RGB( '', 0.689999997600000, 0.689999997600000, 0.689999997600000 );
#413 = CARTESIAN_POINT( '', ( 1.53349999999999, -0.899999999999973, 9.95941765365827 ) );
#414 = CARTESIAN_POINT( '', ( 1.53349999999999, -0.899999999999973, -9.95941765365827 ) );
#415 = AXIS2_PLACEMENT_3D( '', #468, #469, #470 );
#416 = CARTESIAN_POINT( '', ( 0.000000000000000, -0.899999999999982, 8.41852850859341 ) );
#417 = CARTESIAN_POINT( '', ( 1.53349999999999, -0.899999999999982, 9.95941765365827 ) );
#418 = CARTESIAN_POINT( '', ( 1.02214317772920, -0.899999999999982, 9.44597716943180 ) );
#419 = CARTESIAN_POINT( '', ( 0.510941888387714, -0.899999999999982, 8.93238190869996 ) );
#420 = CARTESIAN_POINT( '', ( -1.82745802236588E-15, -0.899999999999982, 8.41852850859341 ) );
#421 = CARTESIAN_POINT( '', ( 0.000000000000000, -0.899999999999982, -8.41852850859341 ) );
#422 = AXIS2_PLACEMENT_3D( '', #471, #472, #473 );
#423 = CARTESIAN_POINT( '', ( -3.03253684739619E-15, -0.899999999999982, -8.41852850859341 ) );
#424 = CARTESIAN_POINT( '', ( 0.510941899449505, -0.899999999999982, -8.93238191982478 ) );
#425 = CARTESIAN_POINT( '', ( 1.02214318709474, -0.899999999999982, -9.44597717883550 ) );
#426 = CARTESIAN_POINT( '', ( 1.53349999999999, -0.899999999999982, -9.95941765365827 ) );
#427 = COLOUR_RGB( '', 0.689999997600000, 0.689999997600000, 0.689999997600000 );
#428 = CARTESIAN_POINT( '', ( 0.000000000000000, -0.899999999999982, -10.5000000000000 ) );
#429 = VECTOR( '', #474, 1000.00000000000 );
#430 = CARTESIAN_POINT( '', ( 150.000000000000, -0.899999999999982, 9.95941765365827 ) );
#431 = VECTOR( '', #475, 1000.00000000000 );
#432 = CARTESIAN_POINT( '', ( 150.000000000000, -0.899999999999982, -9.95941765365827 ) );
#433 = VECTOR( '', #476, 1000.00000000000 );
#434 = COLOUR_RGB( '', 0.689999997600000, 0.689999997600000, 0.689999997600000 );
#435 = COLOUR_RGB( '', 0.689999997600000, 0.689999997600000, 0.689999997600000 );
#436 = AXIS2_PLACEMENT_3D( '', #477, #478, #479 );
#437 = COLOUR_RGB( '', 0.689999997600000, 0.689999997600000, 0.689999997600000 );
#438 = COLOUR_RGB( '', 0.689999997600000, 0.689999997600000, 0.689999997600000 );
#439 = CARTESIAN_POINT( '', ( 144.500000000000, 9.21856206676678E-15, 0.000000000000000 ) );
#440 = DIRECTION( '', ( 1.00000000000000, -6.12323399573677E-17, -0.000000000000000 ) );
#441 = DIRECTION( '', ( 6.12323399573677E-17, 1.00000000000000, 0.000000000000000 ) );
#442 = CARTESIAN_POINT( '', ( 144.500000000000, 9.21856206676678E-15, 0.000000000000000 ) );
#443 = DIRECTION( '', ( 1.00000000000000, -6.12323399573677E-17, -0.000000000000000 ) );
#444 = DIRECTION( '', ( 6.12323399573677E-17, 1.00000000000000, 0.000000000000000 ) );
#445 = CARTESIAN_POINT( '', ( 0.000000000000000, 1.80666351906064E-14, 0.000000000000000 ) );
#446 = DIRECTION( '', ( 1.00000000000000, -6.12323399573677E-17, -0.000000000000000 ) );
#447 = DIRECTION( '', ( 6.12323399573677E-17, 1.00000000000000, 0.000000000000000 ) );
#448 = DIRECTION( '', ( 0.000000000000000, 0.000000000000000, -1.00000000000000 ) );
#449 = CARTESIAN_POINT( '', ( 147.437276042283, 9.03870578159707E-15, 0.000000000000000 ) );
#450 = DIRECTION( '', ( 1.00000000000000, -6.12323399573677E-17, -0.000000000000000 ) );
#451 = DIRECTION( '', ( 6.12323399573677E-17, 1.00000000000000, 0.000000000000000 ) );
#452 = DIRECTION( '', ( 1.00000000000000, -6.12323399573677E-17, -0.000000000000000 ) );
#453 = DIRECTION( '', ( 0.000000000000000, 0.000000000000000, -1.00000000000000 ) );
#454 = DIRECTION( '', ( 1.00000000000000, -6.12323399573677E-17, -0.000000000000000 ) );
#455 = CARTESIAN_POINT( '', ( 137.347220000000, 9.65654352336703E-15, 0.000000000000000 ) );
#456 = DIRECTION( '', ( 1.00000000000000, -6.12323399573676E-17, -0.000000000000000 ) );
#457 = DIRECTION( '', ( 6.12323399573676E-17, 1.00000000000000, 0.000000000000000 ) );
#458 = CARTESIAN_POINT( '', ( 136.000000000000, 9.73903695640440E-15, 0.000000000000000 ) );
#459 = DIRECTION( '', ( 1.00000000000000, -6.12323399573677E-17, -0.000000000000000 ) );
#460 = DIRECTION( '', ( 6.12323399573677E-17, 1.00000000000000, 0.000000000000000 ) );
#461 = CARTESIAN_POINT( '', ( 3.00000000000000, 1.78829381707343E-14, 0.000000000000000 ) );
#462 = DIRECTION( '', ( -1.00000000000000, 0.000000000000000, 0.000000000000000 ) );
#463 = DIRECTION( '', ( 0.000000000000000, 0.000000000000000, 1.00000000000000 ) );
#464 = DIRECTION( '', ( 0.000000000000000, 0.000000000000000, 1.00000000000000 ) );
#465 = CARTESIAN_POINT( '', ( 3.00000000000000, 1.78829381707343E-14, 0.000000000000000 ) );
#466 = DIRECTION( '', ( -1.00000000000000, 0.000000000000000, 0.000000000000000 ) );
#467 = DIRECTION( '', ( 0.000000000000000, 0.000000000000000, 1.00000000000000 ) );
#468 = CARTESIAN_POINT( '', ( 1.53349999999999, 1.79727353972818E-14, 0.000000000000000 ) );
#469 = DIRECTION( '', ( 1.00000000000000, -6.12323399573677E-17, -0.000000000000000 ) );
#470 = DIRECTION( '', ( 6.12323399573677E-17, 1.00000000000000, 0.000000000000000 ) );
#471 = CARTESIAN_POINT( '', ( 0.000000000000000, 1.80666351906064E-14, 0.000000000000000 ) );
#472 = DIRECTION( '', ( 1.00000000000000, -6.12323399573677E-17, -0.000000000000000 ) );
#473 = DIRECTION( '', ( 6.12323399573677E-17, 1.00000000000000, 0.000000000000000 ) );
#474 = DIRECTION( '', ( 0.000000000000000, 0.000000000000000, 1.00000000000000 ) );
#475 = DIRECTION( '', ( 1.00000000000000, -6.12323399573677E-17, -0.000000000000000 ) );
#476 = DIRECTION( '', ( 1.00000000000000, -6.12323399573677E-17, -0.000000000000000 ) );
#477 = CARTESIAN_POINT( '', ( 1.53349999999999, 1.79727353972818E-14, 0.000000000000000 ) );
#478 = DIRECTION( '', ( 1.00000000000000, -6.12323399573677E-17, -0.000000000000000 ) );
#479 = DIRECTION( '', ( 6.12323399573677E-17, 1.00000000000000, 0.000000000000000 ) );
ENDSEC;
END-ISO-10303-21;
