ISO-10303-21;
HEADER;
FILE_DESCRIPTION( ( 'STEP AP214' ), '1' );
FILE_NAME( '//goodhand-server/Shared Folders/GoodHand Data/Kipp CAD/K1129/K1129.100810.stp', '2020-12-10T10:15:48', ( '' ), ( '' ), ' ', 'PARTsolutions', ' ' );
FILE_SCHEMA( ( 'AUTOMOTIVE_DESIGN { 1 0 10303 214 1 1 1 1 }' ) );
ENDSEC;
DATA;
#1 = MECHANICAL_DESIGN_GEOMETRIC_PRESENTATION_REPRESENTATION( ' ', ( #10, #11, #12, #13, #14, #15, #16, #17, #18, #19, #20, #21 ), #6 );
#2 = PRODUCT_DEFINITION_CONTEXT( '', #22, 'design' );
#3 = APPLICATION_PROTOCOL_DEFINITION( 'international standard', 'automotive_design', 2001, #22 );
#4 = PRODUCT_CATEGORY_RELATIONSHIP( 'NONE', 'NONE', #23, #24 );
#5 = SHAPE_DEFINITION_REPRESENTATION( #25, #26 );
#6 =  ( GEOMETRIC_REPRESENTATION_CONTEXT( 3 )GLOBAL_UNCERTAINTY_ASSIGNED_CONTEXT( ( #29 ) )GLOBAL_UNIT_ASSIGNED_CONTEXT( ( #31, #32, #33 ) )REPRESENTATION_CONTEXT( 'NONE', 'WORKSPACE' ) );
#10 = STYLED_ITEM( '', ( #35 ), #36 );
#11 = STYLED_ITEM( '', ( #37 ), #38 );
#12 = STYLED_ITEM( '', ( #39 ), #40 );
#13 = STYLED_ITEM( '', ( #41 ), #42 );
#14 = STYLED_ITEM( '', ( #43 ), #44 );
#15 = STYLED_ITEM( '', ( #45 ), #46 );
#16 = STYLED_ITEM( '', ( #47 ), #48 );
#17 = STYLED_ITEM( '', ( #49 ), #50 );
#18 = STYLED_ITEM( '', ( #51 ), #52 );
#19 = STYLED_ITEM( '', ( #53 ), #54 );
#20 = STYLED_ITEM( '', ( #55 ), #56 );
#21 = STYLED_ITEM( '', ( #57 ), #58 );
#22 = APPLICATION_CONTEXT( 'core data for automotive mechanical design processes' );
#23 = PRODUCT_CATEGORY( 'part', 'NONE' );
#24 = PRODUCT_RELATED_PRODUCT_CATEGORY( 'detail', ' ', ( #59 ) );
#25 = PRODUCT_DEFINITION_SHAPE( 'NONE', 'NONE', #60 );
#26 = ADVANCED_BREP_SHAPE_REPRESENTATION( '_K1129.100810', ( #61, #62 ), #6 );
#29 = UNCERTAINTY_MEASURE_WITH_UNIT( LENGTH_MEASURE( 0.00100000000000000 ), #31, '', '' );
#31 =  ( CONVERSION_BASED_UNIT( 'MILLIMETRE', #65 )LENGTH_UNIT(  )NAMED_UNIT( #68 ) );
#32 =  ( NAMED_UNIT( #70 )PLANE_ANGLE_UNIT(  )SI_UNIT( $, .RADIAN. ) );
#33 =  ( NAMED_UNIT( #70 )SI_UNIT( $, .STERADIAN. )SOLID_ANGLE_UNIT(  ) );
#35 = PRESENTATION_STYLE_ASSIGNMENT( ( #76 ) );
#36 = ADVANCED_FACE( '', ( #77, #78 ), #79, .T. );
#37 = PRESENTATION_STYLE_ASSIGNMENT( ( #80 ) );
#38 = ADVANCED_FACE( '', ( #81, #82 ), #83, .T. );
#39 = PRESENTATION_STYLE_ASSIGNMENT( ( #84 ) );
#40 = ADVANCED_FACE( '', ( #85 ), #86, .F. );
#41 = PRESENTATION_STYLE_ASSIGNMENT( ( #87 ) );
#42 = ADVANCED_FACE( '', ( #88 ), #89, .T. );
#43 = PRESENTATION_STYLE_ASSIGNMENT( ( #90 ) );
#44 = ADVANCED_FACE( '', ( #91 ), #92, .F. );
#45 = PRESENTATION_STYLE_ASSIGNMENT( ( #93 ) );
#46 = ADVANCED_FACE( '', ( #94 ), #95, .T. );
#47 = PRESENTATION_STYLE_ASSIGNMENT( ( #96 ) );
#48 = ADVANCED_FACE( '', ( #97, #98 ), #99, .T. );
#49 = PRESENTATION_STYLE_ASSIGNMENT( ( #100 ) );
#50 = ADVANCED_FACE( '', ( #101, #102 ), #103, .F. );
#51 = PRESENTATION_STYLE_ASSIGNMENT( ( #104 ) );
#52 = ADVANCED_FACE( '', ( #105 ), #106, .T. );
#53 = PRESENTATION_STYLE_ASSIGNMENT( ( #107 ) );
#54 = ADVANCED_FACE( '', ( #108 ), #109, .T. );
#55 = PRESENTATION_STYLE_ASSIGNMENT( ( #110 ) );
#56 = ADVANCED_FACE( '', ( #111 ), #112, .T. );
#57 = PRESENTATION_STYLE_ASSIGNMENT( ( #113 ) );
#58 = ADVANCED_FACE( '', ( #114 ), #115, .T. );
#59 = PRODUCT( '_K1129.100810', '_K1129.100810', 'PART-_K1129.100810-DESC', ( #116 ) );
#60 = PRODUCT_DEFINITION( 'NONE', 'NONE', #117, #2 );
#61 = MANIFOLD_SOLID_BREP( '_K1129.100810', #118 );
#62 = AXIS2_PLACEMENT_3D( '', #119, #120, #121 );
#65 = LENGTH_MEASURE_WITH_UNIT( LENGTH_MEASURE( 1.00000000000000 ), #122 );
#68 = DIMENSIONAL_EXPONENTS( 1.00000000000000, 0.000000000000000, 0.000000000000000, 0.000000000000000, 0.000000000000000, 0.000000000000000, 0.000000000000000 );
#70 = DIMENSIONAL_EXPONENTS( 0.000000000000000, 0.000000000000000, 0.000000000000000, 0.000000000000000, 0.000000000000000, 0.000000000000000, 0.000000000000000 );
#76 = SURFACE_STYLE_USAGE( .BOTH., #123 );
#77 = FACE_BOUND( '', #124, .T. );
#78 = FACE_OUTER_BOUND( '', #125, .T. );
#79 = CONICAL_SURFACE( '', #126, 4.10999968460000, 0.0314159265000000 );
#80 = SURFACE_STYLE_USAGE( .BOTH., #127 );
#81 = FACE_OUTER_BOUND( '', #128, .T. );
#82 = FACE_BOUND( '', #129, .T. );
#83 = CONICAL_SURFACE( '', #130, 3.62570506420000, 0.769690200100000 );
#84 = SURFACE_STYLE_USAGE( .BOTH., #131 );
#85 = FACE_OUTER_BOUND( '', #132, .T. );
#86 = PLANE( '', #133 );
#87 = SURFACE_STYLE_USAGE( .BOTH., #134 );
#88 = FACE_OUTER_BOUND( '', #135, .T. );
#89 = PLANE( '', #136 );
#90 = SURFACE_STYLE_USAGE( .BOTH., #137 );
#91 = FACE_OUTER_BOUND( '', #138, .T. );
#92 = PLANE( '', #139 );
#93 = SURFACE_STYLE_USAGE( .BOTH., #140 );
#94 = FACE_OUTER_BOUND( '', #141, .T. );
#95 = PLANE( '', #142 );
#96 = SURFACE_STYLE_USAGE( .BOTH., #143 );
#97 = FACE_BOUND( '', #144, .T. );
#98 = FACE_OUTER_BOUND( '', #145, .T. );
#99 = CONICAL_SURFACE( '', #146, 3.89000031540000, 0.801106126700000 );
#100 = SURFACE_STYLE_USAGE( .BOTH., #147 );
#101 = FACE_OUTER_BOUND( '', #148, .T. );
#102 = FACE_BOUND( '', #149, .T. );
#103 = PLANE( '', #150 );
#104 = SURFACE_STYLE_USAGE( .BOTH., #151 );
#105 = FACE_OUTER_BOUND( '', #152, .T. );
#106 = PLANE( '', #153 );
#107 = SURFACE_STYLE_USAGE( .BOTH., #154 );
#108 = FACE_OUTER_BOUND( '', #155, .T. );
#109 = PLANE( '', #156 );
#110 = SURFACE_STYLE_USAGE( .BOTH., #157 );
#111 = FACE_OUTER_BOUND( '', #158, .T. );
#112 = PLANE( '', #159 );
#113 = SURFACE_STYLE_USAGE( .BOTH., #160 );
#114 = FACE_OUTER_BOUND( '', #161, .T. );
#115 = PLANE( '', #162 );
#116 = PRODUCT_CONTEXT( '', #22, 'mechanical' );
#117 = PRODUCT_DEFINITION_FORMATION_WITH_SPECIFIED_SOURCE( ' ', 'NONE', #59, .NOT_KNOWN. );
#118 = CLOSED_SHELL( '', ( #38, #50, #46, #52, #42, #44, #48, #36, #54, #58, #56, #40 ) );
#119 = CARTESIAN_POINT( '', ( 0.000000000000000, 0.000000000000000, 0.000000000000000 ) );
#120 = DIRECTION( '', ( 0.000000000000000, 0.000000000000000, 1.00000000000000 ) );
#121 = DIRECTION( '', ( 1.00000000000000, 0.000000000000000, 0.000000000000000 ) );
#122 =  ( LENGTH_UNIT(  )NAMED_UNIT( #68 )SI_UNIT( .MILLI., .METRE. ) );
#123 = SURFACE_SIDE_STYLE( '', ( #164 ) );
#124 = EDGE_LOOP( '', ( #165 ) );
#125 = EDGE_LOOP( '', ( #166 ) );
#126 = AXIS2_PLACEMENT_3D( '', #167, #168, #169 );
#127 = SURFACE_SIDE_STYLE( '', ( #170 ) );
#128 = EDGE_LOOP( '', ( #171 ) );
#129 = EDGE_LOOP( '', ( #172 ) );
#130 = AXIS2_PLACEMENT_3D( '', #173, #174, #175 );
#131 = SURFACE_SIDE_STYLE( '', ( #176 ) );
#132 = EDGE_LOOP( '', ( #177, #178, #179, #180, #181, #182 ) );
#133 = AXIS2_PLACEMENT_3D( '', #183, #184, #185 );
#134 = SURFACE_SIDE_STYLE( '', ( #186 ) );
#135 = EDGE_LOOP( '', ( #187, #188, #189, #190 ) );
#136 = AXIS2_PLACEMENT_3D( '', #191, #192, #193 );
#137 = SURFACE_SIDE_STYLE( '', ( #194 ) );
#138 = EDGE_LOOP( '', ( #195 ) );
#139 = AXIS2_PLACEMENT_3D( '', #196, #197, #198 );
#140 = SURFACE_SIDE_STYLE( '', ( #199 ) );
#141 = EDGE_LOOP( '', ( #200, #201, #202, #203 ) );
#142 = AXIS2_PLACEMENT_3D( '', #204, #205, #206 );
#143 = SURFACE_SIDE_STYLE( '', ( #207 ) );
#144 = EDGE_LOOP( '', ( #208 ) );
#145 = EDGE_LOOP( '', ( #209 ) );
#146 = AXIS2_PLACEMENT_3D( '', #210, #211, #212 );
#147 = SURFACE_SIDE_STYLE( '', ( #213 ) );
#148 = EDGE_LOOP( '', ( #214 ) );
#149 = EDGE_LOOP( '', ( #215, #216, #217, #218, #219, #220 ) );
#150 = AXIS2_PLACEMENT_3D( '', #221, #222, #223 );
#151 = SURFACE_SIDE_STYLE( '', ( #224 ) );
#152 = EDGE_LOOP( '', ( #225, #226, #227, #228 ) );
#153 = AXIS2_PLACEMENT_3D( '', #229, #230, #231 );
#154 = SURFACE_SIDE_STYLE( '', ( #232 ) );
#155 = EDGE_LOOP( '', ( #233, #234, #235, #236 ) );
#156 = AXIS2_PLACEMENT_3D( '', #237, #238, #239 );
#157 = SURFACE_SIDE_STYLE( '', ( #240 ) );
#158 = EDGE_LOOP( '', ( #241, #242, #243, #244 ) );
#159 = AXIS2_PLACEMENT_3D( '', #245, #246, #247 );
#160 = SURFACE_SIDE_STYLE( '', ( #248 ) );
#161 = EDGE_LOOP( '', ( #249, #250, #251, #252 ) );
#162 = AXIS2_PLACEMENT_3D( '', #253, #254, #255 );
#164 = SURFACE_STYLE_FILL_AREA( #256 );
#165 = ORIENTED_EDGE( '', *, *, #257, .F. );
#166 = ORIENTED_EDGE( '', *, *, #258, .T. );
#167 = CARTESIAN_POINT( '', ( 0.499753280182866, 0.000000000000000, 0.000000000000000 ) );
#168 = DIRECTION( '', ( -1.00000000000000, 0.000000000000000, -0.000000000000000 ) );
#169 = DIRECTION( '', ( 0.000000000000000, 0.000000000000000, 1.00000000000000 ) );
#170 = SURFACE_STYLE_FILL_AREA( #259 );
#171 = ORIENTED_EDGE( '', *, *, #258, .F. );
#172 = ORIENTED_EDGE( '', *, *, #260, .T. );
#173 = CARTESIAN_POINT( '', ( 0.000000000000000, 0.000000000000000, 0.000000000000000 ) );
#174 = DIRECTION( '', ( 1.00000000000000, -0.000000000000000, -0.000000000000000 ) );
#175 = DIRECTION( '', ( -0.000000000000000, 0.000000000000000, -1.00000000000000 ) );
#176 = SURFACE_STYLE_FILL_AREA( #261 );
#177 = ORIENTED_EDGE( '', *, *, #262, .F. );
#178 = ORIENTED_EDGE( '', *, *, #263, .F. );
#179 = ORIENTED_EDGE( '', *, *, #264, .F. );
#180 = ORIENTED_EDGE( '', *, *, #265, .F. );
#181 = ORIENTED_EDGE( '', *, *, #266, .F. );
#182 = ORIENTED_EDGE( '', *, *, #267, .F. );
#183 = CARTESIAN_POINT( '', ( 4.00000000000000, 0.000000000000000, 0.000000000000000 ) );
#184 = DIRECTION( '', ( 1.00000000000000, 0.000000000000000, 0.000000000000000 ) );
#185 = DIRECTION( '', ( 0.000000000000000, 0.000000000000000, -1.00000000000000 ) );
#186 = SURFACE_STYLE_FILL_AREA( #268 );
#187 = ORIENTED_EDGE( '', *, *, #269, .F. );
#188 = ORIENTED_EDGE( '', *, *, #270, .F. );
#189 = ORIENTED_EDGE( '', *, *, #262, .T. );
#190 = ORIENTED_EDGE( '', *, *, #271, .T. );
#191 = CARTESIAN_POINT( '', ( 4.00000000000000, 1.15470053837925, 2.00000000000000 ) );
#192 = DIRECTION( '', ( 0.000000000000000, 0.000000000000000, -1.00000000000000 ) );
#193 = DIRECTION( '', ( -1.00000000000000, 0.000000000000000, 0.000000000000000 ) );
#194 = SURFACE_STYLE_FILL_AREA( #272 );
#195 = ORIENTED_EDGE( '', *, *, #273, .T. );
#196 = CARTESIAN_POINT( '', ( 8.00000000000000, 3.37429493582660, 0.000000000000000 ) );
#197 = DIRECTION( '', ( -1.00000000000000, 0.000000000000000, 0.000000000000000 ) );
#198 = DIRECTION( '', ( 0.000000000000000, 0.000000000000000, 1.00000000000000 ) );
#199 = SURFACE_STYLE_FILL_AREA( #274 );
#200 = ORIENTED_EDGE( '', *, *, #275, .F. );
#201 = ORIENTED_EDGE( '', *, *, #271, .F. );
#202 = ORIENTED_EDGE( '', *, *, #267, .T. );
#203 = ORIENTED_EDGE( '', *, *, #276, .T. );
#204 = CARTESIAN_POINT( '', ( 4.00000000000000, -1.15470053837925, 2.00000000000000 ) );
#205 = DIRECTION( '', ( 0.000000000000000, 0.866025403784439, -0.500000000000000 ) );
#206 = DIRECTION( '', ( 0.000000000000000, 0.500000000000000, 0.866025403784439 ) );
#207 = SURFACE_STYLE_FILL_AREA( #277 );
#208 = ORIENTED_EDGE( '', *, *, #273, .F. );
#209 = ORIENTED_EDGE( '', *, *, #257, .T. );
#210 = CARTESIAN_POINT( '', ( 7.50024671981714, 0.000000000000000, 0.000000000000000 ) );
#211 = DIRECTION( '', ( -1.00000000000000, 0.000000000000000, -0.000000000000000 ) );
#212 = DIRECTION( '', ( 0.000000000000000, 0.000000000000000, 1.00000000000000 ) );
#213 = SURFACE_STYLE_FILL_AREA( #278 );
#214 = ORIENTED_EDGE( '', *, *, #260, .F. );
#215 = ORIENTED_EDGE( '', *, *, #269, .T. );
#216 = ORIENTED_EDGE( '', *, *, #275, .T. );
#217 = ORIENTED_EDGE( '', *, *, #279, .T. );
#218 = ORIENTED_EDGE( '', *, *, #280, .T. );
#219 = ORIENTED_EDGE( '', *, *, #281, .T. );
#220 = ORIENTED_EDGE( '', *, *, #282, .T. );
#221 = CARTESIAN_POINT( '', ( 0.000000000000000, 0.000000000000000, 0.000000000000000 ) );
#222 = DIRECTION( '', ( 1.00000000000000, 0.000000000000000, -0.000000000000000 ) );
#223 = DIRECTION( '', ( -0.000000000000000, 0.000000000000000, -1.00000000000000 ) );
#224 = SURFACE_STYLE_FILL_AREA( #283 );
#225 = ORIENTED_EDGE( '', *, *, #279, .F. );
#226 = ORIENTED_EDGE( '', *, *, #276, .F. );
#227 = ORIENTED_EDGE( '', *, *, #266, .T. );
#228 = ORIENTED_EDGE( '', *, *, #284, .T. );
#229 = CARTESIAN_POINT( '', ( 4.00000000000000, -2.30940107675850, 0.000000000000000 ) );
#230 = DIRECTION( '', ( -0.000000000000000, 0.866025403784439, 0.500000000000000 ) );
#231 = DIRECTION( '', ( 0.000000000000000, -0.500000000000000, 0.866025403784439 ) );
#232 = SURFACE_STYLE_FILL_AREA( #285 );
#233 = ORIENTED_EDGE( '', *, *, #280, .F. );
#234 = ORIENTED_EDGE( '', *, *, #284, .F. );
#235 = ORIENTED_EDGE( '', *, *, #265, .T. );
#236 = ORIENTED_EDGE( '', *, *, #286, .T. );
#237 = CARTESIAN_POINT( '', ( 4.00000000000000, -1.15470053837925, -2.00000000000000 ) );
#238 = DIRECTION( '', ( 0.000000000000000, 0.000000000000000, 1.00000000000000 ) );
#239 = DIRECTION( '', ( 1.00000000000000, 0.000000000000000, -0.000000000000000 ) );
#240 = SURFACE_STYLE_FILL_AREA( #287 );
#241 = ORIENTED_EDGE( '', *, *, #282, .F. );
#242 = ORIENTED_EDGE( '', *, *, #288, .F. );
#243 = ORIENTED_EDGE( '', *, *, #263, .T. );
#244 = ORIENTED_EDGE( '', *, *, #270, .T. );
#245 = CARTESIAN_POINT( '', ( 4.00000000000000, 2.30940107675850, 0.000000000000000 ) );
#246 = DIRECTION( '', ( 0.000000000000000, -0.866025403784439, -0.500000000000000 ) );
#247 = DIRECTION( '', ( 0.000000000000000, 0.500000000000000, -0.866025403784439 ) );
#248 = SURFACE_STYLE_FILL_AREA( #289 );
#249 = ORIENTED_EDGE( '', *, *, #281, .F. );
#250 = ORIENTED_EDGE( '', *, *, #286, .F. );
#251 = ORIENTED_EDGE( '', *, *, #264, .T. );
#252 = ORIENTED_EDGE( '', *, *, #288, .T. );
#253 = CARTESIAN_POINT( '', ( 4.00000000000000, 1.15470053837925, -2.00000000000000 ) );
#254 = DIRECTION( '', ( 0.000000000000000, -0.866025403784439, 0.500000000000000 ) );
#255 = DIRECTION( '', ( 0.000000000000000, -0.500000000000000, -0.866025403784439 ) );
#256 = FILL_AREA_STYLE( '', ( #290 ) );
#257 = EDGE_CURVE( '', #291, #291, #292, .T. );
#258 = EDGE_CURVE( '', #293, #293, #294, .T. );
#259 = FILL_AREA_STYLE( '', ( #295 ) );
#260 = EDGE_CURVE( '', #296, #296, #297, .T. );
#261 = FILL_AREA_STYLE( '', ( #298 ) );
#262 = EDGE_CURVE( '', #299, #300, #301, .T. );
#263 = EDGE_CURVE( '', #302, #299, #303, .T. );
#264 = EDGE_CURVE( '', #304, #302, #305, .T. );
#265 = EDGE_CURVE( '', #306, #304, #307, .T. );
#266 = EDGE_CURVE( '', #308, #306, #309, .T. );
#267 = EDGE_CURVE( '', #300, #308, #310, .T. );
#268 = FILL_AREA_STYLE( '', ( #311 ) );
#269 = EDGE_CURVE( '', #312, #313, #314, .T. );
#270 = EDGE_CURVE( '', #299, #312, #315, .T. );
#271 = EDGE_CURVE( '', #300, #313, #316, .T. );
#272 = FILL_AREA_STYLE( '', ( #317 ) );
#273 = EDGE_CURVE( '', #318, #318, #319, .T. );
#274 = FILL_AREA_STYLE( '', ( #320 ) );
#275 = EDGE_CURVE( '', #313, #321, #322, .T. );
#276 = EDGE_CURVE( '', #308, #321, #323, .T. );
#277 = FILL_AREA_STYLE( '', ( #324 ) );
#278 = FILL_AREA_STYLE( '', ( #325 ) );
#279 = EDGE_CURVE( '', #321, #326, #327, .T. );
#280 = EDGE_CURVE( '', #326, #328, #329, .T. );
#281 = EDGE_CURVE( '', #328, #330, #331, .T. );
#282 = EDGE_CURVE( '', #330, #312, #332, .T. );
#283 = FILL_AREA_STYLE( '', ( #333 ) );
#284 = EDGE_CURVE( '', #306, #326, #334, .T. );
#285 = FILL_AREA_STYLE( '', ( #335 ) );
#286 = EDGE_CURVE( '', #304, #328, #336, .T. );
#287 = FILL_AREA_STYLE( '', ( #337 ) );
#288 = EDGE_CURVE( '', #302, #330, #338, .T. );
#289 = FILL_AREA_STYLE( '', ( #339 ) );
#290 = FILL_AREA_STYLE_COLOUR( '', #340 );
#291 = VERTEX_POINT( '', #341 );
#292 = CIRCLE( '', #342, 3.89000031540000 );
#293 = VERTEX_POINT( '', #343 );
#294 = CIRCLE( '', #344, 4.10999968460000 );
#295 = FILL_AREA_STYLE_COLOUR( '', #345 );
#296 = VERTEX_POINT( '', #346 );
#297 = CIRCLE( '', #347, 3.62570506420000 );
#298 = FILL_AREA_STYLE_COLOUR( '', #348 );
#299 = VERTEX_POINT( '', #349 );
#300 = VERTEX_POINT( '', #350 );
#301 = LINE( '', #351, #352 );
#302 = VERTEX_POINT( '', #353 );
#303 = LINE( '', #354, #355 );
#304 = VERTEX_POINT( '', #356 );
#305 = LINE( '', #357, #358 );
#306 = VERTEX_POINT( '', #359 );
#307 = LINE( '', #360, #361 );
#308 = VERTEX_POINT( '', #362 );
#309 = LINE( '', #363, #364 );
#310 = LINE( '', #365, #366 );
#311 = FILL_AREA_STYLE_COLOUR( '', #367 );
#312 = VERTEX_POINT( '', #368 );
#313 = VERTEX_POINT( '', #369 );
#314 = LINE( '', #370, #371 );
#315 = LINE( '', #372, #373 );
#316 = LINE( '', #374, #375 );
#317 = FILL_AREA_STYLE_COLOUR( '', #376 );
#318 = VERTEX_POINT( '', #377 );
#319 = CIRCLE( '', #378, 3.37429493580000 );
#320 = FILL_AREA_STYLE_COLOUR( '', #379 );
#321 = VERTEX_POINT( '', #380 );
#322 = LINE( '', #381, #382 );
#323 = LINE( '', #383, #384 );
#324 = FILL_AREA_STYLE_COLOUR( '', #385 );
#325 = FILL_AREA_STYLE_COLOUR( '', #386 );
#326 = VERTEX_POINT( '', #387 );
#327 = LINE( '', #388, #389 );
#328 = VERTEX_POINT( '', #390 );
#329 = LINE( '', #391, #392 );
#330 = VERTEX_POINT( '', #393 );
#331 = LINE( '', #394, #395 );
#332 = LINE( '', #396, #397 );
#333 = FILL_AREA_STYLE_COLOUR( '', #398 );
#334 = LINE( '', #399, #400 );
#335 = FILL_AREA_STYLE_COLOUR( '', #401 );
#336 = LINE( '', #402, #403 );
#337 = FILL_AREA_STYLE_COLOUR( '', #404 );
#338 = LINE( '', #405, #406 );
#339 = FILL_AREA_STYLE_COLOUR( '', #407 );
#340 = COLOUR_RGB( '', 0.689999997600000, 0.689999997600000, 0.689999997600000 );
#341 = CARTESIAN_POINT( '', ( 7.50024671981714, 0.000000000000000, -3.89000031536566 ) );
#342 = AXIS2_PLACEMENT_3D( '', #408, #409, #410 );
#343 = CARTESIAN_POINT( '', ( 0.499753280182866, 0.000000000000000, -4.10999968463434 ) );
#344 = AXIS2_PLACEMENT_3D( '', #411, #412, #413 );
#345 = COLOUR_RGB( '', 0.689999997600000, 0.689999997600000, 0.689999997600000 );
#346 = CARTESIAN_POINT( '', ( 0.000000000000000, 0.000000000000000, -3.62570506417340 ) );
#347 = AXIS2_PLACEMENT_3D( '', #414, #415, #416 );
#348 = COLOUR_RGB( '', 0.689999997600000, 0.689999997600000, 0.689999997600000 );
#349 = CARTESIAN_POINT( '', ( 4.00000000000000, 1.15470053837925, 2.00000000000000 ) );
#350 = CARTESIAN_POINT( '', ( 4.00000000000000, -1.15470053837925, 2.00000000000000 ) );
#351 = CARTESIAN_POINT( '', ( 4.00000000000000, 1.15470053837925, 2.00000000000000 ) );
#352 = VECTOR( '', #417, 1000.00000000000 );
#353 = CARTESIAN_POINT( '', ( 4.00000000000000, 2.30940107675850, 0.000000000000000 ) );
#354 = CARTESIAN_POINT( '', ( 4.00000000000000, 2.30940107675850, 0.000000000000000 ) );
#355 = VECTOR( '', #418, 1000.00000000000 );
#356 = CARTESIAN_POINT( '', ( 4.00000000000000, 1.15470053837925, -2.00000000000000 ) );
#357 = CARTESIAN_POINT( '', ( 4.00000000000000, 1.15470053837925, -2.00000000000000 ) );
#358 = VECTOR( '', #419, 1000.00000000000 );
#359 = CARTESIAN_POINT( '', ( 4.00000000000000, -1.15470053837925, -2.00000000000000 ) );
#360 = CARTESIAN_POINT( '', ( 4.00000000000000, -1.15470053837925, -2.00000000000000 ) );
#361 = VECTOR( '', #420, 1000.00000000000 );
#362 = CARTESIAN_POINT( '', ( 4.00000000000000, -2.30940107675850, 0.000000000000000 ) );
#363 = CARTESIAN_POINT( '', ( 4.00000000000000, -2.30940107675850, 0.000000000000000 ) );
#364 = VECTOR( '', #421, 1000.00000000000 );
#365 = CARTESIAN_POINT( '', ( 4.00000000000000, -1.15470053837925, 2.00000000000000 ) );
#366 = VECTOR( '', #422, 1000.00000000000 );
#367 = COLOUR_RGB( '', 0.689999997600000, 0.689999997600000, 0.689999997600000 );
#368 = CARTESIAN_POINT( '', ( 0.000000000000000, 1.15470053837925, 2.00000000000000 ) );
#369 = CARTESIAN_POINT( '', ( 0.000000000000000, -1.15470053837925, 2.00000000000000 ) );
#370 = CARTESIAN_POINT( '', ( 0.000000000000000, 1.15470053837925, 2.00000000000000 ) );
#371 = VECTOR( '', #423, 1000.00000000000 );
#372 = CARTESIAN_POINT( '', ( 4.00000000000000, 1.15470053837925, 2.00000000000000 ) );
#373 = VECTOR( '', #424, 1000.00000000000 );
#374 = CARTESIAN_POINT( '', ( 4.00000000000000, -1.15470053837925, 2.00000000000000 ) );
#375 = VECTOR( '', #425, 1000.00000000000 );
#376 = COLOUR_RGB( '', 0.689999997600000, 0.689999997600000, 0.689999997600000 );
#377 = CARTESIAN_POINT( '', ( 8.00000000000000, 0.000000000000000, -3.37429493582660 ) );
#378 = AXIS2_PLACEMENT_3D( '', #426, #427, #428 );
#379 = COLOUR_RGB( '', 0.689999997600000, 0.689999997600000, 0.689999997600000 );
#380 = CARTESIAN_POINT( '', ( 0.000000000000000, -2.30940107675850, 0.000000000000000 ) );
#381 = CARTESIAN_POINT( '', ( 0.000000000000000, -1.15470053837925, 2.00000000000000 ) );
#382 = VECTOR( '', #429, 1000.00000000000 );
#383 = CARTESIAN_POINT( '', ( 4.00000000000000, -2.30940107675850, 0.000000000000000 ) );
#384 = VECTOR( '', #430, 1000.00000000000 );
#385 = COLOUR_RGB( '', 0.689999997600000, 0.689999997600000, 0.689999997600000 );
#386 = COLOUR_RGB( '', 0.689999997600000, 0.689999997600000, 0.689999997600000 );
#387 = CARTESIAN_POINT( '', ( 0.000000000000000, -1.15470053837925, -2.00000000000000 ) );
#388 = CARTESIAN_POINT( '', ( 0.000000000000000, -2.30940107675850, 0.000000000000000 ) );
#389 = VECTOR( '', #431, 1000.00000000000 );
#390 = CARTESIAN_POINT( '', ( 0.000000000000000, 1.15470053837925, -2.00000000000000 ) );
#391 = CARTESIAN_POINT( '', ( 0.000000000000000, -1.15470053837925, -2.00000000000000 ) );
#392 = VECTOR( '', #432, 1000.00000000000 );
#393 = CARTESIAN_POINT( '', ( 0.000000000000000, 2.30940107675850, 0.000000000000000 ) );
#394 = CARTESIAN_POINT( '', ( 0.000000000000000, 1.15470053837925, -2.00000000000000 ) );
#395 = VECTOR( '', #433, 1000.00000000000 );
#396 = CARTESIAN_POINT( '', ( 0.000000000000000, 2.30940107675850, 0.000000000000000 ) );
#397 = VECTOR( '', #434, 1000.00000000000 );
#398 = COLOUR_RGB( '', 0.689999997600000, 0.689999997600000, 0.689999997600000 );
#399 = CARTESIAN_POINT( '', ( 4.00000000000000, -1.15470053837925, -2.00000000000000 ) );
#400 = VECTOR( '', #435, 1000.00000000000 );
#401 = COLOUR_RGB( '', 0.689999997600000, 0.689999997600000, 0.689999997600000 );
#402 = CARTESIAN_POINT( '', ( 4.00000000000000, 1.15470053837925, -2.00000000000000 ) );
#403 = VECTOR( '', #436, 1000.00000000000 );
#404 = COLOUR_RGB( '', 0.689999997600000, 0.689999997600000, 0.689999997600000 );
#405 = CARTESIAN_POINT( '', ( 4.00000000000000, 2.30940107675850, 0.000000000000000 ) );
#406 = VECTOR( '', #437, 1000.00000000000 );
#407 = COLOUR_RGB( '', 0.689999997600000, 0.689999997600000, 0.689999997600000 );
#408 = CARTESIAN_POINT( '', ( 7.50024671981714, 0.000000000000000, 0.000000000000000 ) );
#409 = DIRECTION( '', ( 1.00000000000000, 0.000000000000000, -0.000000000000000 ) );
#410 = DIRECTION( '', ( -0.000000000000000, 0.000000000000000, -1.00000000000000 ) );
#411 = CARTESIAN_POINT( '', ( 0.499753280182866, 0.000000000000000, 0.000000000000000 ) );
#412 = DIRECTION( '', ( 1.00000000000000, 0.000000000000000, -0.000000000000000 ) );
#413 = DIRECTION( '', ( -0.000000000000000, 0.000000000000000, -1.00000000000000 ) );
#414 = CARTESIAN_POINT( '', ( 0.000000000000000, 0.000000000000000, 0.000000000000000 ) );
#415 = DIRECTION( '', ( 1.00000000000000, 0.000000000000000, -0.000000000000000 ) );
#416 = DIRECTION( '', ( -0.000000000000000, 0.000000000000000, -1.00000000000000 ) );
#417 = DIRECTION( '', ( 0.000000000000000, -1.00000000000000, 0.000000000000000 ) );
#418 = DIRECTION( '', ( 0.000000000000000, -0.500000000000000, 0.866025403784439 ) );
#419 = DIRECTION( '', ( 0.000000000000000, 0.500000000000000, 0.866025403784439 ) );
#420 = DIRECTION( '', ( 0.000000000000000, 1.00000000000000, 0.000000000000000 ) );
#421 = DIRECTION( '', ( 0.000000000000000, 0.500000000000000, -0.866025403784439 ) );
#422 = DIRECTION( '', ( 0.000000000000000, -0.500000000000000, -0.866025403784439 ) );
#423 = DIRECTION( '', ( 0.000000000000000, -1.00000000000000, 0.000000000000000 ) );
#424 = DIRECTION( '', ( -1.00000000000000, -0.000000000000000, -0.000000000000000 ) );
#425 = DIRECTION( '', ( -1.00000000000000, -0.000000000000000, -0.000000000000000 ) );
#426 = CARTESIAN_POINT( '', ( 8.00000000000000, 0.000000000000000, 0.000000000000000 ) );
#427 = DIRECTION( '', ( 1.00000000000000, 0.000000000000000, -0.000000000000000 ) );
#428 = DIRECTION( '', ( -0.000000000000000, 0.000000000000000, -1.00000000000000 ) );
#429 = DIRECTION( '', ( 0.000000000000000, -0.500000000000000, -0.866025403784439 ) );
#430 = DIRECTION( '', ( -1.00000000000000, -0.000000000000000, -0.000000000000000 ) );
#431 = DIRECTION( '', ( 0.000000000000000, 0.500000000000000, -0.866025403784439 ) );
#432 = DIRECTION( '', ( 0.000000000000000, 1.00000000000000, 0.000000000000000 ) );
#433 = DIRECTION( '', ( 0.000000000000000, 0.500000000000000, 0.866025403784439 ) );
#434 = DIRECTION( '', ( 0.000000000000000, -0.500000000000000, 0.866025403784439 ) );
#435 = DIRECTION( '', ( -1.00000000000000, -0.000000000000000, -0.000000000000000 ) );
#436 = DIRECTION( '', ( -1.00000000000000, -0.000000000000000, -0.000000000000000 ) );
#437 = DIRECTION( '', ( -1.00000000000000, -0.000000000000000, -0.000000000000000 ) );
ENDSEC;
END-ISO-10303-21;
