ISO-10303-21;
HEADER;
FILE_DESCRIPTION( ( 'STEP AP214' ), '1' );
FILE_NAME( '//goodhand-server/Shared Folders/GoodHand Data/Kipp CAD/K0390/K0390.16X100.stp', '2020-12-07T10:15:00', ( '' ), ( '' ), ' ', 'PARTsolutions', ' ' );
FILE_SCHEMA( ( 'AUTOMOTIVE_DESIGN { 1 0 10303 214 1 1 1 1 }' ) );
ENDSEC;
DATA;
#1 = MECHANICAL_DESIGN_GEOMETRIC_PRESENTATION_REPRESENTATION( ' ', ( #10, #11, #12, #13, #14, #15, #16, #17, #18, #19, #20, #21, #22 ), #6 );
#2 = PRODUCT_DEFINITION_CONTEXT( '', #23, 'design' );
#3 = APPLICATION_PROTOCOL_DEFINITION( 'international standard', 'automotive_design', 2001, #23 );
#4 = PRODUCT_CATEGORY_RELATIONSHIP( 'NONE', 'NONE', #24, #25 );
#5 = SHAPE_DEFINITION_REPRESENTATION( #26, #27 );
#6 =  ( GEOMETRIC_REPRESENTATION_CONTEXT( 3 )GLOBAL_UNCERTAINTY_ASSIGNED_CONTEXT( ( #30 ) )GLOBAL_UNIT_ASSIGNED_CONTEXT( ( #32, #33, #34 ) )REPRESENTATION_CONTEXT( 'NONE', 'WORKSPACE' ) );
#10 = STYLED_ITEM( '', ( #36 ), #37 );
#11 = STYLED_ITEM( '', ( #38 ), #39 );
#12 = STYLED_ITEM( '', ( #40 ), #41 );
#13 = STYLED_ITEM( '', ( #42 ), #43 );
#14 = STYLED_ITEM( '', ( #44 ), #45 );
#15 = STYLED_ITEM( '', ( #46 ), #47 );
#16 = STYLED_ITEM( '', ( #48 ), #49 );
#17 = STYLED_ITEM( '', ( #50 ), #51 );
#18 = STYLED_ITEM( '', ( #52 ), #53 );
#19 = STYLED_ITEM( '', ( #54 ), #55 );
#20 = STYLED_ITEM( '', ( #56 ), #57 );
#21 = STYLED_ITEM( '', ( #58 ), #59 );
#22 = STYLED_ITEM( '', ( #60 ), #61 );
#23 = APPLICATION_CONTEXT( 'core data for automotive mechanical design processes' );
#24 = PRODUCT_CATEGORY( 'part', 'NONE' );
#25 = PRODUCT_RELATED_PRODUCT_CATEGORY( 'detail', ' ', ( #62 ) );
#26 = PRODUCT_DEFINITION_SHAPE( 'NONE', 'NONE', #63 );
#27 = ADVANCED_BREP_SHAPE_REPRESENTATION( '_K0390.16X100', ( #64, #65 ), #6 );
#30 = UNCERTAINTY_MEASURE_WITH_UNIT( LENGTH_MEASURE( 0.00100000000000000 ), #32, '', '' );
#32 =  ( CONVERSION_BASED_UNIT( 'MILLIMETRE', #68 )LENGTH_UNIT(  )NAMED_UNIT( #71 ) );
#33 =  ( NAMED_UNIT( #73 )PLANE_ANGLE_UNIT(  )SI_UNIT( $, .RADIAN. ) );
#34 =  ( NAMED_UNIT( #73 )SI_UNIT( $, .STERADIAN. )SOLID_ANGLE_UNIT(  ) );
#36 = PRESENTATION_STYLE_ASSIGNMENT( ( #79 ) );
#37 = ADVANCED_FACE( '', ( #80 ), #81, .T. );
#38 = PRESENTATION_STYLE_ASSIGNMENT( ( #82 ) );
#39 = ADVANCED_FACE( '', ( #83 ), #84, .T. );
#40 = PRESENTATION_STYLE_ASSIGNMENT( ( #85 ) );
#41 = ADVANCED_FACE( '', ( #86, #87 ), #88, .T. );
#42 = PRESENTATION_STYLE_ASSIGNMENT( ( #89 ) );
#43 = ADVANCED_FACE( '', ( #90, #91 ), #92, .F. );
#44 = PRESENTATION_STYLE_ASSIGNMENT( ( #93 ) );
#45 = ADVANCED_FACE( '', ( #94 ), #95, .F. );
#46 = PRESENTATION_STYLE_ASSIGNMENT( ( #96 ) );
#47 = ADVANCED_FACE( '', ( #97, #98 ), #99, .T. );
#48 = PRESENTATION_STYLE_ASSIGNMENT( ( #100 ) );
#49 = ADVANCED_FACE( '', ( #101 ), #102, .T. );
#50 = PRESENTATION_STYLE_ASSIGNMENT( ( #103 ) );
#51 = ADVANCED_FACE( '', ( #104, #105 ), #106, .T. );
#52 = PRESENTATION_STYLE_ASSIGNMENT( ( #107 ) );
#53 = ADVANCED_FACE( '', ( #108 ), #109, .F. );
#54 = PRESENTATION_STYLE_ASSIGNMENT( ( #110 ) );
#55 = ADVANCED_FACE( '', ( #111 ), #112, .F. );
#56 = PRESENTATION_STYLE_ASSIGNMENT( ( #113 ) );
#57 = ADVANCED_FACE( '', ( #114, #115 ), #116, .T. );
#58 = PRESENTATION_STYLE_ASSIGNMENT( ( #117 ) );
#59 = ADVANCED_FACE( '', ( #118 ), #119, .F. );
#60 = PRESENTATION_STYLE_ASSIGNMENT( ( #120 ) );
#61 = ADVANCED_FACE( '', ( #121, #122 ), #123, .T. );
#62 = PRODUCT( '_K0390.16X100', '_K0390.16X100', 'PART-_K0390.16X100-DESC', ( #124 ) );
#63 = PRODUCT_DEFINITION( 'NONE', 'NONE', #125, #2 );
#64 = MANIFOLD_SOLID_BREP( '_K0390.16X100', #126 );
#65 = AXIS2_PLACEMENT_3D( '', #127, #128, #129 );
#68 = LENGTH_MEASURE_WITH_UNIT( LENGTH_MEASURE( 1.00000000000000 ), #130 );
#71 = DIMENSIONAL_EXPONENTS( 1.00000000000000, 0.000000000000000, 0.000000000000000, 0.000000000000000, 0.000000000000000, 0.000000000000000, 0.000000000000000 );
#73 = DIMENSIONAL_EXPONENTS( 0.000000000000000, 0.000000000000000, 0.000000000000000, 0.000000000000000, 0.000000000000000, 0.000000000000000, 0.000000000000000 );
#79 = SURFACE_STYLE_USAGE( .BOTH., #131 );
#80 = FACE_OUTER_BOUND( '', #132, .T. );
#81 = PLANE( '', #133 );
#82 = SURFACE_STYLE_USAGE( .BOTH., #134 );
#83 = FACE_OUTER_BOUND( '', #135, .T. );
#84 = CONICAL_SURFACE( '', #136, 6.77300000000000, 0.785398163400000 );
#85 = SURFACE_STYLE_USAGE( .BOTH., #137 );
#86 = FACE_OUTER_BOUND( '', #138, .T. );
#87 = FACE_OUTER_BOUND( '', #139, .T. );
#88 = CYLINDRICAL_SURFACE( '', #140, 8.00000000000000 );
#89 = SURFACE_STYLE_USAGE( .BOTH., #141 );
#90 = FACE_OUTER_BOUND( '', #142, .T. );
#91 = FACE_BOUND( '', #143, .T. );
#92 = PLANE( '', #144 );
#93 = SURFACE_STYLE_USAGE( .BOTH., #145 );
#94 = FACE_OUTER_BOUND( '', #146, .T. );
#95 = PLANE( '', #147 );
#96 = SURFACE_STYLE_USAGE( .BOTH., #148 );
#97 = FACE_OUTER_BOUND( '', #149, .T. );
#98 = FACE_OUTER_BOUND( '', #150, .T. );
#99 = CYLINDRICAL_SURFACE( '', #151, 5.50000000000000 );
#100 = SURFACE_STYLE_USAGE( .BOTH., #152 );
#101 = FACE_OUTER_BOUND( '', #153, .T. );
#102 = CONICAL_SURFACE( '', #154, 6.77300000000000, 0.785398163400000 );
#103 = SURFACE_STYLE_USAGE( .BOTH., #155 );
#104 = FACE_OUTER_BOUND( '', #156, .T. );
#105 = FACE_OUTER_BOUND( '', #157, .T. );
#106 = CYLINDRICAL_SURFACE( '', #158, 6.00000000000000 );
#107 = SURFACE_STYLE_USAGE( .BOTH., #159 );
#108 = FACE_OUTER_BOUND( '', #160, .T. );
#109 = PLANE( '', #161 );
#110 = SURFACE_STYLE_USAGE( .BOTH., #162 );
#111 = FACE_OUTER_BOUND( '', #163, .T. );
#112 = PLANE( '', #164 );
#113 = SURFACE_STYLE_USAGE( .BOTH., #165 );
#114 = FACE_BOUND( '', #166, .T. );
#115 = FACE_OUTER_BOUND( '', #167, .T. );
#116 = SPHERICAL_SURFACE( '', #168, 10.0644000000000 );
#117 = SURFACE_STYLE_USAGE( .BOTH., #169 );
#118 = FACE_OUTER_BOUND( '', #170, .T. );
#119 = PLANE( '', #171 );
#120 = SURFACE_STYLE_USAGE( .BOTH., #172 );
#121 = FACE_BOUND( '', #173, .T. );
#122 = FACE_OUTER_BOUND( '', #174, .T. );
#123 = CONICAL_SURFACE( '', #175, 8.00000000000000, 1.13808724680000 );
#124 = PRODUCT_CONTEXT( '', #23, 'mechanical' );
#125 = PRODUCT_DEFINITION_FORMATION_WITH_SPECIFIED_SOURCE( ' ', 'NONE', #62, .NOT_KNOWN. );
#126 = CLOSED_SHELL( '', ( #53, #59, #57, #51, #43, #47, #61, #41, #49, #55, #39, #45, #37 ) );
#127 = CARTESIAN_POINT( '', ( 0.000000000000000, 0.000000000000000, 0.000000000000000 ) );
#128 = DIRECTION( '', ( 0.000000000000000, 0.000000000000000, 1.00000000000000 ) );
#129 = DIRECTION( '', ( 1.00000000000000, 0.000000000000000, 0.000000000000000 ) );
#130 =  ( LENGTH_UNIT(  )NAMED_UNIT( #71 )SI_UNIT( .MILLI., .METRE. ) );
#131 = SURFACE_SIDE_STYLE( '', ( #177 ) );
#132 = EDGE_LOOP( '', ( #178, #179, #180, #181 ) );
#133 = AXIS2_PLACEMENT_3D( '', #182, #183, #184 );
#134 = SURFACE_SIDE_STYLE( '', ( #185 ) );
#135 = EDGE_LOOP( '', ( #186, #187, #188, #189 ) );
#136 = AXIS2_PLACEMENT_3D( '', #190, #191, #192 );
#137 = SURFACE_SIDE_STYLE( '', ( #193 ) );
#138 = EDGE_LOOP( '', ( #194 ) );
#139 = EDGE_LOOP( '', ( #195, #196, #197, #198, #199, #200, #201, #202 ) );
#140 = AXIS2_PLACEMENT_3D( '', #203, #204, #205 );
#141 = SURFACE_SIDE_STYLE( '', ( #206 ) );
#142 = EDGE_LOOP( '', ( #207 ) );
#143 = EDGE_LOOP( '', ( #208 ) );
#144 = AXIS2_PLACEMENT_3D( '', #209, #210, #211 );
#145 = SURFACE_SIDE_STYLE( '', ( #212 ) );
#146 = EDGE_LOOP( '', ( #213, #214 ) );
#147 = AXIS2_PLACEMENT_3D( '', #215, #216, #217 );
#148 = SURFACE_SIDE_STYLE( '', ( #218 ) );
#149 = EDGE_LOOP( '', ( #219 ) );
#150 = EDGE_LOOP( '', ( #220 ) );
#151 = AXIS2_PLACEMENT_3D( '', #221, #222, #223 );
#152 = SURFACE_SIDE_STYLE( '', ( #224 ) );
#153 = EDGE_LOOP( '', ( #225, #226, #227, #228 ) );
#154 = AXIS2_PLACEMENT_3D( '', #229, #230, #231 );
#155 = SURFACE_SIDE_STYLE( '', ( #232 ) );
#156 = EDGE_LOOP( '', ( #233 ) );
#157 = EDGE_LOOP( '', ( #234 ) );
#158 = AXIS2_PLACEMENT_3D( '', #235, #236, #237 );
#159 = SURFACE_SIDE_STYLE( '', ( #238 ) );
#160 = EDGE_LOOP( '', ( #239, #240, #241, #242, #243, #244 ) );
#161 = AXIS2_PLACEMENT_3D( '', #245, #246, #247 );
#162 = SURFACE_SIDE_STYLE( '', ( #248 ) );
#163 = EDGE_LOOP( '', ( #249, #250 ) );
#164 = AXIS2_PLACEMENT_3D( '', #251, #252, #253 );
#165 = SURFACE_SIDE_STYLE( '', ( #254 ) );
#166 = VERTEX_LOOP( '', #255 );
#167 = EDGE_LOOP( '', ( #256 ) );
#168 = AXIS2_PLACEMENT_3D( '', #257, #258, #259 );
#169 = SURFACE_SIDE_STYLE( '', ( #260 ) );
#170 = EDGE_LOOP( '', ( #261, #262, #263, #264, #265, #266 ) );
#171 = AXIS2_PLACEMENT_3D( '', #267, #268, #269 );
#172 = SURFACE_SIDE_STYLE( '', ( #270 ) );
#173 = EDGE_LOOP( '', ( #271 ) );
#174 = EDGE_LOOP( '', ( #272 ) );
#175 = AXIS2_PLACEMENT_3D( '', #273, #274, #275 );
#177 = SURFACE_STYLE_FILL_AREA( #276 );
#178 = ORIENTED_EDGE( '', *, *, #277, .T. );
#179 = ORIENTED_EDGE( '', *, *, #278, .T. );
#180 = ORIENTED_EDGE( '', *, *, #279, .T. );
#181 = ORIENTED_EDGE( '', *, *, #280, .T. );
#182 = CARTESIAN_POINT( '', ( 3.00000000000000, 0.000000000000000, 0.000000000000000 ) );
#183 = DIRECTION( '', ( -1.00000000000000, 0.000000000000000, 0.000000000000000 ) );
#184 = DIRECTION( '', ( 0.000000000000000, 0.000000000000000, 1.00000000000000 ) );
#185 = SURFACE_STYLE_FILL_AREA( #281 );
#186 = ORIENTED_EDGE( '', *, *, #282, .F. );
#187 = ORIENTED_EDGE( '', *, *, #283, .T. );
#188 = ORIENTED_EDGE( '', *, *, #284, .T. );
#189 = ORIENTED_EDGE( '', *, *, #285, .T. );
#190 = CARTESIAN_POINT( '', ( 0.000000000000000, 1.32286613533378E-14, 0.000000000000000 ) );
#191 = DIRECTION( '', ( 1.00000000000000, -6.12323399573676E-17, -0.000000000000000 ) );
#192 = DIRECTION( '', ( 6.12323399573676E-17, 1.00000000000000, 0.000000000000000 ) );
#193 = SURFACE_STYLE_FILL_AREA( #286 );
#194 = ORIENTED_EDGE( '', *, *, #287, .F. );
#195 = ORIENTED_EDGE( '', *, *, #282, .T. );
#196 = ORIENTED_EDGE( '', *, *, #288, .T. );
#197 = ORIENTED_EDGE( '', *, *, #277, .F. );
#198 = ORIENTED_EDGE( '', *, *, #289, .T. );
#199 = ORIENTED_EDGE( '', *, *, #290, .T. );
#200 = ORIENTED_EDGE( '', *, *, #291, .T. );
#201 = ORIENTED_EDGE( '', *, *, #279, .F. );
#202 = ORIENTED_EDGE( '', *, *, #292, .T. );
#203 = CARTESIAN_POINT( '', ( 100.000000000000, 7.10542735760100E-15, 0.000000000000000 ) );
#204 = DIRECTION( '', ( -1.00000000000000, 6.12323399573676E-17, 0.000000000000000 ) );
#205 = DIRECTION( '', ( 6.12323399573676E-17, 1.00000000000000, 0.000000000000000 ) );
#206 = SURFACE_STYLE_FILL_AREA( #293 );
#207 = ORIENTED_EDGE( '', *, *, #294, .F. );
#208 = ORIENTED_EDGE( '', *, *, #295, .T. );
#209 = CARTESIAN_POINT( '', ( 95.0000000000000, 5.50000000000001, 0.000000000000000 ) );
#210 = DIRECTION( '', ( 1.00000000000000, -6.12323399573676E-17, -0.000000000000000 ) );
#211 = DIRECTION( '', ( 6.12323399573676E-17, 1.00000000000000, 0.000000000000000 ) );
#212 = SURFACE_STYLE_FILL_AREA( #296 );
#213 = ORIENTED_EDGE( '', *, *, #297, .F. );
#214 = ORIENTED_EDGE( '', *, *, #298, .F. );
#215 = CARTESIAN_POINT( '', ( -2.07363319265626E-16, 1.32286613533378E-14, 0.000000000000000 ) );
#216 = DIRECTION( '', ( 1.00000000000000, -6.12323399573676E-17, -0.000000000000000 ) );
#217 = DIRECTION( '', ( 6.12323399573676E-17, 1.00000000000000, 0.000000000000000 ) );
#218 = SURFACE_STYLE_FILL_AREA( #299 );
#219 = ORIENTED_EDGE( '', *, *, #295, .F. );
#220 = ORIENTED_EDGE( '', *, *, #300, .T. );
#221 = CARTESIAN_POINT( '', ( 100.000000000000, 7.10542735760100E-15, 0.000000000000000 ) );
#222 = DIRECTION( '', ( -1.00000000000000, 6.12323399573676E-17, 0.000000000000000 ) );
#223 = DIRECTION( '', ( 6.12323399573676E-17, 1.00000000000000, 0.000000000000000 ) );
#224 = SURFACE_STYLE_FILL_AREA( #301 );
#225 = ORIENTED_EDGE( '', *, *, #297, .T. );
#226 = ORIENTED_EDGE( '', *, *, #302, .T. );
#227 = ORIENTED_EDGE( '', *, *, #290, .F. );
#228 = ORIENTED_EDGE( '', *, *, #303, .T. );
#229 = CARTESIAN_POINT( '', ( 0.000000000000000, 1.32286613533378E-14, 0.000000000000000 ) );
#230 = DIRECTION( '', ( 1.00000000000000, -6.12323399573676E-17, -0.000000000000000 ) );
#231 = DIRECTION( '', ( 6.12323399573676E-17, 1.00000000000000, 0.000000000000000 ) );
#232 = SURFACE_STYLE_FILL_AREA( #304 );
#233 = ORIENTED_EDGE( '', *, *, #305, .F. );
#234 = ORIENTED_EDGE( '', *, *, #294, .T. );
#235 = CARTESIAN_POINT( '', ( 100.000000000000, 7.10542735760100E-15, 0.000000000000000 ) );
#236 = DIRECTION( '', ( -1.00000000000000, 6.12323399573677E-17, 0.000000000000000 ) );
#237 = DIRECTION( '', ( 6.12323399573677E-17, 1.00000000000000, 0.000000000000000 ) );
#238 = SURFACE_STYLE_FILL_AREA( #306 );
#239 = ORIENTED_EDGE( '', *, *, #302, .F. );
#240 = ORIENTED_EDGE( '', *, *, #298, .T. );
#241 = ORIENTED_EDGE( '', *, *, #303, .F. );
#242 = ORIENTED_EDGE( '', *, *, #289, .F. );
#243 = ORIENTED_EDGE( '', *, *, #280, .F. );
#244 = ORIENTED_EDGE( '', *, *, #291, .F. );
#245 = CARTESIAN_POINT( '', ( 3.00000000000000, 0.900000000000013, 10.5000000000000 ) );
#246 = DIRECTION( '', ( 0.000000000000000, 1.00000000000000, 0.000000000000000 ) );
#247 = DIRECTION( '', ( 0.000000000000000, -0.000000000000000, 1.00000000000000 ) );
#248 = SURFACE_STYLE_FILL_AREA( #307 );
#249 = ORIENTED_EDGE( '', *, *, #284, .F. );
#250 = ORIENTED_EDGE( '', *, *, #308, .F. );
#251 = CARTESIAN_POINT( '', ( -2.07363319265626E-16, 1.32286613533378E-14, 0.000000000000000 ) );
#252 = DIRECTION( '', ( 1.00000000000000, -6.12323399573676E-17, -0.000000000000000 ) );
#253 = DIRECTION( '', ( 6.12323399573676E-17, 1.00000000000000, 0.000000000000000 ) );
#254 = SURFACE_STYLE_FILL_AREA( #309 );
#255 = VERTEX_POINT( '', #310 );
#256 = ORIENTED_EDGE( '', *, *, #305, .T. );
#257 = CARTESIAN_POINT( '', ( 89.9356000000002, 5.81132364452230E-14, 0.000000000000000 ) );
#258 = DIRECTION( '', ( 1.00000000000000, 0.000000000000000, 0.000000000000000 ) );
#259 = DIRECTION( '', ( 0.000000000000000, -1.00000000000000, 0.000000000000000 ) );
#260 = SURFACE_STYLE_FILL_AREA( #311 );
#261 = ORIENTED_EDGE( '', *, *, #308, .T. );
#262 = ORIENTED_EDGE( '', *, *, #283, .F. );
#263 = ORIENTED_EDGE( '', *, *, #292, .F. );
#264 = ORIENTED_EDGE( '', *, *, #278, .F. );
#265 = ORIENTED_EDGE( '', *, *, #288, .F. );
#266 = ORIENTED_EDGE( '', *, *, #285, .F. );
#267 = CARTESIAN_POINT( '', ( 3.00000000000000, -0.899999999999987, -10.5000000000000 ) );
#268 = DIRECTION( '', ( 0.000000000000000, -1.00000000000000, 0.000000000000000 ) );
#269 = DIRECTION( '', ( 0.000000000000000, 0.000000000000000, -1.00000000000000 ) );
#270 = SURFACE_STYLE_FILL_AREA( #312 );
#271 = ORIENTED_EDGE( '', *, *, #300, .F. );
#272 = ORIENTED_EDGE( '', *, *, #287, .T. );
#273 = CARTESIAN_POINT( '', ( 88.0000000000000, 7.84021543708941E-15, 0.000000000000000 ) );
#274 = DIRECTION( '', ( -1.00000000000000, 6.12323399573676E-17, -0.000000000000000 ) );
#275 = DIRECTION( '', ( -6.12323399573676E-17, -1.00000000000000, 0.000000000000000 ) );
#276 = FILL_AREA_STYLE( '', ( #313 ) );
#277 = EDGE_CURVE( '', #314, #315, #316, .T. );
#278 = EDGE_CURVE( '', #315, #317, #318, .T. );
#279 = EDGE_CURVE( '', #317, #319, #320, .T. );
#280 = EDGE_CURVE( '', #319, #314, #321, .T. );
#281 = FILL_AREA_STYLE( '', ( #322 ) );
#282 = EDGE_CURVE( '', #323, #324, #325, .T. );
#283 = EDGE_CURVE( '', #323, #326, #327, .T. );
#284 = EDGE_CURVE( '', #326, #328, #329, .T. );
#285 = EDGE_CURVE( '', #328, #324, #330, .T. );
#286 = FILL_AREA_STYLE( '', ( #331 ) );
#287 = EDGE_CURVE( '', #332, #332, #333, .T. );
#288 = EDGE_CURVE( '', #324, #315, #334, .T. );
#289 = EDGE_CURVE( '', #314, #335, #336, .F. );
#290 = EDGE_CURVE( '', #335, #337, #338, .T. );
#291 = EDGE_CURVE( '', #337, #319, #339, .T. );
#292 = EDGE_CURVE( '', #317, #323, #340, .F. );
#293 = FILL_AREA_STYLE( '', ( #341 ) );
#294 = EDGE_CURVE( '', #342, #342, #343, .T. );
#295 = EDGE_CURVE( '', #344, #344, #345, .T. );
#296 = FILL_AREA_STYLE( '', ( #346 ) );
#297 = EDGE_CURVE( '', #347, #348, #349, .T. );
#298 = EDGE_CURVE( '', #348, #347, #350, .T. );
#299 = FILL_AREA_STYLE( '', ( #351 ) );
#300 = EDGE_CURVE( '', #352, #352, #353, .T. );
#301 = FILL_AREA_STYLE( '', ( #354 ) );
#302 = EDGE_CURVE( '', #348, #337, #355, .T. );
#303 = EDGE_CURVE( '', #335, #347, #356, .T. );
#304 = FILL_AREA_STYLE( '', ( #357 ) );
#305 = EDGE_CURVE( '', #358, #358, #359, .T. );
#306 = FILL_AREA_STYLE( '', ( #360 ) );
#307 = FILL_AREA_STYLE( '', ( #361 ) );
#308 = EDGE_CURVE( '', #328, #326, #362, .T. );
#309 = FILL_AREA_STYLE( '', ( #363 ) );
#310 = CARTESIAN_POINT( '', ( 100.000000000000, 5.68807029206892E-14, 0.000000000000000 ) );
#311 = FILL_AREA_STYLE( '', ( #364 ) );
#312 = FILL_AREA_STYLE( '', ( #365 ) );
#313 = FILL_AREA_STYLE_COLOUR( '', #366 );
#314 = VERTEX_POINT( '', #367 );
#315 = VERTEX_POINT( '', #368 );
#316 = CIRCLE( '', #369, 8.00000000000000 );
#317 = VERTEX_POINT( '', #370 );
#318 = LINE( '', #371, #372 );
#319 = VERTEX_POINT( '', #373 );
#320 = CIRCLE( '', #374, 8.00000000000000 );
#321 = LINE( '', #375, #376 );
#322 = FILL_AREA_STYLE_COLOUR( '', #377 );
#323 = VERTEX_POINT( '', #378 );
#324 = VERTEX_POINT( '', #379 );
#325 = CIRCLE( '', #380, 8.00000000000000 );
#326 = VERTEX_POINT( '', #381 );
#327 = B_SPLINE_CURVE_WITH_KNOTS( '', 3, ( #382, #383, #384, #385 ), .UNSPECIFIED., .F., .F., ( 4, 4 ), ( 0.0136362270213629, 0.0153780387903499 ), .UNSPECIFIED. );
#328 = VERTEX_POINT( '', #386 );
#329 = CIRCLE( '', #387, 6.77300000000000 );
#330 = B_SPLINE_CURVE_WITH_KNOTS( '', 3, ( #388, #389, #390, #391 ), .UNSPECIFIED., .F., .F., ( 4, 4 ), ( 0.0333752047769191, 0.0351188466568865 ), .UNSPECIFIED. );
#331 = FILL_AREA_STYLE_COLOUR( '', #392 );
#332 = VERTEX_POINT( '', #393 );
#333 = CIRCLE( '', #394, 8.00000000000000 );
#334 = LINE( '', #395, #396 );
#335 = VERTEX_POINT( '', #397 );
#336 = LINE( '', #398, #399 );
#337 = VERTEX_POINT( '', #400 );
#338 = CIRCLE( '', #401, 8.00000000000000 );
#339 = LINE( '', #402, #403 );
#340 = LINE( '', #404, #405 );
#341 = FILL_AREA_STYLE_COLOUR( '', #406 );
#342 = VERTEX_POINT( '', #407 );
#343 = CIRCLE( '', #408, 6.00000000000000 );
#344 = VERTEX_POINT( '', #409 );
#345 = CIRCLE( '', #410, 5.50000000000000 );
#346 = FILL_AREA_STYLE_COLOUR( '', #411 );
#347 = VERTEX_POINT( '', #412 );
#348 = VERTEX_POINT( '', #413 );
#349 = CIRCLE( '', #414, 6.77300000000000 );
#350 = LINE( '', #415, #416 );
#351 = FILL_AREA_STYLE_COLOUR( '', #417 );
#352 = VERTEX_POINT( '', #418 );
#353 = CIRCLE( '', #419, 5.50000000000000 );
#354 = FILL_AREA_STYLE_COLOUR( '', #420 );
#355 = B_SPLINE_CURVE_WITH_KNOTS( '', 3, ( #421, #422, #423, #424 ), .UNSPECIFIED., .F., .F., ( 4, 4 ), ( 0.0333752047769191, 0.0351188466568865 ), .UNSPECIFIED. );
#356 = B_SPLINE_CURVE_WITH_KNOTS( '', 3, ( #425, #426, #427, #428 ), .UNSPECIFIED., .F., .F., ( 4, 4 ), ( 0.0136362270213629, 0.0153780387903499 ), .UNSPECIFIED. );
#357 = FILL_AREA_STYLE_COLOUR( '', #429 );
#358 = VERTEX_POINT( '', #430 );
#359 = CIRCLE( '', #431, 6.00000000000000 );
#360 = FILL_AREA_STYLE_COLOUR( '', #432 );
#361 = FILL_AREA_STYLE_COLOUR( '', #433 );
#362 = LINE( '', #434, #435 );
#363 = FILL_AREA_STYLE_COLOUR( '', #436 );
#364 = FILL_AREA_STYLE_COLOUR( '', #437 );
#365 = FILL_AREA_STYLE_COLOUR( '', #438 );
#366 = COLOUR_RGB( '', 0.689999997600000, 0.689999997600000, 0.689999997600000 );
#367 = CARTESIAN_POINT( '', ( 3.00000000000000, 0.900000000000013, -7.94921379760288 ) );
#368 = CARTESIAN_POINT( '', ( 3.00000000000000, -0.899999999999987, -7.94921379760288 ) );
#369 = AXIS2_PLACEMENT_3D( '', #439, #440, #441 );
#370 = CARTESIAN_POINT( '', ( 3.00000000000000, -0.899999999999987, 7.94921379760288 ) );
#371 = CARTESIAN_POINT( '', ( 3.00000000000000, -0.899999999999987, -10.5000000000000 ) );
#372 = VECTOR( '', #442, 1000.00000000000 );
#373 = CARTESIAN_POINT( '', ( 3.00000000000000, 0.900000000000013, 7.94921379760288 ) );
#374 = AXIS2_PLACEMENT_3D( '', #443, #444, #445 );
#375 = CARTESIAN_POINT( '', ( 3.00000000000000, 0.900000000000013, 10.5000000000000 ) );
#376 = VECTOR( '', #446, 1000.00000000000 );
#377 = COLOUR_RGB( '', 0.689999997600000, 0.689999997600000, 0.689999997600000 );
#378 = CARTESIAN_POINT( '', ( 1.22700000000001, -0.899999999999981, 7.94921379760288 ) );
#379 = CARTESIAN_POINT( '', ( 1.22700000000001, -0.899999999999981, -7.94921379760288 ) );
#380 = AXIS2_PLACEMENT_3D( '', #447, #448, #449 );
#381 = CARTESIAN_POINT( '', ( 0.000000000000000, -0.899999999999987, 6.71293743453639 ) );
#382 = CARTESIAN_POINT( '', ( 1.22700000000001, -0.899999999999987, 7.94921379760288 ) );
#383 = CARTESIAN_POINT( '', ( 0.817760310665018, -0.899999999999987, 7.53735954408323 ) );
#384 = CARTESIAN_POINT( '', ( 0.408716531538591, -0.899999999999987, 7.12531086943078 ) );
#385 = CARTESIAN_POINT( '', ( -4.23240815688017E-16, -0.899999999999987, 6.71293743453639 ) );
#386 = CARTESIAN_POINT( '', ( 0.000000000000000, -0.899999999999987, -6.71293743453639 ) );
#387 = AXIS2_PLACEMENT_3D( '', #450, #451, #452 );
#388 = CARTESIAN_POINT( '', ( -1.07703154085691E-15, -0.899999999999987, -6.71293743453639 ) );
#389 = CARTESIAN_POINT( '', ( 0.408715634480827, -0.899999999999987, -7.12530996434678 ) );
#390 = CARTESIAN_POINT( '', ( 0.817759551175691, -0.899999999999987, -7.53735877974165 ) );
#391 = CARTESIAN_POINT( '', ( 1.22700000000001, -0.899999999999987, -7.94921379760288 ) );
#392 = COLOUR_RGB( '', 0.689999997600000, 0.689999997600000, 0.689999997600000 );
#393 = CARTESIAN_POINT( '', ( 88.0000000000000, 8.00000000000001, 0.000000000000000 ) );
#394 = AXIS2_PLACEMENT_3D( '', #453, #454, #455 );
#395 = CARTESIAN_POINT( '', ( 100.000000000000, -0.899999999999987, -7.94921379760288 ) );
#396 = VECTOR( '', #456, 1000.00000000000 );
#397 = CARTESIAN_POINT( '', ( 1.22700000000001, 0.900000000000019, -7.94921379760288 ) );
#398 = CARTESIAN_POINT( '', ( 100.000000000000, 0.900000000000013, -7.94921379760288 ) );
#399 = VECTOR( '', #457, 1000.00000000000 );
#400 = CARTESIAN_POINT( '', ( 1.22700000000001, 0.900000000000019, 7.94921379760288 ) );
#401 = AXIS2_PLACEMENT_3D( '', #458, #459, #460 );
#402 = CARTESIAN_POINT( '', ( 100.000000000000, 0.900000000000013, 7.94921379760288 ) );
#403 = VECTOR( '', #461, 1000.00000000000 );
#404 = CARTESIAN_POINT( '', ( 100.000000000000, -0.899999999999987, 7.94921379760288 ) );
#405 = VECTOR( '', #462, 1000.00000000000 );
#406 = COLOUR_RGB( '', 0.689999997600000, 0.689999997600000, 0.689999997600000 );
#407 = CARTESIAN_POINT( '', ( 95.0000000000000, 6.00000000000001, 0.000000000000000 ) );
#408 = AXIS2_PLACEMENT_3D( '', #463, #464, #465 );
#409 = CARTESIAN_POINT( '', ( 95.0000000000000, 5.50000000000001, 0.000000000000000 ) );
#410 = AXIS2_PLACEMENT_3D( '', #466, #467, #468 );
#411 = COLOUR_RGB( '', 0.689999997600000, 0.689999997600000, 0.689999997600000 );
#412 = CARTESIAN_POINT( '', ( 0.000000000000000, 0.900000000000013, -6.71293743453639 ) );
#413 = CARTESIAN_POINT( '', ( 0.000000000000000, 0.900000000000013, 6.71293743453639 ) );
#414 = AXIS2_PLACEMENT_3D( '', #469, #470, #471 );
#415 = CARTESIAN_POINT( '', ( 0.000000000000000, 0.900000000000013, 10.5000000000000 ) );
#416 = VECTOR( '', #472, 1000.00000000000 );
#417 = COLOUR_RGB( '', 0.689999997600000, 0.689999997600000, 0.689999997600000 );
#418 = CARTESIAN_POINT( '', ( 89.1547600000000, 5.50000000000001, 0.000000000000000 ) );
#419 = AXIS2_PLACEMENT_3D( '', #473, #474, #475 );
#420 = COLOUR_RGB( '', 0.689999997600000, 0.689999997600000, 0.689999997600000 );
#421 = CARTESIAN_POINT( '', ( 1.57996991932588E-15, 0.900000000000013, 6.71293743453639 ) );
#422 = CARTESIAN_POINT( '', ( 0.408715634480828, 0.900000000000013, 7.12530996434678 ) );
#423 = CARTESIAN_POINT( '', ( 0.817759551175691, 0.900000000000013, 7.53735877974164 ) );
#424 = CARTESIAN_POINT( '', ( 1.22700000000001, 0.900000000000013, 7.94921379760288 ) );
#425 = CARTESIAN_POINT( '', ( 1.22700000000001, 0.900000000000013, -7.94921379760288 ) );
#426 = CARTESIAN_POINT( '', ( 0.817760310665018, 0.900000000000013, -7.53735954408323 ) );
#427 = CARTESIAN_POINT( '', ( 0.408716531538592, 0.900000000000013, -7.12531086943078 ) );
#428 = CARTESIAN_POINT( '', ( -7.96123082478959E-16, 0.900000000000013, -6.71293743453639 ) );
#429 = COLOUR_RGB( '', 0.689999997600000, 0.689999997600000, 0.689999997600000 );
#430 = CARTESIAN_POINT( '', ( 98.0159556456384, 6.00000000000001, 0.000000000000000 ) );
#431 = AXIS2_PLACEMENT_3D( '', #476, #477, #478 );
#432 = COLOUR_RGB( '', 0.689999997600000, 0.689999997600000, 0.689999997600000 );
#433 = COLOUR_RGB( '', 0.689999997600000, 0.689999997600000, 0.689999997600000 );
#434 = CARTESIAN_POINT( '', ( 0.000000000000000, -0.899999999999987, -10.5000000000000 ) );
#435 = VECTOR( '', #479, 1000.00000000000 );
#436 = COLOUR_RGB( '', 0.689999997600000, 0.689999997600000, 0.689999997600000 );
#437 = COLOUR_RGB( '', 0.689999997600000, 0.689999997600000, 0.689999997600000 );
#438 = COLOUR_RGB( '', 0.689999997600000, 0.689999997600000, 0.689999997600000 );
#439 = CARTESIAN_POINT( '', ( 3.00000000000000, 1.30449643334657E-14, 0.000000000000000 ) );
#440 = DIRECTION( '', ( -1.00000000000000, 0.000000000000000, 0.000000000000000 ) );
#441 = DIRECTION( '', ( 0.000000000000000, 0.000000000000000, 1.00000000000000 ) );
#442 = DIRECTION( '', ( 0.000000000000000, 0.000000000000000, 1.00000000000000 ) );
#443 = CARTESIAN_POINT( '', ( 3.00000000000000, 1.30449643334657E-14, 0.000000000000000 ) );
#444 = DIRECTION( '', ( -1.00000000000000, 0.000000000000000, 0.000000000000000 ) );
#445 = DIRECTION( '', ( 0.000000000000000, 0.000000000000000, 1.00000000000000 ) );
#446 = DIRECTION( '', ( 0.000000000000000, 0.000000000000000, -1.00000000000000 ) );
#447 = CARTESIAN_POINT( '', ( 1.22700000000001, 1.31535292722101E-14, 0.000000000000000 ) );
#448 = DIRECTION( '', ( 1.00000000000000, -6.12323399573676E-17, -0.000000000000000 ) );
#449 = DIRECTION( '', ( 6.12323399573676E-17, 1.00000000000000, 0.000000000000000 ) );
#450 = CARTESIAN_POINT( '', ( 0.000000000000000, 1.32286613533378E-14, 0.000000000000000 ) );
#451 = DIRECTION( '', ( 1.00000000000000, -6.12323399573676E-17, -0.000000000000000 ) );
#452 = DIRECTION( '', ( 6.12323399573676E-17, 1.00000000000000, 0.000000000000000 ) );
#453 = CARTESIAN_POINT( '', ( 88.0000000000000, 7.84021543708941E-15, 0.000000000000000 ) );
#454 = DIRECTION( '', ( 1.00000000000000, -6.12323399573676E-17, -0.000000000000000 ) );
#455 = DIRECTION( '', ( 6.12323399573676E-17, 1.00000000000000, 0.000000000000000 ) );
#456 = DIRECTION( '', ( 1.00000000000000, -6.12323399573676E-17, -0.000000000000000 ) );
#457 = DIRECTION( '', ( 1.00000000000000, -6.12323399573676E-17, -0.000000000000000 ) );
#458 = CARTESIAN_POINT( '', ( 1.22700000000001, 1.31535292722101E-14, 0.000000000000000 ) );
#459 = DIRECTION( '', ( 1.00000000000000, -6.12323399573676E-17, -0.000000000000000 ) );
#460 = DIRECTION( '', ( 6.12323399573676E-17, 1.00000000000000, 0.000000000000000 ) );
#461 = DIRECTION( '', ( 1.00000000000000, -6.12323399573676E-17, -0.000000000000000 ) );
#462 = DIRECTION( '', ( 1.00000000000000, -6.12323399573676E-17, -0.000000000000000 ) );
#463 = CARTESIAN_POINT( '', ( 95.0000000000000, 7.41158905738784E-15, 0.000000000000000 ) );
#464 = DIRECTION( '', ( 1.00000000000000, -6.12323399573677E-17, -0.000000000000000 ) );
#465 = DIRECTION( '', ( 6.12323399573677E-17, 1.00000000000000, 0.000000000000000 ) );
#466 = CARTESIAN_POINT( '', ( 95.0000000000000, 7.41158905738784E-15, 0.000000000000000 ) );
#467 = DIRECTION( '', ( 1.00000000000000, -6.12323399573676E-17, -0.000000000000000 ) );
#468 = DIRECTION( '', ( 6.12323399573676E-17, 1.00000000000000, 0.000000000000000 ) );
#469 = CARTESIAN_POINT( '', ( 0.000000000000000, 1.32286613533378E-14, 0.000000000000000 ) );
#470 = DIRECTION( '', ( 1.00000000000000, -6.12323399573676E-17, -0.000000000000000 ) );
#471 = DIRECTION( '', ( 6.12323399573676E-17, 1.00000000000000, 0.000000000000000 ) );
#472 = DIRECTION( '', ( 0.000000000000000, 0.000000000000000, -1.00000000000000 ) );
#473 = CARTESIAN_POINT( '', ( 89.1547600000000, 7.76950678020024E-15, 0.000000000000000 ) );
#474 = DIRECTION( '', ( 1.00000000000000, -6.12323399573676E-17, -0.000000000000000 ) );
#475 = DIRECTION( '', ( 6.12323399573676E-17, 1.00000000000000, 0.000000000000000 ) );
#476 = CARTESIAN_POINT( '', ( 98.0159556456384, 7.22691503599777E-15, 0.000000000000000 ) );
#477 = DIRECTION( '', ( 1.00000000000000, -6.12323399573677E-17, -0.000000000000000 ) );
#478 = DIRECTION( '', ( 6.12323399573677E-17, 1.00000000000000, 0.000000000000000 ) );
#479 = DIRECTION( '', ( 0.000000000000000, 0.000000000000000, 1.00000000000000 ) );
ENDSEC;
END-ISO-10303-21;
