ISO-10303-21;
HEADER;
FILE_DESCRIPTION( ( 'STEP AP214' ), '1' );
FILE_NAME( '//goodhand-server/Shared Folders/GoodHand Data/Kipp CAD/K0390/K0390.08X35.stp', '2020-12-07T10:14:18', ( '' ), ( '' ), ' ', 'PARTsolutions', ' ' );
FILE_SCHEMA( ( 'AUTOMOTIVE_DESIGN { 1 0 10303 214 1 1 1 1 }' ) );
ENDSEC;
DATA;
#1 = MECHANICAL_DESIGN_GEOMETRIC_PRESENTATION_REPRESENTATION( ' ', ( #10, #11, #12, #13, #14, #15, #16, #17, #18, #19, #20, #21, #22 ), #6 );
#2 = PRODUCT_DEFINITION_CONTEXT( '', #23, 'design' );
#3 = APPLICATION_PROTOCOL_DEFINITION( 'international standard', 'automotive_design', 2001, #23 );
#4 = PRODUCT_CATEGORY_RELATIONSHIP( 'NONE', 'NONE', #24, #25 );
#5 = SHAPE_DEFINITION_REPRESENTATION( #26, #27 );
#6 =  ( GEOMETRIC_REPRESENTATION_CONTEXT( 3 )GLOBAL_UNCERTAINTY_ASSIGNED_CONTEXT( ( #30 ) )GLOBAL_UNIT_ASSIGNED_CONTEXT( ( #32, #33, #34 ) )REPRESENTATION_CONTEXT( 'NONE', 'WORKSPACE' ) );
#10 = STYLED_ITEM( '', ( #36 ), #37 );
#11 = STYLED_ITEM( '', ( #38 ), #39 );
#12 = STYLED_ITEM( '', ( #40 ), #41 );
#13 = STYLED_ITEM( '', ( #42 ), #43 );
#14 = STYLED_ITEM( '', ( #44 ), #45 );
#15 = STYLED_ITEM( '', ( #46 ), #47 );
#16 = STYLED_ITEM( '', ( #48 ), #49 );
#17 = STYLED_ITEM( '', ( #50 ), #51 );
#18 = STYLED_ITEM( '', ( #52 ), #53 );
#19 = STYLED_ITEM( '', ( #54 ), #55 );
#20 = STYLED_ITEM( '', ( #56 ), #57 );
#21 = STYLED_ITEM( '', ( #58 ), #59 );
#22 = STYLED_ITEM( '', ( #60 ), #61 );
#23 = APPLICATION_CONTEXT( 'core data for automotive mechanical design processes' );
#24 = PRODUCT_CATEGORY( 'part', 'NONE' );
#25 = PRODUCT_RELATED_PRODUCT_CATEGORY( 'detail', ' ', ( #62 ) );
#26 = PRODUCT_DEFINITION_SHAPE( 'NONE', 'NONE', #63 );
#27 = ADVANCED_BREP_SHAPE_REPRESENTATION( '_K0390.08X35', ( #64, #65 ), #6 );
#30 = UNCERTAINTY_MEASURE_WITH_UNIT( LENGTH_MEASURE( 0.00100000000000000 ), #32, '', '' );
#32 =  ( CONVERSION_BASED_UNIT( 'MILLIMETRE', #68 )LENGTH_UNIT(  )NAMED_UNIT( #71 ) );
#33 =  ( NAMED_UNIT( #73 )PLANE_ANGLE_UNIT(  )SI_UNIT( $, .RADIAN. ) );
#34 =  ( NAMED_UNIT( #73 )SI_UNIT( $, .STERADIAN. )SOLID_ANGLE_UNIT(  ) );
#36 = PRESENTATION_STYLE_ASSIGNMENT( ( #79 ) );
#37 = ADVANCED_FACE( '', ( #80 ), #81, .F. );
#38 = PRESENTATION_STYLE_ASSIGNMENT( ( #82 ) );
#39 = ADVANCED_FACE( '', ( #83 ), #84, .F. );
#40 = PRESENTATION_STYLE_ASSIGNMENT( ( #85 ) );
#41 = ADVANCED_FACE( '', ( #86, #87 ), #88, .T. );
#42 = PRESENTATION_STYLE_ASSIGNMENT( ( #89 ) );
#43 = ADVANCED_FACE( '', ( #90, #91 ), #92, .T. );
#44 = PRESENTATION_STYLE_ASSIGNMENT( ( #93 ) );
#45 = ADVANCED_FACE( '', ( #94, #95 ), #96, .T. );
#46 = PRESENTATION_STYLE_ASSIGNMENT( ( #97 ) );
#47 = ADVANCED_FACE( '', ( #98 ), #99, .T. );
#48 = PRESENTATION_STYLE_ASSIGNMENT( ( #100 ) );
#49 = ADVANCED_FACE( '', ( #101 ), #102, .F. );
#50 = PRESENTATION_STYLE_ASSIGNMENT( ( #103 ) );
#51 = ADVANCED_FACE( '', ( #104 ), #105, .T. );
#52 = PRESENTATION_STYLE_ASSIGNMENT( ( #106 ) );
#53 = ADVANCED_FACE( '', ( #107, #108 ), #109, .T. );
#54 = PRESENTATION_STYLE_ASSIGNMENT( ( #110 ) );
#55 = ADVANCED_FACE( '', ( #111, #112 ), #113, .T. );
#56 = PRESENTATION_STYLE_ASSIGNMENT( ( #114 ) );
#57 = ADVANCED_FACE( '', ( #115 ), #116, .F. );
#58 = PRESENTATION_STYLE_ASSIGNMENT( ( #117 ) );
#59 = ADVANCED_FACE( '', ( #118 ), #119, .T. );
#60 = PRESENTATION_STYLE_ASSIGNMENT( ( #120 ) );
#61 = ADVANCED_FACE( '', ( #121, #122 ), #123, .F. );
#62 = PRODUCT( '_K0390.08X35', '_K0390.08X35', 'PART-_K0390.08X35-DESC', ( #124 ) );
#63 = PRODUCT_DEFINITION( 'NONE', 'NONE', #125, #2 );
#64 = MANIFOLD_SOLID_BREP( '_K0390.08X35', #126 );
#65 = AXIS2_PLACEMENT_3D( '', #127, #128, #129 );
#68 = LENGTH_MEASURE_WITH_UNIT( LENGTH_MEASURE( 1.00000000000000 ), #130 );
#71 = DIMENSIONAL_EXPONENTS( 1.00000000000000, 0.000000000000000, 0.000000000000000, 0.000000000000000, 0.000000000000000, 0.000000000000000, 0.000000000000000 );
#73 = DIMENSIONAL_EXPONENTS( 0.000000000000000, 0.000000000000000, 0.000000000000000, 0.000000000000000, 0.000000000000000, 0.000000000000000, 0.000000000000000 );
#79 = SURFACE_STYLE_USAGE( .BOTH., #131 );
#80 = FACE_OUTER_BOUND( '', #132, .T. );
#81 = PLANE( '', #133 );
#82 = SURFACE_STYLE_USAGE( .BOTH., #134 );
#83 = FACE_OUTER_BOUND( '', #135, .T. );
#84 = PLANE( '', #136 );
#85 = SURFACE_STYLE_USAGE( .BOTH., #137 );
#86 = FACE_OUTER_BOUND( '', #138, .T. );
#87 = FACE_OUTER_BOUND( '', #139, .T. );
#88 = CYLINDRICAL_SURFACE( '', #140, 3.00000000000000 );
#89 = SURFACE_STYLE_USAGE( .BOTH., #141 );
#90 = FACE_OUTER_BOUND( '', #142, .T. );
#91 = FACE_OUTER_BOUND( '', #143, .T. );
#92 = CYLINDRICAL_SURFACE( '', #144, 2.70000000000000 );
#93 = SURFACE_STYLE_USAGE( .BOTH., #145 );
#94 = FACE_BOUND( '', #146, .T. );
#95 = FACE_OUTER_BOUND( '', #147, .T. );
#96 = CONICAL_SURFACE( '', #148, 4.00000000000000, 1.06399014130000 );
#97 = SURFACE_STYLE_USAGE( .BOTH., #149 );
#98 = FACE_OUTER_BOUND( '', #150, .T. );
#99 = CONICAL_SURFACE( '', #151, 3.23300000000000, 0.785398163400000 );
#100 = SURFACE_STYLE_USAGE( .BOTH., #152 );
#101 = FACE_OUTER_BOUND( '', #153, .T. );
#102 = PLANE( '', #154 );
#103 = SURFACE_STYLE_USAGE( .BOTH., #155 );
#104 = FACE_OUTER_BOUND( '', #156, .T. );
#105 = PLANE( '', #157 );
#106 = SURFACE_STYLE_USAGE( .BOTH., #158 );
#107 = FACE_BOUND( '', #159, .T. );
#108 = FACE_OUTER_BOUND( '', #160, .T. );
#109 = SPHERICAL_SURFACE( '', #161, 5.03220000000000 );
#110 = SURFACE_STYLE_USAGE( .BOTH., #162 );
#111 = FACE_OUTER_BOUND( '', #163, .T. );
#112 = FACE_OUTER_BOUND( '', #164, .T. );
#113 = CYLINDRICAL_SURFACE( '', #165, 4.00000000000000 );
#114 = SURFACE_STYLE_USAGE( .BOTH., #166 );
#115 = FACE_OUTER_BOUND( '', #167, .T. );
#116 = PLANE( '', #168 );
#117 = SURFACE_STYLE_USAGE( .BOTH., #169 );
#118 = FACE_OUTER_BOUND( '', #170, .T. );
#119 = CONICAL_SURFACE( '', #171, 3.23300000000000, 0.785398163400000 );
#120 = SURFACE_STYLE_USAGE( .BOTH., #172 );
#121 = FACE_OUTER_BOUND( '', #173, .T. );
#122 = FACE_BOUND( '', #174, .T. );
#123 = PLANE( '', #175 );
#124 = PRODUCT_CONTEXT( '', #23, 'mechanical' );
#125 = PRODUCT_DEFINITION_FORMATION_WITH_SPECIFIED_SOURCE( ' ', 'NONE', #62, .NOT_KNOWN. );
#126 = CLOSED_SHELL( '', ( #37, #39, #53, #41, #61, #43, #45, #55, #59, #57, #47, #49, #51 ) );
#127 = CARTESIAN_POINT( '', ( 0.000000000000000, 0.000000000000000, 0.000000000000000 ) );
#128 = DIRECTION( '', ( 0.000000000000000, 0.000000000000000, 1.00000000000000 ) );
#129 = DIRECTION( '', ( 1.00000000000000, 0.000000000000000, 0.000000000000000 ) );
#130 =  ( LENGTH_UNIT(  )NAMED_UNIT( #71 )SI_UNIT( .MILLI., .METRE. ) );
#131 = SURFACE_SIDE_STYLE( '', ( #177 ) );
#132 = EDGE_LOOP( '', ( #178, #179, #180, #181, #182, #183 ) );
#133 = AXIS2_PLACEMENT_3D( '', #184, #185, #186 );
#134 = SURFACE_SIDE_STYLE( '', ( #187 ) );
#135 = EDGE_LOOP( '', ( #188, #189, #190, #191, #192, #193 ) );
#136 = AXIS2_PLACEMENT_3D( '', #194, #195, #196 );
#137 = SURFACE_SIDE_STYLE( '', ( #197 ) );
#138 = EDGE_LOOP( '', ( #198 ) );
#139 = EDGE_LOOP( '', ( #199 ) );
#140 = AXIS2_PLACEMENT_3D( '', #200, #201, #202 );
#141 = SURFACE_SIDE_STYLE( '', ( #203 ) );
#142 = EDGE_LOOP( '', ( #204 ) );
#143 = EDGE_LOOP( '', ( #205 ) );
#144 = AXIS2_PLACEMENT_3D( '', #206, #207, #208 );
#145 = SURFACE_SIDE_STYLE( '', ( #209 ) );
#146 = EDGE_LOOP( '', ( #210 ) );
#147 = EDGE_LOOP( '', ( #211 ) );
#148 = AXIS2_PLACEMENT_3D( '', #212, #213, #214 );
#149 = SURFACE_SIDE_STYLE( '', ( #215 ) );
#150 = EDGE_LOOP( '', ( #216, #217, #218, #219 ) );
#151 = AXIS2_PLACEMENT_3D( '', #220, #221, #222 );
#152 = SURFACE_SIDE_STYLE( '', ( #223 ) );
#153 = EDGE_LOOP( '', ( #224, #225 ) );
#154 = AXIS2_PLACEMENT_3D( '', #226, #227, #228 );
#155 = SURFACE_SIDE_STYLE( '', ( #229 ) );
#156 = EDGE_LOOP( '', ( #230, #231, #232, #233 ) );
#157 = AXIS2_PLACEMENT_3D( '', #234, #235, #236 );
#158 = SURFACE_SIDE_STYLE( '', ( #237 ) );
#159 = VERTEX_LOOP( '', #238 );
#160 = EDGE_LOOP( '', ( #239 ) );
#161 = AXIS2_PLACEMENT_3D( '', #240, #241, #242 );
#162 = SURFACE_SIDE_STYLE( '', ( #243 ) );
#163 = EDGE_LOOP( '', ( #244 ) );
#164 = EDGE_LOOP( '', ( #245, #246, #247, #248, #249, #250, #251, #252 ) );
#165 = AXIS2_PLACEMENT_3D( '', #253, #254, #255 );
#166 = SURFACE_SIDE_STYLE( '', ( #256 ) );
#167 = EDGE_LOOP( '', ( #257, #258 ) );
#168 = AXIS2_PLACEMENT_3D( '', #259, #260, #261 );
#169 = SURFACE_SIDE_STYLE( '', ( #262 ) );
#170 = EDGE_LOOP( '', ( #263, #264, #265, #266 ) );
#171 = AXIS2_PLACEMENT_3D( '', #267, #268, #269 );
#172 = SURFACE_SIDE_STYLE( '', ( #270 ) );
#173 = EDGE_LOOP( '', ( #271 ) );
#174 = EDGE_LOOP( '', ( #272 ) );
#175 = AXIS2_PLACEMENT_3D( '', #273, #274, #275 );
#177 = SURFACE_STYLE_FILL_AREA( #276 );
#178 = ORIENTED_EDGE( '', *, *, #277, .F. );
#179 = ORIENTED_EDGE( '', *, *, #278, .T. );
#180 = ORIENTED_EDGE( '', *, *, #279, .F. );
#181 = ORIENTED_EDGE( '', *, *, #280, .F. );
#182 = ORIENTED_EDGE( '', *, *, #281, .F. );
#183 = ORIENTED_EDGE( '', *, *, #282, .F. );
#184 = CARTESIAN_POINT( '', ( 3.00000000000000, 0.900000000000002, 10.5000000000000 ) );
#185 = DIRECTION( '', ( 0.000000000000000, 1.00000000000000, 0.000000000000000 ) );
#186 = DIRECTION( '', ( 0.000000000000000, -0.000000000000000, 1.00000000000000 ) );
#187 = SURFACE_STYLE_FILL_AREA( #283 );
#188 = ORIENTED_EDGE( '', *, *, #284, .T. );
#189 = ORIENTED_EDGE( '', *, *, #285, .F. );
#190 = ORIENTED_EDGE( '', *, *, #286, .F. );
#191 = ORIENTED_EDGE( '', *, *, #287, .F. );
#192 = ORIENTED_EDGE( '', *, *, #288, .F. );
#193 = ORIENTED_EDGE( '', *, *, #289, .F. );
#194 = CARTESIAN_POINT( '', ( 3.00000000000000, -0.899999999999998, -10.5000000000000 ) );
#195 = DIRECTION( '', ( 0.000000000000000, -1.00000000000000, 0.000000000000000 ) );
#196 = DIRECTION( '', ( 0.000000000000000, 0.000000000000000, -1.00000000000000 ) );
#197 = SURFACE_STYLE_FILL_AREA( #290 );
#198 = ORIENTED_EDGE( '', *, *, #291, .F. );
#199 = ORIENTED_EDGE( '', *, *, #292, .T. );
#200 = CARTESIAN_POINT( '', ( 35.0000000000000, 0.000000000000000, 0.000000000000000 ) );
#201 = DIRECTION( '', ( -1.00000000000000, 6.12323399573677E-17, 0.000000000000000 ) );
#202 = DIRECTION( '', ( 6.12323399573677E-17, 1.00000000000000, 0.000000000000000 ) );
#203 = SURFACE_STYLE_FILL_AREA( #293 );
#204 = ORIENTED_EDGE( '', *, *, #294, .F. );
#205 = ORIENTED_EDGE( '', *, *, #295, .T. );
#206 = CARTESIAN_POINT( '', ( 35.0000000000000, 0.000000000000000, 0.000000000000000 ) );
#207 = DIRECTION( '', ( -1.00000000000000, 6.12323399573676E-17, 0.000000000000000 ) );
#208 = DIRECTION( '', ( 6.12323399573677E-17, 1.00000000000000, 0.000000000000000 ) );
#209 = SURFACE_STYLE_FILL_AREA( #296 );
#210 = ORIENTED_EDGE( '', *, *, #295, .F. );
#211 = ORIENTED_EDGE( '', *, *, #297, .T. );
#212 = CARTESIAN_POINT( '', ( 27.5000000000000, 4.59242549680258E-16, 0.000000000000000 ) );
#213 = DIRECTION( '', ( -1.00000000000000, 6.12323399573677E-17, -0.000000000000000 ) );
#214 = DIRECTION( '', ( -6.12323399573677E-17, -1.00000000000000, 0.000000000000000 ) );
#215 = SURFACE_STYLE_FILL_AREA( #298 );
#216 = ORIENTED_EDGE( '', *, *, #299, .F. );
#217 = ORIENTED_EDGE( '', *, *, #285, .T. );
#218 = ORIENTED_EDGE( '', *, *, #300, .T. );
#219 = ORIENTED_EDGE( '', *, *, #289, .T. );
#220 = CARTESIAN_POINT( '', ( 0.000000000000000, 2.14313189850787E-15, 0.000000000000000 ) );
#221 = DIRECTION( '', ( 1.00000000000000, -6.12323399573677E-17, -0.000000000000000 ) );
#222 = DIRECTION( '', ( 6.12323399573677E-17, 1.00000000000000, 0.000000000000000 ) );
#223 = SURFACE_STYLE_FILL_AREA( #301 );
#224 = ORIENTED_EDGE( '', *, *, #302, .F. );
#225 = ORIENTED_EDGE( '', *, *, #278, .F. );
#226 = CARTESIAN_POINT( '', ( -9.89820775410848E-17, 2.14313189850787E-15, 0.000000000000000 ) );
#227 = DIRECTION( '', ( 1.00000000000000, -6.12323399573677E-17, -0.000000000000000 ) );
#228 = DIRECTION( '', ( 6.12323399573677E-17, 1.00000000000000, 0.000000000000000 ) );
#229 = SURFACE_STYLE_FILL_AREA( #303 );
#230 = ORIENTED_EDGE( '', *, *, #304, .T. );
#231 = ORIENTED_EDGE( '', *, *, #287, .T. );
#232 = ORIENTED_EDGE( '', *, *, #305, .T. );
#233 = ORIENTED_EDGE( '', *, *, #281, .T. );
#234 = CARTESIAN_POINT( '', ( 3.00000000000000, 0.000000000000000, 0.000000000000000 ) );
#235 = DIRECTION( '', ( -1.00000000000000, 0.000000000000000, 0.000000000000000 ) );
#236 = DIRECTION( '', ( 0.000000000000000, 0.000000000000000, 1.00000000000000 ) );
#237 = SURFACE_STYLE_FILL_AREA( #306 );
#238 = VERTEX_POINT( '', #307 );
#239 = ORIENTED_EDGE( '', *, *, #291, .T. );
#240 = CARTESIAN_POINT( '', ( 29.9678000000000, 1.30104260698261E-14, 0.000000000000000 ) );
#241 = DIRECTION( '', ( 1.00000000000000, 0.000000000000000, 0.000000000000000 ) );
#242 = DIRECTION( '', ( 0.000000000000000, -1.00000000000000, 0.000000000000000 ) );
#243 = SURFACE_STYLE_FILL_AREA( #308 );
#244 = ORIENTED_EDGE( '', *, *, #297, .F. );
#245 = ORIENTED_EDGE( '', *, *, #299, .T. );
#246 = ORIENTED_EDGE( '', *, *, #288, .T. );
#247 = ORIENTED_EDGE( '', *, *, #304, .F. );
#248 = ORIENTED_EDGE( '', *, *, #280, .T. );
#249 = ORIENTED_EDGE( '', *, *, #309, .T. );
#250 = ORIENTED_EDGE( '', *, *, #282, .T. );
#251 = ORIENTED_EDGE( '', *, *, #305, .F. );
#252 = ORIENTED_EDGE( '', *, *, #286, .T. );
#253 = CARTESIAN_POINT( '', ( 35.0000000000000, 0.000000000000000, 0.000000000000000 ) );
#254 = DIRECTION( '', ( -1.00000000000000, 6.12323399573677E-17, 0.000000000000000 ) );
#255 = DIRECTION( '', ( 6.12323399573677E-17, 1.00000000000000, 0.000000000000000 ) );
#256 = SURFACE_STYLE_FILL_AREA( #310 );
#257 = ORIENTED_EDGE( '', *, *, #300, .F. );
#258 = ORIENTED_EDGE( '', *, *, #284, .F. );
#259 = CARTESIAN_POINT( '', ( -9.89820775410848E-17, 2.14313189850787E-15, 0.000000000000000 ) );
#260 = DIRECTION( '', ( 1.00000000000000, -6.12323399573677E-17, -0.000000000000000 ) );
#261 = DIRECTION( '', ( 6.12323399573677E-17, 1.00000000000000, 0.000000000000000 ) );
#262 = SURFACE_STYLE_FILL_AREA( #311 );
#263 = ORIENTED_EDGE( '', *, *, #302, .T. );
#264 = ORIENTED_EDGE( '', *, *, #277, .T. );
#265 = ORIENTED_EDGE( '', *, *, #309, .F. );
#266 = ORIENTED_EDGE( '', *, *, #279, .T. );
#267 = CARTESIAN_POINT( '', ( 0.000000000000000, 2.14313189850787E-15, 0.000000000000000 ) );
#268 = DIRECTION( '', ( 1.00000000000000, -6.12323399573677E-17, -0.000000000000000 ) );
#269 = DIRECTION( '', ( 6.12323399573677E-17, 1.00000000000000, 0.000000000000000 ) );
#270 = SURFACE_STYLE_FILL_AREA( #312 );
#271 = ORIENTED_EDGE( '', *, *, #292, .F. );
#272 = ORIENTED_EDGE( '', *, *, #294, .T. );
#273 = CARTESIAN_POINT( '', ( 32.0000000000000, 2.70000000000000, 0.000000000000000 ) );
#274 = DIRECTION( '', ( 1.00000000000000, -6.12323399573677E-17, -0.000000000000000 ) );
#275 = DIRECTION( '', ( 6.12323399573677E-17, 1.00000000000000, 0.000000000000000 ) );
#276 = FILL_AREA_STYLE( '', ( #313 ) );
#277 = EDGE_CURVE( '', #314, #315, #316, .T. );
#278 = EDGE_CURVE( '', #314, #317, #318, .T. );
#279 = EDGE_CURVE( '', #319, #317, #320, .T. );
#280 = EDGE_CURVE( '', #321, #319, #322, .F. );
#281 = EDGE_CURVE( '', #323, #321, #324, .T. );
#282 = EDGE_CURVE( '', #315, #323, #325, .T. );
#283 = FILL_AREA_STYLE( '', ( #326 ) );
#284 = EDGE_CURVE( '', #327, #328, #329, .T. );
#285 = EDGE_CURVE( '', #330, #328, #331, .T. );
#286 = EDGE_CURVE( '', #332, #330, #333, .F. );
#287 = EDGE_CURVE( '', #334, #332, #335, .T. );
#288 = EDGE_CURVE( '', #336, #334, #337, .T. );
#289 = EDGE_CURVE( '', #327, #336, #338, .T. );
#290 = FILL_AREA_STYLE( '', ( #339 ) );
#291 = EDGE_CURVE( '', #340, #340, #341, .T. );
#292 = EDGE_CURVE( '', #342, #342, #343, .T. );
#293 = FILL_AREA_STYLE( '', ( #344 ) );
#294 = EDGE_CURVE( '', #345, #345, #346, .T. );
#295 = EDGE_CURVE( '', #347, #347, #348, .T. );
#296 = FILL_AREA_STYLE( '', ( #349 ) );
#297 = EDGE_CURVE( '', #350, #350, #351, .T. );
#298 = FILL_AREA_STYLE( '', ( #352 ) );
#299 = EDGE_CURVE( '', #330, #336, #353, .T. );
#300 = EDGE_CURVE( '', #328, #327, #354, .T. );
#301 = FILL_AREA_STYLE( '', ( #355 ) );
#302 = EDGE_CURVE( '', #317, #314, #356, .T. );
#303 = FILL_AREA_STYLE( '', ( #357 ) );
#304 = EDGE_CURVE( '', #321, #334, #358, .T. );
#305 = EDGE_CURVE( '', #332, #323, #359, .T. );
#306 = FILL_AREA_STYLE( '', ( #360 ) );
#307 = CARTESIAN_POINT( '', ( 35.0000000000000, 1.23941593075591E-14, 0.000000000000000 ) );
#308 = FILL_AREA_STYLE( '', ( #361 ) );
#309 = EDGE_CURVE( '', #319, #315, #362, .T. );
#310 = FILL_AREA_STYLE( '', ( #363 ) );
#311 = FILL_AREA_STYLE( '', ( #364 ) );
#312 = FILL_AREA_STYLE( '', ( #365 ) );
#313 = FILL_AREA_STYLE_COLOUR( '', #366 );
#314 = VERTEX_POINT( '', #367 );
#315 = VERTEX_POINT( '', #368 );
#316 = B_SPLINE_CURVE_WITH_KNOTS( '', 3, ( #369, #370, #371, #372 ), .UNSPECIFIED., .F., .F., ( 4, 4 ), ( 0.0158157249040059, 0.0169130244324276 ), .UNSPECIFIED. );
#317 = VERTEX_POINT( '', #373 );
#318 = LINE( '', #374, #375 );
#319 = VERTEX_POINT( '', #376 );
#320 = B_SPLINE_CURVE_WITH_KNOTS( '', 3, ( #377, #378, #379, #380 ), .UNSPECIFIED., .F., .F., ( 4, 4 ), ( 0.00685941369446052, 0.00796210091278452 ), .UNSPECIFIED. );
#321 = VERTEX_POINT( '', #381 );
#322 = LINE( '', #382, #383 );
#323 = VERTEX_POINT( '', #384 );
#324 = LINE( '', #385, #386 );
#325 = LINE( '', #387, #388 );
#326 = FILL_AREA_STYLE_COLOUR( '', #389 );
#327 = VERTEX_POINT( '', #390 );
#328 = VERTEX_POINT( '', #391 );
#329 = LINE( '', #392, #393 );
#330 = VERTEX_POINT( '', #394 );
#331 = B_SPLINE_CURVE_WITH_KNOTS( '', 3, ( #395, #396, #397, #398 ), .UNSPECIFIED., .F., .F., ( 4, 4 ), ( 0.00685941369446052, 0.00796210091278451 ), .UNSPECIFIED. );
#332 = VERTEX_POINT( '', #399 );
#333 = LINE( '', #400, #401 );
#334 = VERTEX_POINT( '', #402 );
#335 = LINE( '', #403, #404 );
#336 = VERTEX_POINT( '', #405 );
#337 = LINE( '', #406, #407 );
#338 = B_SPLINE_CURVE_WITH_KNOTS( '', 3, ( #408, #409, #410, #411 ), .UNSPECIFIED., .F., .F., ( 4, 4 ), ( 0.0158157249040059, 0.0169130244324276 ), .UNSPECIFIED. );
#339 = FILL_AREA_STYLE_COLOUR( '', #412 );
#340 = VERTEX_POINT( '', #413 );
#341 = CIRCLE( '', #414, 3.00000000000000 );
#342 = VERTEX_POINT( '', #415 );
#343 = CIRCLE( '', #416, 3.00000000000000 );
#344 = FILL_AREA_STYLE_COLOUR( '', #417 );
#345 = VERTEX_POINT( '', #418 );
#346 = CIRCLE( '', #419, 2.70000000000000 );
#347 = VERTEX_POINT( '', #420 );
#348 = CIRCLE( '', #421, 2.70000000000000 );
#349 = FILL_AREA_STYLE_COLOUR( '', #422 );
#350 = VERTEX_POINT( '', #423 );
#351 = CIRCLE( '', #424, 4.00000000000000 );
#352 = FILL_AREA_STYLE_COLOUR( '', #425 );
#353 = CIRCLE( '', #426, 4.00000000000000 );
#354 = CIRCLE( '', #427, 3.23300000000000 );
#355 = FILL_AREA_STYLE_COLOUR( '', #428 );
#356 = CIRCLE( '', #429, 3.23300000000000 );
#357 = FILL_AREA_STYLE_COLOUR( '', #430 );
#358 = CIRCLE( '', #431, 4.00000000000000 );
#359 = CIRCLE( '', #432, 4.00000000000000 );
#360 = FILL_AREA_STYLE_COLOUR( '', #433 );
#361 = FILL_AREA_STYLE_COLOUR( '', #434 );
#362 = CIRCLE( '', #435, 4.00000000000000 );
#363 = FILL_AREA_STYLE_COLOUR( '', #436 );
#364 = FILL_AREA_STYLE_COLOUR( '', #437 );
#365 = FILL_AREA_STYLE_COLOUR( '', #438 );
#366 = COLOUR_RGB( '', 0.689999997600000, 0.689999997600000, 0.689999997600000 );
#367 = CARTESIAN_POINT( '', ( 0.000000000000000, 0.900000000000002, 3.10520353600211 ) );
#368 = CARTESIAN_POINT( '', ( 0.767000000000004, 0.900000000000004, 3.89743505398101 ) );
#369 = CARTESIAN_POINT( '', ( 7.74313155387832E-16, 0.900000000000002, 3.10520353600211 ) );
#370 = CARTESIAN_POINT( '', ( 0.254623855499882, 0.900000000000002, 3.37030658489628 ) );
#371 = CARTESIAN_POINT( '', ( 0.510496360619596, 0.900000000000002, 3.63418126185596 ) );
#372 = CARTESIAN_POINT( '', ( 0.767000000000000, 0.900000000000002, 3.89743505398102 ) );
#373 = CARTESIAN_POINT( '', ( 0.000000000000000, 0.900000000000002, -3.10520353600211 ) );
#374 = CARTESIAN_POINT( '', ( 0.000000000000000, 0.900000000000002, 10.5000000000000 ) );
#375 = VECTOR( '', #439, 1000.00000000000 );
#376 = CARTESIAN_POINT( '', ( 0.767000000000004, 0.900000000000004, -3.89743505398101 ) );
#377 = CARTESIAN_POINT( '', ( 0.767000000000000, 0.900000000000002, -3.89743505398102 ) );
#378 = CARTESIAN_POINT( '', ( 0.510490421567082, 0.900000000000002, -3.63417516651128 ) );
#379 = CARTESIAN_POINT( '', ( 0.254616510453989, 0.900000000000002, -3.37029893756074 ) );
#380 = CARTESIAN_POINT( '', ( 1.90736923016854E-16, 0.900000000000002, -3.10520353600211 ) );
#381 = CARTESIAN_POINT( '', ( 3.00000000000000, 0.900000000000002, -3.89743505398101 ) );
#382 = CARTESIAN_POINT( '', ( 35.0000000000000, 0.900000000000002, -3.89743505398101 ) );
#383 = VECTOR( '', #440, 1000.00000000000 );
#384 = CARTESIAN_POINT( '', ( 3.00000000000000, 0.900000000000002, 3.89743505398101 ) );
#385 = CARTESIAN_POINT( '', ( 3.00000000000000, 0.900000000000002, 10.5000000000000 ) );
#386 = VECTOR( '', #441, 1000.00000000000 );
#387 = CARTESIAN_POINT( '', ( 35.0000000000000, 0.900000000000002, 3.89743505398101 ) );
#388 = VECTOR( '', #442, 1000.00000000000 );
#389 = COLOUR_RGB( '', 0.689999997600000, 0.689999997600000, 0.689999997600000 );
#390 = CARTESIAN_POINT( '', ( 0.000000000000000, -0.899999999999998, -3.10520353600211 ) );
#391 = CARTESIAN_POINT( '', ( 0.000000000000000, -0.899999999999998, 3.10520353600211 ) );
#392 = CARTESIAN_POINT( '', ( 0.000000000000000, -0.899999999999998, -10.5000000000000 ) );
#393 = VECTOR( '', #443, 1000.00000000000 );
#394 = CARTESIAN_POINT( '', ( 0.767000000000004, -0.899999999999996, 3.89743505398102 ) );
#395 = CARTESIAN_POINT( '', ( 0.766999999999999, -0.899999999999998, 3.89743505398102 ) );
#396 = CARTESIAN_POINT( '', ( 0.510490421567081, -0.899999999999998, 3.63417516651127 ) );
#397 = CARTESIAN_POINT( '', ( 0.254616510453987, -0.899999999999998, 3.37029893756073 ) );
#398 = CARTESIAN_POINT( '', ( -1.59249995932834E-15, -0.899999999999998, 3.10520353600211 ) );
#399 = CARTESIAN_POINT( '', ( 3.00000000000000, -0.899999999999998, 3.89743505398101 ) );
#400 = CARTESIAN_POINT( '', ( 35.0000000000000, -0.899999999999998, 3.89743505398102 ) );
#401 = VECTOR( '', #444, 1000.00000000000 );
#402 = CARTESIAN_POINT( '', ( 3.00000000000000, -0.899999999999998, -3.89743505398101 ) );
#403 = CARTESIAN_POINT( '', ( 3.00000000000000, -0.899999999999998, -10.5000000000000 ) );
#404 = VECTOR( '', #445, 1000.00000000000 );
#405 = CARTESIAN_POINT( '', ( 0.767000000000004, -0.899999999999996, -3.89743505398102 ) );
#406 = CARTESIAN_POINT( '', ( 35.0000000000000, -0.899999999999998, -3.89743505398102 ) );
#407 = VECTOR( '', #446, 1000.00000000000 );
#408 = CARTESIAN_POINT( '', ( -2.56229099095225E-16, -0.899999999999998, -3.10520353600211 ) );
#409 = CARTESIAN_POINT( '', ( 0.254623855499881, -0.899999999999998, -3.37030658489628 ) );
#410 = CARTESIAN_POINT( '', ( 0.510496360619597, -0.899999999999998, -3.63418126185597 ) );
#411 = CARTESIAN_POINT( '', ( 0.767000000000001, -0.899999999999998, -3.89743505398102 ) );
#412 = COLOUR_RGB( '', 0.689999997600000, 0.689999997600000, 0.689999997600000 );
#413 = CARTESIAN_POINT( '', ( 34.0079778228192, 3.00000000000000, 0.000000000000000 ) );
#414 = AXIS2_PLACEMENT_3D( '', #447, #448, #449 );
#415 = CARTESIAN_POINT( '', ( 32.0000000000000, 3.00000000000000, 0.000000000000000 ) );
#416 = AXIS2_PLACEMENT_3D( '', #450, #451, #452 );
#417 = COLOUR_RGB( '', 0.689999997600000, 0.689999997600000, 0.689999997600000 );
#418 = CARTESIAN_POINT( '', ( 32.0000000000000, 2.70000000000000, 0.000000000000000 ) );
#419 = AXIS2_PLACEMENT_3D( '', #453, #454, #455 );
#420 = CARTESIAN_POINT( '', ( 28.2217250000000, 2.70000000000000, 0.000000000000000 ) );
#421 = AXIS2_PLACEMENT_3D( '', #456, #457, #458 );
#422 = COLOUR_RGB( '', 0.689999997600000, 0.689999997600000, 0.689999997600000 );
#423 = CARTESIAN_POINT( '', ( 27.5000000000000, 4.00000000000000, 0.000000000000000 ) );
#424 = AXIS2_PLACEMENT_3D( '', #459, #460, #461 );
#425 = COLOUR_RGB( '', 0.689999997600000, 0.689999997600000, 0.689999997600000 );
#426 = AXIS2_PLACEMENT_3D( '', #462, #463, #464 );
#427 = AXIS2_PLACEMENT_3D( '', #465, #466, #467 );
#428 = COLOUR_RGB( '', 0.689999997600000, 0.689999997600000, 0.689999997600000 );
#429 = AXIS2_PLACEMENT_3D( '', #468, #469, #470 );
#430 = COLOUR_RGB( '', 0.689999997600000, 0.689999997600000, 0.689999997600000 );
#431 = AXIS2_PLACEMENT_3D( '', #471, #472, #473 );
#432 = AXIS2_PLACEMENT_3D( '', #474, #475, #476 );
#433 = COLOUR_RGB( '', 0.689999997600000, 0.689999997600000, 0.689999997600000 );
#434 = COLOUR_RGB( '', 0.689999997600000, 0.689999997600000, 0.689999997600000 );
#435 = AXIS2_PLACEMENT_3D( '', #477, #478, #479 );
#436 = COLOUR_RGB( '', 0.689999997600000, 0.689999997600000, 0.689999997600000 );
#437 = COLOUR_RGB( '', 0.689999997600000, 0.689999997600000, 0.689999997600000 );
#438 = COLOUR_RGB( '', 0.689999997600000, 0.689999997600000, 0.689999997600000 );
#439 = DIRECTION( '', ( 0.000000000000000, 0.000000000000000, -1.00000000000000 ) );
#440 = DIRECTION( '', ( 1.00000000000000, -6.12323399573677E-17, -0.000000000000000 ) );
#441 = DIRECTION( '', ( 0.000000000000000, 0.000000000000000, -1.00000000000000 ) );
#442 = DIRECTION( '', ( 1.00000000000000, -6.12323399573677E-17, -0.000000000000000 ) );
#443 = DIRECTION( '', ( 0.000000000000000, 0.000000000000000, 1.00000000000000 ) );
#444 = DIRECTION( '', ( 1.00000000000000, -6.12323399573677E-17, -0.000000000000000 ) );
#445 = DIRECTION( '', ( 0.000000000000000, 0.000000000000000, 1.00000000000000 ) );
#446 = DIRECTION( '', ( 1.00000000000000, -6.12323399573677E-17, -0.000000000000000 ) );
#447 = CARTESIAN_POINT( '', ( 34.0079778228192, 6.07438391983836E-17, 0.000000000000000 ) );
#448 = DIRECTION( '', ( 1.00000000000000, -6.12323399573677E-17, -0.000000000000000 ) );
#449 = DIRECTION( '', ( 6.12323399573677E-17, 1.00000000000000, 0.000000000000000 ) );
#450 = CARTESIAN_POINT( '', ( 32.0000000000000, 1.83697019872103E-16, 0.000000000000000 ) );
#451 = DIRECTION( '', ( 1.00000000000000, -6.12323399573677E-17, -0.000000000000000 ) );
#452 = DIRECTION( '', ( 6.12323399573677E-17, 1.00000000000000, 0.000000000000000 ) );
#453 = CARTESIAN_POINT( '', ( 32.0000000000000, 1.83697019872103E-16, 0.000000000000000 ) );
#454 = DIRECTION( '', ( 1.00000000000000, -6.12323399573676E-17, -0.000000000000000 ) );
#455 = DIRECTION( '', ( 6.12323399573677E-17, 1.00000000000000, 0.000000000000000 ) );
#456 = CARTESIAN_POINT( '', ( 28.2217250000000, 4.15049639124526E-16, 0.000000000000000 ) );
#457 = DIRECTION( '', ( 1.00000000000000, -6.12323399573676E-17, -0.000000000000000 ) );
#458 = DIRECTION( '', ( 6.12323399573677E-17, 1.00000000000000, 0.000000000000000 ) );
#459 = CARTESIAN_POINT( '', ( 27.5000000000000, 4.59242549680258E-16, 0.000000000000000 ) );
#460 = DIRECTION( '', ( 1.00000000000000, -6.12323399573677E-17, -0.000000000000000 ) );
#461 = DIRECTION( '', ( 6.12323399573677E-17, 1.00000000000000, 0.000000000000000 ) );
#462 = CARTESIAN_POINT( '', ( 0.766999999999997, 2.09616669376057E-15, 0.000000000000000 ) );
#463 = DIRECTION( '', ( 1.00000000000000, -6.12323399573677E-17, -0.000000000000000 ) );
#464 = DIRECTION( '', ( 6.12323399573677E-17, 1.00000000000000, 0.000000000000000 ) );
#465 = CARTESIAN_POINT( '', ( 0.000000000000000, 2.14313189850787E-15, 0.000000000000000 ) );
#466 = DIRECTION( '', ( 1.00000000000000, -6.12323399573677E-17, -0.000000000000000 ) );
#467 = DIRECTION( '', ( 6.12323399573677E-17, 1.00000000000000, 0.000000000000000 ) );
#468 = CARTESIAN_POINT( '', ( 0.000000000000000, 2.14313189850787E-15, 0.000000000000000 ) );
#469 = DIRECTION( '', ( 1.00000000000000, -6.12323399573677E-17, -0.000000000000000 ) );
#470 = DIRECTION( '', ( 6.12323399573677E-17, 1.00000000000000, 0.000000000000000 ) );
#471 = CARTESIAN_POINT( '', ( 3.00000000000000, 1.95943487863577E-15, 0.000000000000000 ) );
#472 = DIRECTION( '', ( -1.00000000000000, 0.000000000000000, 0.000000000000000 ) );
#473 = DIRECTION( '', ( 0.000000000000000, 0.000000000000000, 1.00000000000000 ) );
#474 = CARTESIAN_POINT( '', ( 3.00000000000000, 1.95943487863577E-15, 0.000000000000000 ) );
#475 = DIRECTION( '', ( -1.00000000000000, 0.000000000000000, 0.000000000000000 ) );
#476 = DIRECTION( '', ( 0.000000000000000, 0.000000000000000, 1.00000000000000 ) );
#477 = CARTESIAN_POINT( '', ( 0.766999999999997, 2.09616669376057E-15, 0.000000000000000 ) );
#478 = DIRECTION( '', ( 1.00000000000000, -6.12323399573677E-17, -0.000000000000000 ) );
#479 = DIRECTION( '', ( 6.12323399573677E-17, 1.00000000000000, 0.000000000000000 ) );
ENDSEC;
END-ISO-10303-21;
