ISO-10303-21;
HEADER;
FILE_DESCRIPTION( ( 'STEP AP214' ), '1' );
FILE_NAME( '//goodhand-server/Shared Folders/GoodHand Data/Kipp CAD/K0390/K0390.121X80.stp', '2020-12-07T10:15:51', ( '' ), ( '' ), ' ', 'PARTsolutions', ' ' );
FILE_SCHEMA( ( 'AUTOMOTIVE_DESIGN { 1 0 10303 214 1 1 1 1 }' ) );
ENDSEC;
DATA;
#1 = MECHANICAL_DESIGN_GEOMETRIC_PRESENTATION_REPRESENTATION( ' ', ( #10, #11, #12, #13, #14, #15, #16, #17, #18, #19, #20, #21, #22 ), #6 );
#2 = PRODUCT_DEFINITION_CONTEXT( '', #23, 'design' );
#3 = APPLICATION_PROTOCOL_DEFINITION( 'international standard', 'automotive_design', 2001, #23 );
#4 = PRODUCT_CATEGORY_RELATIONSHIP( 'NONE', 'NONE', #24, #25 );
#5 = SHAPE_DEFINITION_REPRESENTATION( #26, #27 );
#6 =  ( GEOMETRIC_REPRESENTATION_CONTEXT( 3 )GLOBAL_UNCERTAINTY_ASSIGNED_CONTEXT( ( #30 ) )GLOBAL_UNIT_ASSIGNED_CONTEXT( ( #32, #33, #34 ) )REPRESENTATION_CONTEXT( 'NONE', 'WORKSPACE' ) );
#10 = STYLED_ITEM( '', ( #36 ), #37 );
#11 = STYLED_ITEM( '', ( #38 ), #39 );
#12 = STYLED_ITEM( '', ( #40 ), #41 );
#13 = STYLED_ITEM( '', ( #42 ), #43 );
#14 = STYLED_ITEM( '', ( #44 ), #45 );
#15 = STYLED_ITEM( '', ( #46 ), #47 );
#16 = STYLED_ITEM( '', ( #48 ), #49 );
#17 = STYLED_ITEM( '', ( #50 ), #51 );
#18 = STYLED_ITEM( '', ( #52 ), #53 );
#19 = STYLED_ITEM( '', ( #54 ), #55 );
#20 = STYLED_ITEM( '', ( #56 ), #57 );
#21 = STYLED_ITEM( '', ( #58 ), #59 );
#22 = STYLED_ITEM( '', ( #60 ), #61 );
#23 = APPLICATION_CONTEXT( 'core data for automotive mechanical design processes' );
#24 = PRODUCT_CATEGORY( 'part', 'NONE' );
#25 = PRODUCT_RELATED_PRODUCT_CATEGORY( 'detail', ' ', ( #62 ) );
#26 = PRODUCT_DEFINITION_SHAPE( 'NONE', 'NONE', #63 );
#27 = ADVANCED_BREP_SHAPE_REPRESENTATION( '_K0390.121X80', ( #64, #65 ), #6 );
#30 = UNCERTAINTY_MEASURE_WITH_UNIT( LENGTH_MEASURE( 0.00100000000000000 ), #32, '', '' );
#32 =  ( CONVERSION_BASED_UNIT( 'MILLIMETRE', #68 )LENGTH_UNIT(  )NAMED_UNIT( #71 ) );
#33 =  ( NAMED_UNIT( #73 )PLANE_ANGLE_UNIT(  )SI_UNIT( $, .RADIAN. ) );
#34 =  ( NAMED_UNIT( #73 )SI_UNIT( $, .STERADIAN. )SOLID_ANGLE_UNIT(  ) );
#36 = PRESENTATION_STYLE_ASSIGNMENT( ( #79 ) );
#37 = ADVANCED_FACE( '', ( #80, #81 ), #82, .T. );
#38 = PRESENTATION_STYLE_ASSIGNMENT( ( #83 ) );
#39 = ADVANCED_FACE( '', ( #84, #85 ), #86, .T. );
#40 = PRESENTATION_STYLE_ASSIGNMENT( ( #87 ) );
#41 = ADVANCED_FACE( '', ( #88, #89 ), #90, .F. );
#42 = PRESENTATION_STYLE_ASSIGNMENT( ( #91 ) );
#43 = ADVANCED_FACE( '', ( #92, #93 ), #94, .T. );
#44 = PRESENTATION_STYLE_ASSIGNMENT( ( #95 ) );
#45 = ADVANCED_FACE( '', ( #96 ), #97, .F. );
#46 = PRESENTATION_STYLE_ASSIGNMENT( ( #98 ) );
#47 = ADVANCED_FACE( '', ( #99, #100 ), #101, .T. );
#48 = PRESENTATION_STYLE_ASSIGNMENT( ( #102 ) );
#49 = ADVANCED_FACE( '', ( #103 ), #104, .F. );
#50 = PRESENTATION_STYLE_ASSIGNMENT( ( #105 ) );
#51 = ADVANCED_FACE( '', ( #106 ), #107, .F. );
#52 = PRESENTATION_STYLE_ASSIGNMENT( ( #108 ) );
#53 = ADVANCED_FACE( '', ( #109 ), #110, .T. );
#54 = PRESENTATION_STYLE_ASSIGNMENT( ( #111 ) );
#55 = ADVANCED_FACE( '', ( #112 ), #113, .F. );
#56 = PRESENTATION_STYLE_ASSIGNMENT( ( #114 ) );
#57 = ADVANCED_FACE( '', ( #115 ), #116, .T. );
#58 = PRESENTATION_STYLE_ASSIGNMENT( ( #117 ) );
#59 = ADVANCED_FACE( '', ( #118, #119 ), #120, .T. );
#60 = PRESENTATION_STYLE_ASSIGNMENT( ( #121 ) );
#61 = ADVANCED_FACE( '', ( #122 ), #123, .T. );
#62 = PRODUCT( '_K0390.121X80', '_K0390.121X80', 'PART-_K0390.121X80-DESC', ( #124 ) );
#63 = PRODUCT_DEFINITION( 'NONE', 'NONE', #125, #2 );
#64 = MANIFOLD_SOLID_BREP( '_K0390.121X80', #126 );
#65 = AXIS2_PLACEMENT_3D( '', #127, #128, #129 );
#68 = LENGTH_MEASURE_WITH_UNIT( LENGTH_MEASURE( 1.00000000000000 ), #130 );
#71 = DIMENSIONAL_EXPONENTS( 1.00000000000000, 0.000000000000000, 0.000000000000000, 0.000000000000000, 0.000000000000000, 0.000000000000000, 0.000000000000000 );
#73 = DIMENSIONAL_EXPONENTS( 0.000000000000000, 0.000000000000000, 0.000000000000000, 0.000000000000000, 0.000000000000000, 0.000000000000000, 0.000000000000000 );
#79 = SURFACE_STYLE_USAGE( .BOTH., #131 );
#80 = FACE_OUTER_BOUND( '', #132, .T. );
#81 = FACE_OUTER_BOUND( '', #133, .T. );
#82 = CYLINDRICAL_SURFACE( '', #134, 3.60000000000000 );
#83 = SURFACE_STYLE_USAGE( .BOTH., #135 );
#84 = FACE_BOUND( '', #136, .T. );
#85 = FACE_OUTER_BOUND( '', #137, .T. );
#86 = CONICAL_SURFACE( '', #138, 6.00000000000000, 1.18946407340000 );
#87 = SURFACE_STYLE_USAGE( .BOTH., #139 );
#88 = FACE_OUTER_BOUND( '', #140, .T. );
#89 = FACE_BOUND( '', #141, .T. );
#90 = PLANE( '', #142 );
#91 = SURFACE_STYLE_USAGE( .BOTH., #143 );
#92 = FACE_OUTER_BOUND( '', #144, .T. );
#93 = FACE_OUTER_BOUND( '', #145, .T. );
#94 = CYLINDRICAL_SURFACE( '', #146, 6.00000000000000 );
#95 = SURFACE_STYLE_USAGE( .BOTH., #147 );
#96 = FACE_OUTER_BOUND( '', #148, .T. );
#97 = PLANE( '', #149 );
#98 = SURFACE_STYLE_USAGE( .BOTH., #150 );
#99 = FACE_OUTER_BOUND( '', #151, .T. );
#100 = FACE_OUTER_BOUND( '', #152, .T. );
#101 = CYLINDRICAL_SURFACE( '', #153, 4.00000000000000 );
#102 = SURFACE_STYLE_USAGE( .BOTH., #154 );
#103 = FACE_OUTER_BOUND( '', #155, .T. );
#104 = PLANE( '', #156 );
#105 = SURFACE_STYLE_USAGE( .BOTH., #157 );
#106 = FACE_OUTER_BOUND( '', #158, .T. );
#107 = PLANE( '', #159 );
#108 = SURFACE_STYLE_USAGE( .BOTH., #160 );
#109 = FACE_OUTER_BOUND( '', #161, .T. );
#110 = PLANE( '', #162 );
#111 = SURFACE_STYLE_USAGE( .BOTH., #163 );
#112 = FACE_OUTER_BOUND( '', #164, .T. );
#113 = PLANE( '', #165 );
#114 = SURFACE_STYLE_USAGE( .BOTH., #166 );
#115 = FACE_OUTER_BOUND( '', #167, .T. );
#116 = CONICAL_SURFACE( '', #168, 4.92650000000000, 0.785398163400000 );
#117 = SURFACE_STYLE_USAGE( .BOTH., #169 );
#118 = FACE_BOUND( '', #170, .T. );
#119 = FACE_OUTER_BOUND( '', #171, .T. );
#120 = SPHERICAL_SURFACE( '', #172, 6.70960000000000 );
#121 = SURFACE_STYLE_USAGE( .BOTH., #173 );
#122 = FACE_OUTER_BOUND( '', #174, .T. );
#123 = CONICAL_SURFACE( '', #175, 4.92650000000000, 0.785398163400000 );
#124 = PRODUCT_CONTEXT( '', #23, 'mechanical' );
#125 = PRODUCT_DEFINITION_FORMATION_WITH_SPECIFIED_SOURCE( ' ', 'NONE', #62, .NOT_KNOWN. );
#126 = CLOSED_SHELL( '', ( #55, #49, #59, #47, #41, #37, #39, #43, #57, #51, #61, #45, #53 ) );
#127 = CARTESIAN_POINT( '', ( 0.000000000000000, 0.000000000000000, 0.000000000000000 ) );
#128 = DIRECTION( '', ( 0.000000000000000, 0.000000000000000, 1.00000000000000 ) );
#129 = DIRECTION( '', ( 1.00000000000000, 0.000000000000000, 0.000000000000000 ) );
#130 =  ( LENGTH_UNIT(  )NAMED_UNIT( #71 )SI_UNIT( .MILLI., .METRE. ) );
#131 = SURFACE_SIDE_STYLE( '', ( #177 ) );
#132 = EDGE_LOOP( '', ( #178 ) );
#133 = EDGE_LOOP( '', ( #179 ) );
#134 = AXIS2_PLACEMENT_3D( '', #180, #181, #182 );
#135 = SURFACE_SIDE_STYLE( '', ( #183 ) );
#136 = EDGE_LOOP( '', ( #184 ) );
#137 = EDGE_LOOP( '', ( #185 ) );
#138 = AXIS2_PLACEMENT_3D( '', #186, #187, #188 );
#139 = SURFACE_SIDE_STYLE( '', ( #189 ) );
#140 = EDGE_LOOP( '', ( #190 ) );
#141 = EDGE_LOOP( '', ( #191 ) );
#142 = AXIS2_PLACEMENT_3D( '', #192, #193, #194 );
#143 = SURFACE_SIDE_STYLE( '', ( #195 ) );
#144 = EDGE_LOOP( '', ( #196 ) );
#145 = EDGE_LOOP( '', ( #197, #198, #199, #200, #201, #202, #203, #204 ) );
#146 = AXIS2_PLACEMENT_3D( '', #205, #206, #207 );
#147 = SURFACE_SIDE_STYLE( '', ( #208 ) );
#148 = EDGE_LOOP( '', ( #209, #210 ) );
#149 = AXIS2_PLACEMENT_3D( '', #211, #212, #213 );
#150 = SURFACE_SIDE_STYLE( '', ( #214 ) );
#151 = EDGE_LOOP( '', ( #215 ) );
#152 = EDGE_LOOP( '', ( #216 ) );
#153 = AXIS2_PLACEMENT_3D( '', #217, #218, #219 );
#154 = SURFACE_SIDE_STYLE( '', ( #220 ) );
#155 = EDGE_LOOP( '', ( #221, #222, #223, #224, #225, #226 ) );
#156 = AXIS2_PLACEMENT_3D( '', #227, #228, #229 );
#157 = SURFACE_SIDE_STYLE( '', ( #230 ) );
#158 = EDGE_LOOP( '', ( #231, #232 ) );
#159 = AXIS2_PLACEMENT_3D( '', #233, #234, #235 );
#160 = SURFACE_SIDE_STYLE( '', ( #236 ) );
#161 = EDGE_LOOP( '', ( #237, #238, #239, #240 ) );
#162 = AXIS2_PLACEMENT_3D( '', #241, #242, #243 );
#163 = SURFACE_SIDE_STYLE( '', ( #244 ) );
#164 = EDGE_LOOP( '', ( #245, #246, #247, #248, #249, #250 ) );
#165 = AXIS2_PLACEMENT_3D( '', #251, #252, #253 );
#166 = SURFACE_SIDE_STYLE( '', ( #254 ) );
#167 = EDGE_LOOP( '', ( #255, #256, #257, #258 ) );
#168 = AXIS2_PLACEMENT_3D( '', #259, #260, #261 );
#169 = SURFACE_SIDE_STYLE( '', ( #262 ) );
#170 = VERTEX_LOOP( '', #263 );
#171 = EDGE_LOOP( '', ( #264 ) );
#172 = AXIS2_PLACEMENT_3D( '', #265, #266, #267 );
#173 = SURFACE_SIDE_STYLE( '', ( #268 ) );
#174 = EDGE_LOOP( '', ( #269, #270, #271, #272 ) );
#175 = AXIS2_PLACEMENT_3D( '', #273, #274, #275 );
#177 = SURFACE_STYLE_FILL_AREA( #276 );
#178 = ORIENTED_EDGE( '', *, *, #277, .F. );
#179 = ORIENTED_EDGE( '', *, *, #278, .T. );
#180 = CARTESIAN_POINT( '', ( 80.0000000000000, -5.32907051820075E-15, 0.000000000000000 ) );
#181 = DIRECTION( '', ( -1.00000000000000, 6.12323399573676E-17, 0.000000000000000 ) );
#182 = DIRECTION( '', ( 6.12323399573676E-17, 1.00000000000000, 0.000000000000000 ) );
#183 = SURFACE_STYLE_FILL_AREA( #279 );
#184 = ORIENTED_EDGE( '', *, *, #278, .F. );
#185 = ORIENTED_EDGE( '', *, *, #280, .T. );
#186 = CARTESIAN_POINT( '', ( 70.0000000000000, -4.71674711862708E-15, 0.000000000000000 ) );
#187 = DIRECTION( '', ( -1.00000000000000, 6.12323399573677E-17, -0.000000000000000 ) );
#188 = DIRECTION( '', ( -6.12323399573677E-17, -1.00000000000000, 0.000000000000000 ) );
#189 = SURFACE_STYLE_FILL_AREA( #281 );
#190 = ORIENTED_EDGE( '', *, *, #282, .F. );
#191 = ORIENTED_EDGE( '', *, *, #277, .T. );
#192 = CARTESIAN_POINT( '', ( 75.5000000000000, 3.60000000000000, 0.000000000000000 ) );
#193 = DIRECTION( '', ( 1.00000000000000, -6.12323399573677E-17, -0.000000000000000 ) );
#194 = DIRECTION( '', ( 6.12323399573677E-17, 1.00000000000000, 0.000000000000000 ) );
#195 = SURFACE_STYLE_FILL_AREA( #283 );
#196 = ORIENTED_EDGE( '', *, *, #280, .F. );
#197 = ORIENTED_EDGE( '', *, *, #284, .T. );
#198 = ORIENTED_EDGE( '', *, *, #285, .T. );
#199 = ORIENTED_EDGE( '', *, *, #286, .F. );
#200 = ORIENTED_EDGE( '', *, *, #287, .T. );
#201 = ORIENTED_EDGE( '', *, *, #288, .T. );
#202 = ORIENTED_EDGE( '', *, *, #289, .T. );
#203 = ORIENTED_EDGE( '', *, *, #290, .F. );
#204 = ORIENTED_EDGE( '', *, *, #291, .T. );
#205 = CARTESIAN_POINT( '', ( 80.0000000000000, -5.32907051820075E-15, 0.000000000000000 ) );
#206 = DIRECTION( '', ( -1.00000000000000, 6.12323399573677E-17, 0.000000000000000 ) );
#207 = DIRECTION( '', ( 6.12323399573677E-17, 1.00000000000000, 0.000000000000000 ) );
#208 = SURFACE_STYLE_FILL_AREA( #292 );
#209 = ORIENTED_EDGE( '', *, *, #293, .F. );
#210 = ORIENTED_EDGE( '', *, *, #294, .F. );
#211 = CARTESIAN_POINT( '', ( -1.50830561399986E-16, -4.30483321611338E-16, 0.000000000000000 ) );
#212 = DIRECTION( '', ( 1.00000000000000, -6.12323399573677E-17, -0.000000000000000 ) );
#213 = DIRECTION( '', ( 6.12323399573677E-17, 1.00000000000000, 0.000000000000000 ) );
#214 = SURFACE_STYLE_FILL_AREA( #295 );
#215 = ORIENTED_EDGE( '', *, *, #296, .F. );
#216 = ORIENTED_EDGE( '', *, *, #282, .T. );
#217 = CARTESIAN_POINT( '', ( 80.0000000000000, -5.32907051820075E-15, 0.000000000000000 ) );
#218 = DIRECTION( '', ( -1.00000000000000, 6.12323399573677E-17, 0.000000000000000 ) );
#219 = DIRECTION( '', ( 6.12323399573677E-17, 1.00000000000000, 0.000000000000000 ) );
#220 = SURFACE_STYLE_FILL_AREA( #297 );
#221 = ORIENTED_EDGE( '', *, *, #298, .T. );
#222 = ORIENTED_EDGE( '', *, *, #299, .F. );
#223 = ORIENTED_EDGE( '', *, *, #291, .F. );
#224 = ORIENTED_EDGE( '', *, *, #300, .F. );
#225 = ORIENTED_EDGE( '', *, *, #285, .F. );
#226 = ORIENTED_EDGE( '', *, *, #301, .F. );
#227 = CARTESIAN_POINT( '', ( 3.00000000000000, -0.900000000000000, -10.5000000000000 ) );
#228 = DIRECTION( '', ( 0.000000000000000, -1.00000000000000, 0.000000000000000 ) );
#229 = DIRECTION( '', ( 0.000000000000000, 0.000000000000000, -1.00000000000000 ) );
#230 = SURFACE_STYLE_FILL_AREA( #302 );
#231 = ORIENTED_EDGE( '', *, *, #303, .F. );
#232 = ORIENTED_EDGE( '', *, *, #298, .F. );
#233 = CARTESIAN_POINT( '', ( -1.50830561399986E-16, -4.30483321611338E-16, 0.000000000000000 ) );
#234 = DIRECTION( '', ( 1.00000000000000, -6.12323399573677E-17, -0.000000000000000 ) );
#235 = DIRECTION( '', ( 6.12323399573677E-17, 1.00000000000000, 0.000000000000000 ) );
#236 = SURFACE_STYLE_FILL_AREA( #304 );
#237 = ORIENTED_EDGE( '', *, *, #286, .T. );
#238 = ORIENTED_EDGE( '', *, *, #300, .T. );
#239 = ORIENTED_EDGE( '', *, *, #290, .T. );
#240 = ORIENTED_EDGE( '', *, *, #305, .T. );
#241 = CARTESIAN_POINT( '', ( 3.00000000000000, 0.000000000000000, 0.000000000000000 ) );
#242 = DIRECTION( '', ( -1.00000000000000, 0.000000000000000, 0.000000000000000 ) );
#243 = DIRECTION( '', ( 0.000000000000000, 0.000000000000000, 1.00000000000000 ) );
#244 = SURFACE_STYLE_FILL_AREA( #306 );
#245 = ORIENTED_EDGE( '', *, *, #307, .F. );
#246 = ORIENTED_EDGE( '', *, *, #294, .T. );
#247 = ORIENTED_EDGE( '', *, *, #308, .F. );
#248 = ORIENTED_EDGE( '', *, *, #287, .F. );
#249 = ORIENTED_EDGE( '', *, *, #305, .F. );
#250 = ORIENTED_EDGE( '', *, *, #289, .F. );
#251 = CARTESIAN_POINT( '', ( 3.00000000000000, 0.900000000000000, 10.5000000000000 ) );
#252 = DIRECTION( '', ( 0.000000000000000, 1.00000000000000, 0.000000000000000 ) );
#253 = DIRECTION( '', ( 0.000000000000000, -0.000000000000000, 1.00000000000000 ) );
#254 = SURFACE_STYLE_FILL_AREA( #309 );
#255 = ORIENTED_EDGE( '', *, *, #293, .T. );
#256 = ORIENTED_EDGE( '', *, *, #307, .T. );
#257 = ORIENTED_EDGE( '', *, *, #288, .F. );
#258 = ORIENTED_EDGE( '', *, *, #308, .T. );
#259 = CARTESIAN_POINT( '', ( 0.000000000000000, -4.30483321611339E-16, 0.000000000000000 ) );
#260 = DIRECTION( '', ( 1.00000000000000, -6.12323399573676E-17, -0.000000000000000 ) );
#261 = DIRECTION( '', ( 6.12323399573677E-17, 1.00000000000000, 0.000000000000000 ) );
#262 = SURFACE_STYLE_FILL_AREA( #310 );
#263 = VERTEX_POINT( '', #311 );
#264 = ORIENTED_EDGE( '', *, *, #296, .T. );
#265 = CARTESIAN_POINT( '', ( 73.2904000000001, 3.33934269125535E-14, 0.000000000000000 ) );
#266 = DIRECTION( '', ( 1.00000000000000, 0.000000000000000, 0.000000000000000 ) );
#267 = DIRECTION( '', ( 0.000000000000000, -1.00000000000000, 0.000000000000000 ) );
#268 = SURFACE_STYLE_FILL_AREA( #312 );
#269 = ORIENTED_EDGE( '', *, *, #284, .F. );
#270 = ORIENTED_EDGE( '', *, *, #299, .T. );
#271 = ORIENTED_EDGE( '', *, *, #303, .T. );
#272 = ORIENTED_EDGE( '', *, *, #301, .T. );
#273 = CARTESIAN_POINT( '', ( 0.000000000000000, -4.30483321611339E-16, 0.000000000000000 ) );
#274 = DIRECTION( '', ( 1.00000000000000, -6.12323399573676E-17, -0.000000000000000 ) );
#275 = DIRECTION( '', ( 6.12323399573677E-17, 1.00000000000000, 0.000000000000000 ) );
#276 = FILL_AREA_STYLE( '', ( #313 ) );
#277 = EDGE_CURVE( '', #314, #314, #315, .T. );
#278 = EDGE_CURVE( '', #316, #316, #317, .T. );
#279 = FILL_AREA_STYLE( '', ( #318 ) );
#280 = EDGE_CURVE( '', #319, #319, #320, .T. );
#281 = FILL_AREA_STYLE( '', ( #321 ) );
#282 = EDGE_CURVE( '', #322, #322, #323, .T. );
#283 = FILL_AREA_STYLE( '', ( #324 ) );
#284 = EDGE_CURVE( '', #325, #326, #327, .T. );
#285 = EDGE_CURVE( '', #326, #328, #329, .T. );
#286 = EDGE_CURVE( '', #330, #328, #331, .T. );
#287 = EDGE_CURVE( '', #330, #332, #333, .F. );
#288 = EDGE_CURVE( '', #332, #334, #335, .T. );
#289 = EDGE_CURVE( '', #334, #336, #337, .T. );
#290 = EDGE_CURVE( '', #338, #336, #339, .T. );
#291 = EDGE_CURVE( '', #338, #325, #340, .F. );
#292 = FILL_AREA_STYLE( '', ( #341 ) );
#293 = EDGE_CURVE( '', #342, #343, #344, .T. );
#294 = EDGE_CURVE( '', #343, #342, #345, .T. );
#295 = FILL_AREA_STYLE( '', ( #346 ) );
#296 = EDGE_CURVE( '', #347, #347, #348, .T. );
#297 = FILL_AREA_STYLE( '', ( #349 ) );
#298 = EDGE_CURVE( '', #350, #351, #352, .T. );
#299 = EDGE_CURVE( '', #325, #351, #353, .T. );
#300 = EDGE_CURVE( '', #328, #338, #354, .T. );
#301 = EDGE_CURVE( '', #350, #326, #355, .T. );
#302 = FILL_AREA_STYLE( '', ( #356 ) );
#303 = EDGE_CURVE( '', #351, #350, #357, .T. );
#304 = FILL_AREA_STYLE( '', ( #358 ) );
#305 = EDGE_CURVE( '', #336, #330, #359, .T. );
#306 = FILL_AREA_STYLE( '', ( #360 ) );
#307 = EDGE_CURVE( '', #343, #334, #361, .T. );
#308 = EDGE_CURVE( '', #332, #342, #362, .T. );
#309 = FILL_AREA_STYLE( '', ( #363 ) );
#310 = FILL_AREA_STYLE( '', ( #364 ) );
#311 = CARTESIAN_POINT( '', ( 80.0000000000000, 3.25717378961976E-14, 0.000000000000000 ) );
#312 = FILL_AREA_STYLE( '', ( #365 ) );
#313 = FILL_AREA_STYLE_COLOUR( '', #366 );
#314 = VERTEX_POINT( '', #367 );
#315 = CIRCLE( '', #368, 3.60000000000000 );
#316 = VERTEX_POINT( '', #369 );
#317 = CIRCLE( '', #370, 3.60000000000000 );
#318 = FILL_AREA_STYLE_COLOUR( '', #371 );
#319 = VERTEX_POINT( '', #372 );
#320 = CIRCLE( '', #373, 6.00000000000000 );
#321 = FILL_AREA_STYLE_COLOUR( '', #374 );
#322 = VERTEX_POINT( '', #375 );
#323 = CIRCLE( '', #376, 4.00000000000000 );
#324 = FILL_AREA_STYLE_COLOUR( '', #377 );
#325 = VERTEX_POINT( '', #378 );
#326 = VERTEX_POINT( '', #379 );
#327 = CIRCLE( '', #380, 6.00000000000000 );
#328 = VERTEX_POINT( '', #381 );
#329 = LINE( '', #382, #383 );
#330 = VERTEX_POINT( '', #384 );
#331 = CIRCLE( '', #385, 6.00000000000000 );
#332 = VERTEX_POINT( '', #386 );
#333 = LINE( '', #387, #388 );
#334 = VERTEX_POINT( '', #389 );
#335 = CIRCLE( '', #390, 6.00000000000000 );
#336 = VERTEX_POINT( '', #391 );
#337 = LINE( '', #392, #393 );
#338 = VERTEX_POINT( '', #394 );
#339 = CIRCLE( '', #395, 6.00000000000000 );
#340 = LINE( '', #396, #397 );
#341 = FILL_AREA_STYLE_COLOUR( '', #398 );
#342 = VERTEX_POINT( '', #399 );
#343 = VERTEX_POINT( '', #400 );
#344 = CIRCLE( '', #401, 4.92650000000000 );
#345 = LINE( '', #402, #403 );
#346 = FILL_AREA_STYLE_COLOUR( '', #404 );
#347 = VERTEX_POINT( '', #405 );
#348 = CIRCLE( '', #406, 4.00000000000000 );
#349 = FILL_AREA_STYLE_COLOUR( '', #407 );
#350 = VERTEX_POINT( '', #408 );
#351 = VERTEX_POINT( '', #409 );
#352 = LINE( '', #410, #411 );
#353 = B_SPLINE_CURVE_WITH_KNOTS( '', 3, ( #412, #413, #414, #415 ), .UNSPECIFIED., .F., .F., ( 4, 4 ), ( 0.0102495533465439, 0.0117783706769766 ), .UNSPECIFIED. );
#354 = LINE( '', #416, #417 );
#355 = B_SPLINE_CURVE_WITH_KNOTS( '', 3, ( #418, #419, #420, #421 ), .UNSPECIFIED., .F., .F., ( 4, 4 ), ( 0.0245656796122453, 0.0261075036220749 ), .UNSPECIFIED. );
#356 = FILL_AREA_STYLE_COLOUR( '', #422 );
#357 = CIRCLE( '', #423, 4.92650000000000 );
#358 = FILL_AREA_STYLE_COLOUR( '', #424 );
#359 = LINE( '', #425, #426 );
#360 = FILL_AREA_STYLE_COLOUR( '', #427 );
#361 = B_SPLINE_CURVE_WITH_KNOTS( '', 3, ( #428, #429, #430, #431 ), .UNSPECIFIED., .F., .F., ( 4, 4 ), ( 0.0245656796122453, 0.0261075036220749 ), .UNSPECIFIED. );
#362 = B_SPLINE_CURVE_WITH_KNOTS( '', 3, ( #432, #433, #434, #435 ), .UNSPECIFIED., .F., .F., ( 4, 4 ), ( 0.0102495533465439, 0.0117783706769766 ), .UNSPECIFIED. );
#363 = FILL_AREA_STYLE_COLOUR( '', #436 );
#364 = FILL_AREA_STYLE_COLOUR( '', #437 );
#365 = FILL_AREA_STYLE_COLOUR( '', #438 );
#366 = COLOUR_RGB( '', 0.689999997600000, 0.689999997600000, 0.689999997600000 );
#367 = CARTESIAN_POINT( '', ( 75.5000000000000, 3.59999999999999, 0.000000000000000 ) );
#368 = AXIS2_PLACEMENT_3D( '', #439, #440, #441 );
#369 = CARTESIAN_POINT( '', ( 70.9623000000000, 3.59999999999999, 0.000000000000000 ) );
#370 = AXIS2_PLACEMENT_3D( '', #442, #443, #444 );
#371 = COLOUR_RGB( '', 0.689999997600000, 0.689999997600000, 0.689999997600000 );
#372 = CARTESIAN_POINT( '', ( 70.0000000000000, 6.00000000000000, 0.000000000000000 ) );
#373 = AXIS2_PLACEMENT_3D( '', #445, #446, #447 );
#374 = COLOUR_RGB( '', 0.689999997600000, 0.689999997600000, 0.689999997600000 );
#375 = CARTESIAN_POINT( '', ( 75.5000000000000, 3.99999999999999, 0.000000000000000 ) );
#376 = AXIS2_PLACEMENT_3D( '', #448, #449, #450 );
#377 = COLOUR_RGB( '', 0.689999997600000, 0.689999997600000, 0.689999997600000 );
#378 = CARTESIAN_POINT( '', ( 1.07350000000001, -0.899999999999996, 5.93211597998556 ) );
#379 = CARTESIAN_POINT( '', ( 1.07350000000001, -0.899999999999996, -5.93211597998556 ) );
#380 = AXIS2_PLACEMENT_3D( '', #451, #452, #453 );
#381 = CARTESIAN_POINT( '', ( 3.00000000000000, -0.900000000000000, -5.93211597998556 ) );
#382 = CARTESIAN_POINT( '', ( 80.0000000000000, -0.900000000000000, -5.93211597998556 ) );
#383 = VECTOR( '', #454, 1000.00000000000 );
#384 = CARTESIAN_POINT( '', ( 3.00000000000000, 0.899999999999999, -5.93211597998556 ) );
#385 = AXIS2_PLACEMENT_3D( '', #455, #456, #457 );
#386 = CARTESIAN_POINT( '', ( 1.07350000000001, 0.900000000000005, -5.93211597998556 ) );
#387 = CARTESIAN_POINT( '', ( 80.0000000000000, 0.900000000000000, -5.93211597998556 ) );
#388 = VECTOR( '', #458, 1000.00000000000 );
#389 = CARTESIAN_POINT( '', ( 1.07350000000001, 0.900000000000005, 5.93211597998556 ) );
#390 = AXIS2_PLACEMENT_3D( '', #459, #460, #461 );
#391 = CARTESIAN_POINT( '', ( 3.00000000000000, 0.899999999999999, 5.93211597998556 ) );
#392 = CARTESIAN_POINT( '', ( 80.0000000000000, 0.900000000000000, 5.93211597998556 ) );
#393 = VECTOR( '', #462, 1000.00000000000 );
#394 = CARTESIAN_POINT( '', ( 3.00000000000000, -0.900000000000000, 5.93211597998556 ) );
#395 = AXIS2_PLACEMENT_3D( '', #463, #464, #465 );
#396 = CARTESIAN_POINT( '', ( 80.0000000000000, -0.900000000000000, 5.93211597998556 ) );
#397 = VECTOR( '', #466, 1000.00000000000 );
#398 = COLOUR_RGB( '', 0.689999997600000, 0.689999997600000, 0.689999997600000 );
#399 = CARTESIAN_POINT( '', ( 0.000000000000000, 0.899999999999999, -4.84359393942143 ) );
#400 = CARTESIAN_POINT( '', ( 0.000000000000000, 0.899999999999999, 4.84359393942143 ) );
#401 = AXIS2_PLACEMENT_3D( '', #467, #468, #469 );
#402 = CARTESIAN_POINT( '', ( 0.000000000000000, 0.900000000000000, 10.5000000000000 ) );
#403 = VECTOR( '', #470, 1000.00000000000 );
#404 = COLOUR_RGB( '', 0.689999997600000, 0.689999997600000, 0.689999997600000 );
#405 = CARTESIAN_POINT( '', ( 78.6773037637589, 3.99999999999999, 0.000000000000000 ) );
#406 = AXIS2_PLACEMENT_3D( '', #471, #472, #473 );
#407 = COLOUR_RGB( '', 0.689999997600000, 0.689999997600000, 0.689999997600000 );
#408 = CARTESIAN_POINT( '', ( 0.000000000000000, -0.900000000000000, -4.84359393942143 ) );
#409 = CARTESIAN_POINT( '', ( 0.000000000000000, -0.900000000000000, 4.84359393942143 ) );
#410 = CARTESIAN_POINT( '', ( 0.000000000000000, -0.900000000000000, -10.5000000000000 ) );
#411 = VECTOR( '', #474, 1000.00000000000 );
#412 = CARTESIAN_POINT( '', ( 1.07350000000000, -0.900000000000000, 5.93211597998556 ) );
#413 = CARTESIAN_POINT( '', ( 0.715209951210059, -0.900000000000000, 5.56972584803387 ) );
#414 = CARTESIAN_POINT( '', ( 0.357275562011623, -0.900000000000000, 5.20698485911122 ) );
#415 = CARTESIAN_POINT( '', ( -3.10654305026396E-15, -0.900000000000000, 4.84359393942143 ) );
#416 = CARTESIAN_POINT( '', ( 3.00000000000000, -0.900000000000000, -10.5000000000000 ) );
#417 = VECTOR( '', #475, 1000.00000000000 );
#418 = CARTESIAN_POINT( '', ( 5.27453010064145E-18, -0.900000000000000, -4.84359393942143 ) );
#419 = CARTESIAN_POINT( '', ( 0.357276898579810, -0.900000000000000, -5.20698621855697 ) );
#420 = CARTESIAN_POINT( '', ( 0.715211048721682, -0.900000000000000, -5.56972695810484 ) );
#421 = CARTESIAN_POINT( '', ( 1.07350000000000, -0.900000000000000, -5.93211597998556 ) );
#422 = COLOUR_RGB( '', 0.689999997600000, 0.689999997600000, 0.689999997600000 );
#423 = AXIS2_PLACEMENT_3D( '', #476, #477, #478 );
#424 = COLOUR_RGB( '', 0.689999997600000, 0.689999997600000, 0.689999997600000 );
#425 = CARTESIAN_POINT( '', ( 3.00000000000000, 0.900000000000000, 10.5000000000000 ) );
#426 = VECTOR( '', #479, 1000.00000000000 );
#427 = COLOUR_RGB( '', 0.689999997600000, 0.689999997600000, 0.689999997600000 );
#428 = CARTESIAN_POINT( '', ( 2.73614557451046E-16, 0.900000000000000, 4.84359393942143 ) );
#429 = CARTESIAN_POINT( '', ( 0.357276898579811, 0.900000000000000, 5.20698621855697 ) );
#430 = CARTESIAN_POINT( '', ( 0.715211048721682, 0.900000000000000, 5.56972695810484 ) );
#431 = CARTESIAN_POINT( '', ( 1.07350000000000, 0.900000000000000, 5.93211597998556 ) );
#432 = CARTESIAN_POINT( '', ( 1.07350000000000, 0.900000000000000, -5.93211597998556 ) );
#433 = CARTESIAN_POINT( '', ( 0.715209951210059, 0.900000000000000, -5.56972584803387 ) );
#434 = CARTESIAN_POINT( '', ( 0.357275562011623, 0.900000000000000, -5.20698485911122 ) );
#435 = CARTESIAN_POINT( '', ( -3.04959246213380E-15, 0.900000000000000, -4.84359393942143 ) );
#436 = COLOUR_RGB( '', 0.689999997600000, 0.689999997600000, 0.689999997600000 );
#437 = COLOUR_RGB( '', 0.689999997600000, 0.689999997600000, 0.689999997600000 );
#438 = COLOUR_RGB( '', 0.689999997600000, 0.689999997600000, 0.689999997600000 );
#439 = CARTESIAN_POINT( '', ( 75.5000000000000, -5.05352498839260E-15, 0.000000000000000 ) );
#440 = DIRECTION( '', ( 1.00000000000000, -6.12323399573676E-17, -0.000000000000000 ) );
#441 = DIRECTION( '', ( 6.12323399573676E-17, 1.00000000000000, 0.000000000000000 ) );
#442 = CARTESIAN_POINT( '', ( 70.9623000000000, -4.77567099936805E-15, 0.000000000000000 ) );
#443 = DIRECTION( '', ( 1.00000000000000, -6.12323399573677E-17, -0.000000000000000 ) );
#444 = DIRECTION( '', ( 6.12323399573677E-17, 1.00000000000000, 0.000000000000000 ) );
#445 = CARTESIAN_POINT( '', ( 70.0000000000000, -4.71674711862708E-15, 0.000000000000000 ) );
#446 = DIRECTION( '', ( 1.00000000000000, -6.12323399573677E-17, -0.000000000000000 ) );
#447 = DIRECTION( '', ( 6.12323399573677E-17, 1.00000000000000, 0.000000000000000 ) );
#448 = CARTESIAN_POINT( '', ( 75.5000000000000, -5.05352498839260E-15, 0.000000000000000 ) );
#449 = DIRECTION( '', ( 1.00000000000000, -6.12323399573677E-17, -0.000000000000000 ) );
#450 = DIRECTION( '', ( 6.12323399573677E-17, 1.00000000000000, 0.000000000000000 ) );
#451 = CARTESIAN_POINT( '', ( 1.07350000000001, -4.96216238555573E-16, 0.000000000000000 ) );
#452 = DIRECTION( '', ( 1.00000000000000, -6.12323399573677E-17, -0.000000000000000 ) );
#453 = DIRECTION( '', ( 6.12323399573677E-17, 1.00000000000000, 0.000000000000000 ) );
#454 = DIRECTION( '', ( 1.00000000000000, -6.12323399573677E-17, -0.000000000000000 ) );
#455 = CARTESIAN_POINT( '', ( 3.00000000000000, -6.14180341483442E-16, 0.000000000000000 ) );
#456 = DIRECTION( '', ( -1.00000000000000, 0.000000000000000, 0.000000000000000 ) );
#457 = DIRECTION( '', ( 0.000000000000000, 0.000000000000000, 1.00000000000000 ) );
#458 = DIRECTION( '', ( 1.00000000000000, -6.12323399573677E-17, -0.000000000000000 ) );
#459 = CARTESIAN_POINT( '', ( 1.07350000000001, -4.96216238555573E-16, 0.000000000000000 ) );
#460 = DIRECTION( '', ( 1.00000000000000, -6.12323399573677E-17, -0.000000000000000 ) );
#461 = DIRECTION( '', ( 6.12323399573677E-17, 1.00000000000000, 0.000000000000000 ) );
#462 = DIRECTION( '', ( 1.00000000000000, -6.12323399573677E-17, -0.000000000000000 ) );
#463 = CARTESIAN_POINT( '', ( 3.00000000000000, -6.14180341483442E-16, 0.000000000000000 ) );
#464 = DIRECTION( '', ( -1.00000000000000, 0.000000000000000, 0.000000000000000 ) );
#465 = DIRECTION( '', ( 0.000000000000000, 0.000000000000000, 1.00000000000000 ) );
#466 = DIRECTION( '', ( 1.00000000000000, -6.12323399573677E-17, -0.000000000000000 ) );
#467 = CARTESIAN_POINT( '', ( 0.000000000000000, -4.30483321611339E-16, 0.000000000000000 ) );
#468 = DIRECTION( '', ( 1.00000000000000, -6.12323399573676E-17, -0.000000000000000 ) );
#469 = DIRECTION( '', ( 6.12323399573677E-17, 1.00000000000000, 0.000000000000000 ) );
#470 = DIRECTION( '', ( 0.000000000000000, 0.000000000000000, -1.00000000000000 ) );
#471 = CARTESIAN_POINT( '', ( 78.6773037637589, -5.24807873260291E-15, 0.000000000000000 ) );
#472 = DIRECTION( '', ( 1.00000000000000, -6.12323399573677E-17, -0.000000000000000 ) );
#473 = DIRECTION( '', ( 6.12323399573677E-17, 1.00000000000000, 0.000000000000000 ) );
#474 = DIRECTION( '', ( 0.000000000000000, 0.000000000000000, 1.00000000000000 ) );
#475 = DIRECTION( '', ( 0.000000000000000, 0.000000000000000, 1.00000000000000 ) );
#476 = CARTESIAN_POINT( '', ( 0.000000000000000, -4.30483321611339E-16, 0.000000000000000 ) );
#477 = DIRECTION( '', ( 1.00000000000000, -6.12323399573676E-17, -0.000000000000000 ) );
#478 = DIRECTION( '', ( 6.12323399573677E-17, 1.00000000000000, 0.000000000000000 ) );
#479 = DIRECTION( '', ( 0.000000000000000, 0.000000000000000, -1.00000000000000 ) );
ENDSEC;
END-ISO-10303-21;
