ISO-10303-21;
HEADER;
FILE_DESCRIPTION( ( 'STEP AP214' ), '1' );
FILE_NAME( '//goodhand-server/Shared Folders/GoodHand Data/Kipp CAD/K1153/K1153.201140.stp', '2020-12-10T10:26:19', ( '' ), ( '' ), ' ', 'PARTsolutions', ' ' );
FILE_SCHEMA( ( 'AUTOMOTIVE_DESIGN { 1 0 10303 214 1 1 1 1 }' ) );
ENDSEC;
DATA;
#1 = MECHANICAL_DESIGN_GEOMETRIC_PRESENTATION_REPRESENTATION( ' ', ( #10, #11, #12, #13, #14, #15, #16, #17, #18, #19, #20 ), #6 );
#2 = PRODUCT_DEFINITION_CONTEXT( '', #21, 'design' );
#3 = APPLICATION_PROTOCOL_DEFINITION( 'international standard', 'automotive_design', 2001, #21 );
#4 = PRODUCT_CATEGORY_RELATIONSHIP( 'NONE', 'NONE', #22, #23 );
#5 = SHAPE_DEFINITION_REPRESENTATION( #24, #25 );
#6 =  ( GEOMETRIC_REPRESENTATION_CONTEXT( 3 )GLOBAL_UNCERTAINTY_ASSIGNED_CONTEXT( ( #28 ) )GLOBAL_UNIT_ASSIGNED_CONTEXT( ( #30, #31, #32 ) )REPRESENTATION_CONTEXT( 'NONE', 'WORKSPACE' ) );
#10 = STYLED_ITEM( '', ( #34 ), #35 );
#11 = STYLED_ITEM( '', ( #36 ), #37 );
#12 = STYLED_ITEM( '', ( #38 ), #39 );
#13 = STYLED_ITEM( '', ( #40 ), #41 );
#14 = STYLED_ITEM( '', ( #42 ), #43 );
#15 = STYLED_ITEM( '', ( #44 ), #45 );
#16 = STYLED_ITEM( '', ( #46 ), #47 );
#17 = STYLED_ITEM( '', ( #48 ), #49 );
#18 = STYLED_ITEM( '', ( #50 ), #51 );
#19 = STYLED_ITEM( '', ( #52 ), #53 );
#20 = STYLED_ITEM( '', ( #54 ), #55 );
#21 = APPLICATION_CONTEXT( 'core data for automotive mechanical design processes' );
#22 = PRODUCT_CATEGORY( 'part', 'NONE' );
#23 = PRODUCT_RELATED_PRODUCT_CATEGORY( 'detail', ' ', ( #56 ) );
#24 = PRODUCT_DEFINITION_SHAPE( 'NONE', 'NONE', #57 );
#25 = ADVANCED_BREP_SHAPE_REPRESENTATION( '_K1153.201140', ( #58, #59 ), #6 );
#28 = UNCERTAINTY_MEASURE_WITH_UNIT( LENGTH_MEASURE( 0.00100000000000000 ), #30, '', '' );
#30 =  ( CONVERSION_BASED_UNIT( 'MILLIMETRE', #62 )LENGTH_UNIT(  )NAMED_UNIT( #65 ) );
#31 =  ( NAMED_UNIT( #67 )PLANE_ANGLE_UNIT(  )SI_UNIT( $, .RADIAN. ) );
#32 =  ( NAMED_UNIT( #67 )SI_UNIT( $, .STERADIAN. )SOLID_ANGLE_UNIT(  ) );
#34 = PRESENTATION_STYLE_ASSIGNMENT( ( #73 ) );
#35 = ADVANCED_FACE( '', ( #74, #75, #76, #77 ), #78, .F. );
#36 = PRESENTATION_STYLE_ASSIGNMENT( ( #79 ) );
#37 = ADVANCED_FACE( '', ( #80, #81 ), #82, .T. );
#38 = PRESENTATION_STYLE_ASSIGNMENT( ( #83 ) );
#39 = ADVANCED_FACE( '', ( #84, #85 ), #86, .F. );
#40 = PRESENTATION_STYLE_ASSIGNMENT( ( #87 ) );
#41 = ADVANCED_FACE( '', ( #88, #89 ), #90, .F. );
#42 = PRESENTATION_STYLE_ASSIGNMENT( ( #91 ) );
#43 = ADVANCED_FACE( '', ( #92 ), #93, .T. );
#44 = PRESENTATION_STYLE_ASSIGNMENT( ( #94 ) );
#45 = ADVANCED_FACE( '', ( #95, #96 ), #97, .F. );
#46 = PRESENTATION_STYLE_ASSIGNMENT( ( #98 ) );
#47 = ADVANCED_FACE( '', ( #99, #100, #101, #102, #103 ), #104, .F. );
#48 = PRESENTATION_STYLE_ASSIGNMENT( ( #105 ) );
#49 = ADVANCED_FACE( '', ( #106, #107 ), #108, .F. );
#50 = PRESENTATION_STYLE_ASSIGNMENT( ( #109 ) );
#51 = ADVANCED_FACE( '', ( #110, #111 ), #112, .T. );
#52 = PRESENTATION_STYLE_ASSIGNMENT( ( #113 ) );
#53 = ADVANCED_FACE( '', ( #114, #115 ), #116, .T. );
#54 = PRESENTATION_STYLE_ASSIGNMENT( ( #117 ) );
#55 = ADVANCED_FACE( '', ( #118, #119 ), #120, .T. );
#56 = PRODUCT( '_K1153.201140', '_K1153.201140', 'PART-_K1153.201140-DESC', ( #121 ) );
#57 = PRODUCT_DEFINITION( 'NONE', 'NONE', #122, #2 );
#58 = MANIFOLD_SOLID_BREP( '_K1153.201140', #123 );
#59 = AXIS2_PLACEMENT_3D( '', #124, #125, #126 );
#62 = LENGTH_MEASURE_WITH_UNIT( LENGTH_MEASURE( 1.00000000000000 ), #127 );
#65 = DIMENSIONAL_EXPONENTS( 1.00000000000000, 0.000000000000000, 0.000000000000000, 0.000000000000000, 0.000000000000000, 0.000000000000000, 0.000000000000000 );
#67 = DIMENSIONAL_EXPONENTS( 0.000000000000000, 0.000000000000000, 0.000000000000000, 0.000000000000000, 0.000000000000000, 0.000000000000000, 0.000000000000000 );
#73 = SURFACE_STYLE_USAGE( .BOTH., #128 );
#74 = FACE_BOUND( '', #129, .T. );
#75 = FACE_BOUND( '', #130, .T. );
#76 = FACE_BOUND( '', #131, .T. );
#77 = FACE_OUTER_BOUND( '', #132, .T. );
#78 = PLANE( '', #133 );
#79 = SURFACE_STYLE_USAGE( .BOTH., #134 );
#80 = FACE_OUTER_BOUND( '', #135, .T. );
#81 = FACE_OUTER_BOUND( '', #136, .T. );
#82 = TOROIDAL_SURFACE( '', #137, 8.50000000000000, 1.30000000000000 );
#83 = SURFACE_STYLE_USAGE( .BOTH., #138 );
#84 = FACE_OUTER_BOUND( '', #139, .T. );
#85 = FACE_OUTER_BOUND( '', #140, .T. );
#86 = CYLINDRICAL_SURFACE( '', #141, 1.15000000000000 );
#87 = SURFACE_STYLE_USAGE( .BOTH., #142 );
#88 = FACE_BOUND( '', #143, .T. );
#89 = FACE_OUTER_BOUND( '', #144, .T. );
#90 = CONICAL_SURFACE( '', #145, 7.37333333330000, 0.522314821800000 );
#91 = SURFACE_STYLE_USAGE( .BOTH., #146 );
#92 = FACE_OUTER_BOUND( '', #147, .T. );
#93 = PLANE( '', #148 );
#94 = SURFACE_STYLE_USAGE( .BOTH., #149 );
#95 = FACE_OUTER_BOUND( '', #150, .T. );
#96 = FACE_OUTER_BOUND( '', #151, .T. );
#97 = CYLINDRICAL_SURFACE( '', #152, 1.15000000000000 );
#98 = SURFACE_STYLE_USAGE( .BOTH., #153 );
#99 = FACE_OUTER_BOUND( '', #154, .T. );
#100 = FACE_BOUND( '', #155, .T. );
#101 = FACE_BOUND( '', #156, .T. );
#102 = FACE_BOUND( '', #157, .T. );
#103 = FACE_BOUND( '', #158, .T. );
#104 = PLANE( '', #159 );
#105 = SURFACE_STYLE_USAGE( .BOTH., #160 );
#106 = FACE_OUTER_BOUND( '', #161, .T. );
#107 = FACE_OUTER_BOUND( '', #162, .T. );
#108 = CYLINDRICAL_SURFACE( '', #163, 1.15000000000000 );
#109 = SURFACE_STYLE_USAGE( .BOTH., #164 );
#110 = FACE_OUTER_BOUND( '', #165, .T. );
#111 = FACE_OUTER_BOUND( '', #166, .T. );
#112 = CYLINDRICAL_SURFACE( '', #167, 15.0000000000000 );
#113 = SURFACE_STYLE_USAGE( .BOTH., #168 );
#114 = FACE_BOUND( '', #169, .T. );
#115 = FACE_OUTER_BOUND( '', #170, .T. );
#116 = CONICAL_SURFACE( '', #171, 10.0000000000000, 0.522314821800000 );
#117 = SURFACE_STYLE_USAGE( .BOTH., #172 );
#118 = FACE_OUTER_BOUND( '', #173, .T. );
#119 = FACE_OUTER_BOUND( '', #174, .T. );
#120 = CYLINDRICAL_SURFACE( '', #175, 10.0000000000000 );
#121 = PRODUCT_CONTEXT( '', #21, 'mechanical' );
#122 = PRODUCT_DEFINITION_FORMATION_WITH_SPECIFIED_SOURCE( ' ', 'NONE', #56, .NOT_KNOWN. );
#123 = CLOSED_SHELL( '', ( #47, #49, #35, #51, #55, #53, #41, #37, #43, #45, #39 ) );
#124 = CARTESIAN_POINT( '', ( 0.000000000000000, 0.000000000000000, 0.000000000000000 ) );
#125 = DIRECTION( '', ( 0.000000000000000, 0.000000000000000, 1.00000000000000 ) );
#126 = DIRECTION( '', ( 1.00000000000000, 0.000000000000000, 0.000000000000000 ) );
#127 =  ( LENGTH_UNIT(  )NAMED_UNIT( #65 )SI_UNIT( .MILLI., .METRE. ) );
#128 = SURFACE_SIDE_STYLE( '', ( #177 ) );
#129 = EDGE_LOOP( '', ( #178 ) );
#130 = EDGE_LOOP( '', ( #179 ) );
#131 = EDGE_LOOP( '', ( #180 ) );
#132 = EDGE_LOOP( '', ( #181 ) );
#133 = AXIS2_PLACEMENT_3D( '', #182, #183, #184 );
#134 = SURFACE_SIDE_STYLE( '', ( #185 ) );
#135 = EDGE_LOOP( '', ( #186 ) );
#136 = EDGE_LOOP( '', ( #187 ) );
#137 = AXIS2_PLACEMENT_3D( '', #188, #189, #190 );
#138 = SURFACE_SIDE_STYLE( '', ( #191 ) );
#139 = EDGE_LOOP( '', ( #192 ) );
#140 = EDGE_LOOP( '', ( #193 ) );
#141 = AXIS2_PLACEMENT_3D( '', #194, #195, #196 );
#142 = SURFACE_SIDE_STYLE( '', ( #197 ) );
#143 = EDGE_LOOP( '', ( #198 ) );
#144 = EDGE_LOOP( '', ( #199 ) );
#145 = AXIS2_PLACEMENT_3D( '', #200, #201, #202 );
#146 = SURFACE_SIDE_STYLE( '', ( #203 ) );
#147 = EDGE_LOOP( '', ( #204 ) );
#148 = AXIS2_PLACEMENT_3D( '', #205, #206, #207 );
#149 = SURFACE_SIDE_STYLE( '', ( #208 ) );
#150 = EDGE_LOOP( '', ( #209 ) );
#151 = EDGE_LOOP( '', ( #210 ) );
#152 = AXIS2_PLACEMENT_3D( '', #211, #212, #213 );
#153 = SURFACE_SIDE_STYLE( '', ( #214 ) );
#154 = EDGE_LOOP( '', ( #215 ) );
#155 = EDGE_LOOP( '', ( #216 ) );
#156 = EDGE_LOOP( '', ( #217 ) );
#157 = EDGE_LOOP( '', ( #218 ) );
#158 = EDGE_LOOP( '', ( #219 ) );
#159 = AXIS2_PLACEMENT_3D( '', #220, #221, #222 );
#160 = SURFACE_SIDE_STYLE( '', ( #223 ) );
#161 = EDGE_LOOP( '', ( #224 ) );
#162 = EDGE_LOOP( '', ( #225 ) );
#163 = AXIS2_PLACEMENT_3D( '', #226, #227, #228 );
#164 = SURFACE_SIDE_STYLE( '', ( #229 ) );
#165 = EDGE_LOOP( '', ( #230 ) );
#166 = EDGE_LOOP( '', ( #231 ) );
#167 = AXIS2_PLACEMENT_3D( '', #232, #233, #234 );
#168 = SURFACE_SIDE_STYLE( '', ( #235 ) );
#169 = EDGE_LOOP( '', ( #236 ) );
#170 = EDGE_LOOP( '', ( #237 ) );
#171 = AXIS2_PLACEMENT_3D( '', #238, #239, #240 );
#172 = SURFACE_SIDE_STYLE( '', ( #241 ) );
#173 = EDGE_LOOP( '', ( #242 ) );
#174 = EDGE_LOOP( '', ( #243 ) );
#175 = AXIS2_PLACEMENT_3D( '', #244, #245, #246 );
#177 = SURFACE_STYLE_FILL_AREA( #247 );
#178 = ORIENTED_EDGE( '', *, *, #248, .T. );
#179 = ORIENTED_EDGE( '', *, *, #249, .T. );
#180 = ORIENTED_EDGE( '', *, *, #250, .T. );
#181 = ORIENTED_EDGE( '', *, *, #251, .T. );
#182 = CARTESIAN_POINT( '', ( 15.0000000000000, 0.000000000000000, 0.000000000000000 ) );
#183 = DIRECTION( '', ( 0.000000000000000, 1.00000000000000, 0.000000000000000 ) );
#184 = DIRECTION( '', ( 0.000000000000000, -0.000000000000000, 1.00000000000000 ) );
#185 = SURFACE_STYLE_FILL_AREA( #252 );
#186 = ORIENTED_EDGE( '', *, *, #253, .T. );
#187 = ORIENTED_EDGE( '', *, *, #254, .F. );
#188 = CARTESIAN_POINT( '', ( 0.000000000000000, 9.70000000000000, 0.000000000000000 ) );
#189 = DIRECTION( '', ( 0.000000000000000, -1.00000000000000, -0.000000000000000 ) );
#190 = DIRECTION( '', ( 0.000000000000000, 0.000000000000000, -1.00000000000000 ) );
#191 = SURFACE_STYLE_FILL_AREA( #255 );
#192 = ORIENTED_EDGE( '', *, *, #256, .T. );
#193 = ORIENTED_EDGE( '', *, *, #248, .F. );
#194 = CARTESIAN_POINT( '', ( 6.25000000000000, 3.00000000000000, -10.8253175473055 ) );
#195 = DIRECTION( '', ( -0.000000000000000, 1.00000000000000, -0.000000000000000 ) );
#196 = DIRECTION( '', ( 0.866025403784439, 0.000000000000000, 0.500000000000000 ) );
#197 = SURFACE_STYLE_FILL_AREA( #257 );
#198 = ORIENTED_EDGE( '', *, *, #258, .T. );
#199 = ORIENTED_EDGE( '', *, *, #253, .F. );
#200 = CARTESIAN_POINT( '', ( 0.000000000000000, 10.3485539470408, 0.000000000000000 ) );
#201 = DIRECTION( '', ( -0.000000000000000, 1.00000000000000, 0.000000000000000 ) );
#202 = DIRECTION( '', ( 0.000000000000000, -0.000000000000000, 1.00000000000000 ) );
#203 = SURFACE_STYLE_FILL_AREA( #259 );
#204 = ORIENTED_EDGE( '', *, *, #258, .F. );
#205 = CARTESIAN_POINT( '', ( 7.00000000000000, 9.70000000000000, 0.000000000000000 ) );
#206 = DIRECTION( '', ( 0.000000000000000, 1.00000000000000, 0.000000000000000 ) );
#207 = DIRECTION( '', ( 0.000000000000000, -0.000000000000000, 1.00000000000000 ) );
#208 = SURFACE_STYLE_FILL_AREA( #260 );
#209 = ORIENTED_EDGE( '', *, *, #261, .T. );
#210 = ORIENTED_EDGE( '', *, *, #249, .F. );
#211 = CARTESIAN_POINT( '', ( 6.25000000000000, 3.00000000000000, 10.8253175473055 ) );
#212 = DIRECTION( '', ( -0.000000000000000, 1.00000000000000, -0.000000000000000 ) );
#213 = DIRECTION( '', ( -0.866025403784439, 0.000000000000000, 0.500000000000000 ) );
#214 = SURFACE_STYLE_FILL_AREA( #262 );
#215 = ORIENTED_EDGE( '', *, *, #263, .F. );
#216 = ORIENTED_EDGE( '', *, *, #256, .F. );
#217 = ORIENTED_EDGE( '', *, *, #261, .F. );
#218 = ORIENTED_EDGE( '', *, *, #264, .F. );
#219 = ORIENTED_EDGE( '', *, *, #265, .T. );
#220 = CARTESIAN_POINT( '', ( 10.0000000000000, 3.00000000000000, 0.000000000000000 ) );
#221 = DIRECTION( '', ( 0.000000000000000, -1.00000000000000, -0.000000000000000 ) );
#222 = DIRECTION( '', ( 0.000000000000000, 0.000000000000000, -1.00000000000000 ) );
#223 = SURFACE_STYLE_FILL_AREA( #266 );
#224 = ORIENTED_EDGE( '', *, *, #264, .T. );
#225 = ORIENTED_EDGE( '', *, *, #250, .F. );
#226 = CARTESIAN_POINT( '', ( -12.5000000000000, 3.00000000000000, 0.000000000000000 ) );
#227 = DIRECTION( '', ( -0.000000000000000, 1.00000000000000, 0.000000000000000 ) );
#228 = DIRECTION( '', ( 0.000000000000000, 0.000000000000000, -1.00000000000000 ) );
#229 = SURFACE_STYLE_FILL_AREA( #267 );
#230 = ORIENTED_EDGE( '', *, *, #251, .F. );
#231 = ORIENTED_EDGE( '', *, *, #263, .T. );
#232 = CARTESIAN_POINT( '', ( 0.000000000000000, 0.000000000000000, 0.000000000000000 ) );
#233 = DIRECTION( '', ( -0.000000000000000, 1.00000000000000, 0.000000000000000 ) );
#234 = DIRECTION( '', ( 0.000000000000000, 0.000000000000000, -1.00000000000000 ) );
#235 = SURFACE_STYLE_FILL_AREA( #268 );
#236 = ORIENTED_EDGE( '', *, *, #254, .T. );
#237 = ORIENTED_EDGE( '', *, *, #269, .F. );
#238 = CARTESIAN_POINT( '', ( 0.000000000000000, 9.70000000000000, 0.000000000000000 ) );
#239 = DIRECTION( '', ( -0.000000000000000, -1.00000000000000, -0.000000000000000 ) );
#240 = DIRECTION( '', ( 0.000000000000000, 0.000000000000000, -1.00000000000000 ) );
#241 = SURFACE_STYLE_FILL_AREA( #270 );
#242 = ORIENTED_EDGE( '', *, *, #265, .F. );
#243 = ORIENTED_EDGE( '', *, *, #269, .T. );
#244 = CARTESIAN_POINT( '', ( 0.000000000000000, 0.000000000000000, 0.000000000000000 ) );
#245 = DIRECTION( '', ( -0.000000000000000, 1.00000000000000, 0.000000000000000 ) );
#246 = DIRECTION( '', ( 0.000000000000000, 0.000000000000000, -1.00000000000000 ) );
#247 = FILL_AREA_STYLE( '', ( #271 ) );
#248 = EDGE_CURVE( '', #272, #272, #273, .T. );
#249 = EDGE_CURVE( '', #274, #274, #275, .T. );
#250 = EDGE_CURVE( '', #276, #276, #277, .T. );
#251 = EDGE_CURVE( '', #278, #278, #279, .T. );
#252 = FILL_AREA_STYLE( '', ( #280 ) );
#253 = EDGE_CURVE( '', #281, #281, #282, .T. );
#254 = EDGE_CURVE( '', #283, #283, #284, .T. );
#255 = FILL_AREA_STYLE( '', ( #285 ) );
#256 = EDGE_CURVE( '', #286, #286, #287, .T. );
#257 = FILL_AREA_STYLE( '', ( #288 ) );
#258 = EDGE_CURVE( '', #289, #289, #290, .T. );
#259 = FILL_AREA_STYLE( '', ( #291 ) );
#260 = FILL_AREA_STYLE( '', ( #292 ) );
#261 = EDGE_CURVE( '', #293, #293, #294, .T. );
#262 = FILL_AREA_STYLE( '', ( #295 ) );
#263 = EDGE_CURVE( '', #296, #296, #297, .T. );
#264 = EDGE_CURVE( '', #298, #298, #299, .T. );
#265 = EDGE_CURVE( '', #300, #300, #301, .T. );
#266 = FILL_AREA_STYLE( '', ( #302 ) );
#267 = FILL_AREA_STYLE( '', ( #303 ) );
#268 = FILL_AREA_STYLE( '', ( #304 ) );
#269 = EDGE_CURVE( '', #305, #305, #306, .T. );
#270 = FILL_AREA_STYLE( '', ( #307 ) );
#271 = FILL_AREA_STYLE_COLOUR( '', #308 );
#272 = VERTEX_POINT( '', #309 );
#273 = CIRCLE( '', #310, 1.15000000000000 );
#274 = VERTEX_POINT( '', #311 );
#275 = CIRCLE( '', #312, 1.15000000000000 );
#276 = VERTEX_POINT( '', #313 );
#277 = CIRCLE( '', #314, 1.15000000000000 );
#278 = VERTEX_POINT( '', #315 );
#279 = CIRCLE( '', #316, 15.0000000000000 );
#280 = FILL_AREA_STYLE_COLOUR( '', #317 );
#281 = VERTEX_POINT( '', #318 );
#282 = CIRCLE( '', #319, 7.37333333330000 );
#283 = VERTEX_POINT( '', #320 );
#284 = CIRCLE( '', #321, 9.62666666670000 );
#285 = FILL_AREA_STYLE_COLOUR( '', #322 );
#286 = VERTEX_POINT( '', #323 );
#287 = CIRCLE( '', #324, 1.15000000000000 );
#288 = FILL_AREA_STYLE_COLOUR( '', #325 );
#289 = VERTEX_POINT( '', #326 );
#290 = CIRCLE( '', #327, 7.00000000000000 );
#291 = FILL_AREA_STYLE_COLOUR( '', #328 );
#292 = FILL_AREA_STYLE_COLOUR( '', #329 );
#293 = VERTEX_POINT( '', #330 );
#294 = CIRCLE( '', #331, 1.15000000000000 );
#295 = FILL_AREA_STYLE_COLOUR( '', #332 );
#296 = VERTEX_POINT( '', #333 );
#297 = CIRCLE( '', #334, 15.0000000000000 );
#298 = VERTEX_POINT( '', #335 );
#299 = CIRCLE( '', #336, 1.15000000000000 );
#300 = VERTEX_POINT( '', #337 );
#301 = CIRCLE( '', #338, 10.0000000000000 );
#302 = FILL_AREA_STYLE_COLOUR( '', #339 );
#303 = FILL_AREA_STYLE_COLOUR( '', #340 );
#304 = FILL_AREA_STYLE_COLOUR( '', #341 );
#305 = VERTEX_POINT( '', #342 );
#306 = CIRCLE( '', #343, 10.0000000000000 );
#307 = FILL_AREA_STYLE_COLOUR( '', #344 );
#308 = COLOUR_RGB( '', 0.689999997600000, 0.689999997600000, 0.689999997600000 );
#309 = CARTESIAN_POINT( '', ( 5.67500000000000, 0.000000000000000, -9.82938833295338 ) );
#310 = AXIS2_PLACEMENT_3D( '', #345, #346, #347 );
#311 = CARTESIAN_POINT( '', ( 5.67500000000000, 0.000000000000000, 9.82938833295338 ) );
#312 = AXIS2_PLACEMENT_3D( '', #348, #349, #350 );
#313 = CARTESIAN_POINT( '', ( -11.3500000000000, 0.000000000000000, 0.000000000000000 ) );
#314 = AXIS2_PLACEMENT_3D( '', #351, #352, #353 );
#315 = CARTESIAN_POINT( '', ( 0.000000000000000, 0.000000000000000, -15.0000000000000 ) );
#316 = AXIS2_PLACEMENT_3D( '', #354, #355, #356 );
#317 = COLOUR_RGB( '', 0.689999997600000, 0.689999997600000, 0.689999997600000 );
#318 = CARTESIAN_POINT( '', ( 0.000000000000000, 10.3485539470408, -7.37333333333333 ) );
#319 = AXIS2_PLACEMENT_3D( '', #357, #358, #359 );
#320 = CARTESIAN_POINT( '', ( 0.000000000000000, 10.3485539470408, -9.62666666666667 ) );
#321 = AXIS2_PLACEMENT_3D( '', #360, #361, #362 );
#322 = COLOUR_RGB( '', 0.689999997600000, 0.689999997600000, 0.689999997600000 );
#323 = CARTESIAN_POINT( '', ( 5.67500000000000, 3.00000000000000, -9.82938833295338 ) );
#324 = AXIS2_PLACEMENT_3D( '', #363, #364, #365 );
#325 = COLOUR_RGB( '', 0.689999997600000, 0.689999997600000, 0.689999997600000 );
#326 = CARTESIAN_POINT( '', ( 0.000000000000000, 9.70000000000000, -7.00000000000000 ) );
#327 = AXIS2_PLACEMENT_3D( '', #366, #367, #368 );
#328 = COLOUR_RGB( '', 0.689999997600000, 0.689999997600000, 0.689999997600000 );
#329 = COLOUR_RGB( '', 0.689999997600000, 0.689999997600000, 0.689999997600000 );
#330 = CARTESIAN_POINT( '', ( 5.67500000000000, 3.00000000000000, 9.82938833295338 ) );
#331 = AXIS2_PLACEMENT_3D( '', #369, #370, #371 );
#332 = COLOUR_RGB( '', 0.689999997600000, 0.689999997600000, 0.689999997600000 );
#333 = CARTESIAN_POINT( '', ( 0.000000000000000, 3.00000000000000, -15.0000000000000 ) );
#334 = AXIS2_PLACEMENT_3D( '', #372, #373, #374 );
#335 = CARTESIAN_POINT( '', ( -11.3500000000000, 3.00000000000000, 0.000000000000000 ) );
#336 = AXIS2_PLACEMENT_3D( '', #375, #376, #377 );
#337 = CARTESIAN_POINT( '', ( 0.000000000000000, 3.00000000000000, -10.0000000000000 ) );
#338 = AXIS2_PLACEMENT_3D( '', #378, #379, #380 );
#339 = COLOUR_RGB( '', 0.689999997600000, 0.689999997600000, 0.689999997600000 );
#340 = COLOUR_RGB( '', 0.689999997600000, 0.689999997600000, 0.689999997600000 );
#341 = COLOUR_RGB( '', 0.689999997600000, 0.689999997600000, 0.689999997600000 );
#342 = CARTESIAN_POINT( '', ( 0.000000000000000, 9.70000000000000, -10.0000000000000 ) );
#343 = AXIS2_PLACEMENT_3D( '', #381, #382, #383 );
#344 = COLOUR_RGB( '', 0.689999997600000, 0.689999997600000, 0.689999997600000 );
#345 = CARTESIAN_POINT( '', ( 6.25000000000000, 0.000000000000000, -10.8253175473055 ) );
#346 = DIRECTION( '', ( 0.000000000000000, 1.00000000000000, 0.000000000000000 ) );
#347 = DIRECTION( '', ( -0.500000000000000, 0.000000000000000, 0.866025403784439 ) );
#348 = CARTESIAN_POINT( '', ( 6.25000000000000, 0.000000000000000, 10.8253175473055 ) );
#349 = DIRECTION( '', ( 0.000000000000000, 1.00000000000000, 0.000000000000000 ) );
#350 = DIRECTION( '', ( -0.500000000000000, 0.000000000000000, -0.866025403784439 ) );
#351 = CARTESIAN_POINT( '', ( -12.5000000000000, 0.000000000000000, 0.000000000000000 ) );
#352 = DIRECTION( '', ( -0.000000000000000, 1.00000000000000, 0.000000000000000 ) );
#353 = DIRECTION( '', ( 1.00000000000000, 0.000000000000000, 0.000000000000000 ) );
#354 = CARTESIAN_POINT( '', ( 0.000000000000000, 0.000000000000000, 0.000000000000000 ) );
#355 = DIRECTION( '', ( 0.000000000000000, -1.00000000000000, -0.000000000000000 ) );
#356 = DIRECTION( '', ( 0.000000000000000, 0.000000000000000, -1.00000000000000 ) );
#357 = CARTESIAN_POINT( '', ( 0.000000000000000, 10.3485539470408, 0.000000000000000 ) );
#358 = DIRECTION( '', ( 0.000000000000000, -1.00000000000000, -0.000000000000000 ) );
#359 = DIRECTION( '', ( 0.000000000000000, 0.000000000000000, -1.00000000000000 ) );
#360 = CARTESIAN_POINT( '', ( 0.000000000000000, 10.3485539470408, 0.000000000000000 ) );
#361 = DIRECTION( '', ( 0.000000000000000, -1.00000000000000, -0.000000000000000 ) );
#362 = DIRECTION( '', ( 0.000000000000000, 0.000000000000000, -1.00000000000000 ) );
#363 = CARTESIAN_POINT( '', ( 6.25000000000000, 3.00000000000000, -10.8253175473055 ) );
#364 = DIRECTION( '', ( 0.000000000000000, 1.00000000000000, 0.000000000000000 ) );
#365 = DIRECTION( '', ( -0.500000000000000, 0.000000000000000, 0.866025403784439 ) );
#366 = CARTESIAN_POINT( '', ( 0.000000000000000, 9.70000000000000, 0.000000000000000 ) );
#367 = DIRECTION( '', ( 0.000000000000000, -1.00000000000000, -0.000000000000000 ) );
#368 = DIRECTION( '', ( 0.000000000000000, 0.000000000000000, -1.00000000000000 ) );
#369 = CARTESIAN_POINT( '', ( 6.25000000000000, 3.00000000000000, 10.8253175473055 ) );
#370 = DIRECTION( '', ( 0.000000000000000, 1.00000000000000, 0.000000000000000 ) );
#371 = DIRECTION( '', ( -0.500000000000000, 0.000000000000000, -0.866025403784439 ) );
#372 = CARTESIAN_POINT( '', ( 0.000000000000000, 3.00000000000000, 0.000000000000000 ) );
#373 = DIRECTION( '', ( 0.000000000000000, -1.00000000000000, -0.000000000000000 ) );
#374 = DIRECTION( '', ( 0.000000000000000, 0.000000000000000, -1.00000000000000 ) );
#375 = CARTESIAN_POINT( '', ( -12.5000000000000, 3.00000000000000, 0.000000000000000 ) );
#376 = DIRECTION( '', ( -0.000000000000000, 1.00000000000000, 0.000000000000000 ) );
#377 = DIRECTION( '', ( 1.00000000000000, 0.000000000000000, 0.000000000000000 ) );
#378 = CARTESIAN_POINT( '', ( 0.000000000000000, 3.00000000000000, 0.000000000000000 ) );
#379 = DIRECTION( '', ( 0.000000000000000, -1.00000000000000, -0.000000000000000 ) );
#380 = DIRECTION( '', ( 0.000000000000000, 0.000000000000000, -1.00000000000000 ) );
#381 = CARTESIAN_POINT( '', ( 0.000000000000000, 9.70000000000000, 0.000000000000000 ) );
#382 = DIRECTION( '', ( 0.000000000000000, -1.00000000000000, -0.000000000000000 ) );
#383 = DIRECTION( '', ( 0.000000000000000, 0.000000000000000, -1.00000000000000 ) );
ENDSEC;
END-ISO-10303-21;
