ISO-10303-21;
HEADER;
FILE_DESCRIPTION( ( 'STEP AP214' ), '1' );
FILE_NAME( '//goodhand-server/Shared Folders/GoodHand Data/Kipp CAD/K0390/K0390.10X55.stp', '2020-12-07T10:14:29', ( '' ), ( '' ), ' ', 'PARTsolutions', ' ' );
FILE_SCHEMA( ( 'AUTOMOTIVE_DESIGN { 1 0 10303 214 1 1 1 1 }' ) );
ENDSEC;
DATA;
#1 = MECHANICAL_DESIGN_GEOMETRIC_PRESENTATION_REPRESENTATION( ' ', ( #10, #11, #12, #13, #14, #15, #16, #17, #18, #19, #20, #21, #22 ), #6 );
#2 = PRODUCT_DEFINITION_CONTEXT( '', #23, 'design' );
#3 = APPLICATION_PROTOCOL_DEFINITION( 'international standard', 'automotive_design', 2001, #23 );
#4 = PRODUCT_CATEGORY_RELATIONSHIP( 'NONE', 'NONE', #24, #25 );
#5 = SHAPE_DEFINITION_REPRESENTATION( #26, #27 );
#6 =  ( GEOMETRIC_REPRESENTATION_CONTEXT( 3 )GLOBAL_UNCERTAINTY_ASSIGNED_CONTEXT( ( #30 ) )GLOBAL_UNIT_ASSIGNED_CONTEXT( ( #32, #33, #34 ) )REPRESENTATION_CONTEXT( 'NONE', 'WORKSPACE' ) );
#10 = STYLED_ITEM( '', ( #36 ), #37 );
#11 = STYLED_ITEM( '', ( #38 ), #39 );
#12 = STYLED_ITEM( '', ( #40 ), #41 );
#13 = STYLED_ITEM( '', ( #42 ), #43 );
#14 = STYLED_ITEM( '', ( #44 ), #45 );
#15 = STYLED_ITEM( '', ( #46 ), #47 );
#16 = STYLED_ITEM( '', ( #48 ), #49 );
#17 = STYLED_ITEM( '', ( #50 ), #51 );
#18 = STYLED_ITEM( '', ( #52 ), #53 );
#19 = STYLED_ITEM( '', ( #54 ), #55 );
#20 = STYLED_ITEM( '', ( #56 ), #57 );
#21 = STYLED_ITEM( '', ( #58 ), #59 );
#22 = STYLED_ITEM( '', ( #60 ), #61 );
#23 = APPLICATION_CONTEXT( 'core data for automotive mechanical design processes' );
#24 = PRODUCT_CATEGORY( 'part', 'NONE' );
#25 = PRODUCT_RELATED_PRODUCT_CATEGORY( 'detail', ' ', ( #62 ) );
#26 = PRODUCT_DEFINITION_SHAPE( 'NONE', 'NONE', #63 );
#27 = ADVANCED_BREP_SHAPE_REPRESENTATION( '_K0390.10X55', ( #64, #65 ), #6 );
#30 = UNCERTAINTY_MEASURE_WITH_UNIT( LENGTH_MEASURE( 0.00100000000000000 ), #32, '', '' );
#32 =  ( CONVERSION_BASED_UNIT( 'MILLIMETRE', #68 )LENGTH_UNIT(  )NAMED_UNIT( #71 ) );
#33 =  ( NAMED_UNIT( #73 )PLANE_ANGLE_UNIT(  )SI_UNIT( $, .RADIAN. ) );
#34 =  ( NAMED_UNIT( #73 )SI_UNIT( $, .STERADIAN. )SOLID_ANGLE_UNIT(  ) );
#36 = PRESENTATION_STYLE_ASSIGNMENT( ( #79 ) );
#37 = ADVANCED_FACE( '', ( #80, #81 ), #82, .T. );
#38 = PRESENTATION_STYLE_ASSIGNMENT( ( #83 ) );
#39 = ADVANCED_FACE( '', ( #84, #85 ), #86, .T. );
#40 = PRESENTATION_STYLE_ASSIGNMENT( ( #87 ) );
#41 = ADVANCED_FACE( '', ( #88, #89 ), #90, .T. );
#42 = PRESENTATION_STYLE_ASSIGNMENT( ( #91 ) );
#43 = ADVANCED_FACE( '', ( #92 ), #93, .F. );
#44 = PRESENTATION_STYLE_ASSIGNMENT( ( #94 ) );
#45 = ADVANCED_FACE( '', ( #95 ), #96, .T. );
#46 = PRESENTATION_STYLE_ASSIGNMENT( ( #97 ) );
#47 = ADVANCED_FACE( '', ( #98 ), #99, .T. );
#48 = PRESENTATION_STYLE_ASSIGNMENT( ( #100 ) );
#49 = ADVANCED_FACE( '', ( #101, #102 ), #103, .T. );
#50 = PRESENTATION_STYLE_ASSIGNMENT( ( #104 ) );
#51 = ADVANCED_FACE( '', ( #105 ), #106, .F. );
#52 = PRESENTATION_STYLE_ASSIGNMENT( ( #107 ) );
#53 = ADVANCED_FACE( '', ( #108, #109 ), #110, .T. );
#54 = PRESENTATION_STYLE_ASSIGNMENT( ( #111 ) );
#55 = ADVANCED_FACE( '', ( #112, #113 ), #114, .F. );
#56 = PRESENTATION_STYLE_ASSIGNMENT( ( #115 ) );
#57 = ADVANCED_FACE( '', ( #116 ), #117, .F. );
#58 = PRESENTATION_STYLE_ASSIGNMENT( ( #118 ) );
#59 = ADVANCED_FACE( '', ( #119 ), #120, .T. );
#60 = PRESENTATION_STYLE_ASSIGNMENT( ( #121 ) );
#61 = ADVANCED_FACE( '', ( #122 ), #123, .F. );
#62 = PRODUCT( '_K0390.10X55', '_K0390.10X55', 'PART-_K0390.10X55-DESC', ( #124 ) );
#63 = PRODUCT_DEFINITION( 'NONE', 'NONE', #125, #2 );
#64 = MANIFOLD_SOLID_BREP( '_K0390.10X55', #126 );
#65 = AXIS2_PLACEMENT_3D( '', #127, #128, #129 );
#68 = LENGTH_MEASURE_WITH_UNIT( LENGTH_MEASURE( 1.00000000000000 ), #130 );
#71 = DIMENSIONAL_EXPONENTS( 1.00000000000000, 0.000000000000000, 0.000000000000000, 0.000000000000000, 0.000000000000000, 0.000000000000000, 0.000000000000000 );
#73 = DIMENSIONAL_EXPONENTS( 0.000000000000000, 0.000000000000000, 0.000000000000000, 0.000000000000000, 0.000000000000000, 0.000000000000000, 0.000000000000000 );
#79 = SURFACE_STYLE_USAGE( .BOTH., #131 );
#80 = FACE_BOUND( '', #132, .T. );
#81 = FACE_OUTER_BOUND( '', #133, .T. );
#82 = CONICAL_SURFACE( '', #134, 5.00000000000000, 1.01679700410000 );
#83 = SURFACE_STYLE_USAGE( .BOTH., #135 );
#84 = FACE_OUTER_BOUND( '', #136, .T. );
#85 = FACE_OUTER_BOUND( '', #137, .T. );
#86 = CYLINDRICAL_SURFACE( '', #138, 4.00000000000000 );
#87 = SURFACE_STYLE_USAGE( .BOTH., #139 );
#88 = FACE_OUTER_BOUND( '', #140, .T. );
#89 = FACE_OUTER_BOUND( '', #141, .T. );
#90 = CYLINDRICAL_SURFACE( '', #142, 3.60000000000000 );
#91 = SURFACE_STYLE_USAGE( .BOTH., #143 );
#92 = FACE_OUTER_BOUND( '', #144, .T. );
#93 = PLANE( '', #145 );
#94 = SURFACE_STYLE_USAGE( .BOTH., #146 );
#95 = FACE_OUTER_BOUND( '', #147, .T. );
#96 = CONICAL_SURFACE( '', #148, 4.08000000000000, 0.785398163400000 );
#97 = SURFACE_STYLE_USAGE( .BOTH., #149 );
#98 = FACE_OUTER_BOUND( '', #150, .T. );
#99 = PLANE( '', #151 );
#100 = SURFACE_STYLE_USAGE( .BOTH., #152 );
#101 = FACE_BOUND( '', #153, .T. );
#102 = FACE_OUTER_BOUND( '', #154, .T. );
#103 = SPHERICAL_SURFACE( '', #155, 6.70960000000000 );
#104 = SURFACE_STYLE_USAGE( .BOTH., #156 );
#105 = FACE_OUTER_BOUND( '', #157, .T. );
#106 = PLANE( '', #158 );
#107 = SURFACE_STYLE_USAGE( .BOTH., #159 );
#108 = FACE_OUTER_BOUND( '', #160, .T. );
#109 = FACE_OUTER_BOUND( '', #161, .T. );
#110 = CYLINDRICAL_SURFACE( '', #162, 5.00000000000000 );
#111 = SURFACE_STYLE_USAGE( .BOTH., #163 );
#112 = FACE_OUTER_BOUND( '', #164, .T. );
#113 = FACE_BOUND( '', #165, .T. );
#114 = PLANE( '', #166 );
#115 = SURFACE_STYLE_USAGE( .BOTH., #167 );
#116 = FACE_OUTER_BOUND( '', #168, .T. );
#117 = PLANE( '', #169 );
#118 = SURFACE_STYLE_USAGE( .BOTH., #170 );
#119 = FACE_OUTER_BOUND( '', #171, .T. );
#120 = CONICAL_SURFACE( '', #172, 4.08000000000000, 0.785398163400000 );
#121 = SURFACE_STYLE_USAGE( .BOTH., #173 );
#122 = FACE_OUTER_BOUND( '', #174, .T. );
#123 = PLANE( '', #175 );
#124 = PRODUCT_CONTEXT( '', #23, 'mechanical' );
#125 = PRODUCT_DEFINITION_FORMATION_WITH_SPECIFIED_SOURCE( ' ', 'NONE', #62, .NOT_KNOWN. );
#126 = CLOSED_SHELL( '', ( #61, #57, #49, #39, #55, #41, #37, #53, #45, #43, #59, #51, #47 ) );
#127 = CARTESIAN_POINT( '', ( 0.000000000000000, 0.000000000000000, 0.000000000000000 ) );
#128 = DIRECTION( '', ( 0.000000000000000, 0.000000000000000, 1.00000000000000 ) );
#129 = DIRECTION( '', ( 1.00000000000000, 0.000000000000000, 0.000000000000000 ) );
#130 =  ( LENGTH_UNIT(  )NAMED_UNIT( #71 )SI_UNIT( .MILLI., .METRE. ) );
#131 = SURFACE_SIDE_STYLE( '', ( #177 ) );
#132 = EDGE_LOOP( '', ( #178 ) );
#133 = EDGE_LOOP( '', ( #179 ) );
#134 = AXIS2_PLACEMENT_3D( '', #180, #181, #182 );
#135 = SURFACE_SIDE_STYLE( '', ( #183 ) );
#136 = EDGE_LOOP( '', ( #184 ) );
#137 = EDGE_LOOP( '', ( #185 ) );
#138 = AXIS2_PLACEMENT_3D( '', #186, #187, #188 );
#139 = SURFACE_SIDE_STYLE( '', ( #189 ) );
#140 = EDGE_LOOP( '', ( #190 ) );
#141 = EDGE_LOOP( '', ( #191 ) );
#142 = AXIS2_PLACEMENT_3D( '', #192, #193, #194 );
#143 = SURFACE_SIDE_STYLE( '', ( #195 ) );
#144 = EDGE_LOOP( '', ( #196, #197 ) );
#145 = AXIS2_PLACEMENT_3D( '', #198, #199, #200 );
#146 = SURFACE_SIDE_STYLE( '', ( #201 ) );
#147 = EDGE_LOOP( '', ( #202, #203, #204, #205 ) );
#148 = AXIS2_PLACEMENT_3D( '', #206, #207, #208 );
#149 = SURFACE_SIDE_STYLE( '', ( #209 ) );
#150 = EDGE_LOOP( '', ( #210, #211, #212, #213 ) );
#151 = AXIS2_PLACEMENT_3D( '', #214, #215, #216 );
#152 = SURFACE_SIDE_STYLE( '', ( #217 ) );
#153 = VERTEX_LOOP( '', #218 );
#154 = EDGE_LOOP( '', ( #219 ) );
#155 = AXIS2_PLACEMENT_3D( '', #220, #221, #222 );
#156 = SURFACE_SIDE_STYLE( '', ( #223 ) );
#157 = EDGE_LOOP( '', ( #224, #225 ) );
#158 = AXIS2_PLACEMENT_3D( '', #226, #227, #228 );
#159 = SURFACE_SIDE_STYLE( '', ( #229 ) );
#160 = EDGE_LOOP( '', ( #230 ) );
#161 = EDGE_LOOP( '', ( #231, #232, #233, #234, #235, #236, #237, #238 ) );
#162 = AXIS2_PLACEMENT_3D( '', #239, #240, #241 );
#163 = SURFACE_SIDE_STYLE( '', ( #242 ) );
#164 = EDGE_LOOP( '', ( #243 ) );
#165 = EDGE_LOOP( '', ( #244 ) );
#166 = AXIS2_PLACEMENT_3D( '', #245, #246, #247 );
#167 = SURFACE_SIDE_STYLE( '', ( #248 ) );
#168 = EDGE_LOOP( '', ( #249, #250, #251, #252, #253, #254 ) );
#169 = AXIS2_PLACEMENT_3D( '', #255, #256, #257 );
#170 = SURFACE_SIDE_STYLE( '', ( #258 ) );
#171 = EDGE_LOOP( '', ( #259, #260, #261, #262 ) );
#172 = AXIS2_PLACEMENT_3D( '', #263, #264, #265 );
#173 = SURFACE_SIDE_STYLE( '', ( #266 ) );
#174 = EDGE_LOOP( '', ( #267, #268, #269, #270, #271, #272 ) );
#175 = AXIS2_PLACEMENT_3D( '', #273, #274, #275 );
#177 = SURFACE_STYLE_FILL_AREA( #276 );
#178 = ORIENTED_EDGE( '', *, *, #277, .F. );
#179 = ORIENTED_EDGE( '', *, *, #278, .T. );
#180 = CARTESIAN_POINT( '', ( 46.0000000000000, 2.32744789901656E-15, 0.000000000000000 ) );
#181 = DIRECTION( '', ( -1.00000000000000, 6.12323399573677E-17, -0.000000000000000 ) );
#182 = DIRECTION( '', ( -6.12323399573677E-17, -1.00000000000000, 0.000000000000000 ) );
#183 = SURFACE_STYLE_FILL_AREA( #279 );
#184 = ORIENTED_EDGE( '', *, *, #280, .F. );
#185 = ORIENTED_EDGE( '', *, *, #281, .T. );
#186 = CARTESIAN_POINT( '', ( 55.0000000000000, 1.77635683940025E-15, 0.000000000000000 ) );
#187 = DIRECTION( '', ( -1.00000000000000, 6.12323399573677E-17, 0.000000000000000 ) );
#188 = DIRECTION( '', ( 6.12323399573677E-17, 1.00000000000000, 0.000000000000000 ) );
#189 = SURFACE_STYLE_FILL_AREA( #282 );
#190 = ORIENTED_EDGE( '', *, *, #283, .F. );
#191 = ORIENTED_EDGE( '', *, *, #277, .T. );
#192 = CARTESIAN_POINT( '', ( 55.0000000000000, 1.77635683940025E-15, 0.000000000000000 ) );
#193 = DIRECTION( '', ( -1.00000000000000, 6.12323399573677E-17, 0.000000000000000 ) );
#194 = DIRECTION( '', ( 6.12323399573677E-17, 1.00000000000000, 0.000000000000000 ) );
#195 = SURFACE_STYLE_FILL_AREA( #284 );
#196 = ORIENTED_EDGE( '', *, *, #285, .F. );
#197 = ORIENTED_EDGE( '', *, *, #286, .F. );
#198 = CARTESIAN_POINT( '', ( -1.24913973513030E-16, 5.14413553705547E-15, 0.000000000000000 ) );
#199 = DIRECTION( '', ( 1.00000000000000, -6.12323399573677E-17, -0.000000000000000 ) );
#200 = DIRECTION( '', ( 6.12323399573677E-17, 1.00000000000000, 0.000000000000000 ) );
#201 = SURFACE_STYLE_FILL_AREA( #287 );
#202 = ORIENTED_EDGE( '', *, *, #288, .T. );
#203 = ORIENTED_EDGE( '', *, *, #289, .T. );
#204 = ORIENTED_EDGE( '', *, *, #290, .F. );
#205 = ORIENTED_EDGE( '', *, *, #291, .T. );
#206 = CARTESIAN_POINT( '', ( 0.000000000000000, 5.14413553705547E-15, 0.000000000000000 ) );
#207 = DIRECTION( '', ( 1.00000000000000, -6.12323399573677E-17, -0.000000000000000 ) );
#208 = DIRECTION( '', ( 6.12323399573677E-17, 1.00000000000000, 0.000000000000000 ) );
#209 = SURFACE_STYLE_FILL_AREA( #292 );
#210 = ORIENTED_EDGE( '', *, *, #293, .T. );
#211 = ORIENTED_EDGE( '', *, *, #294, .T. );
#212 = ORIENTED_EDGE( '', *, *, #295, .T. );
#213 = ORIENTED_EDGE( '', *, *, #296, .T. );
#214 = CARTESIAN_POINT( '', ( 3.00000000000000, 0.000000000000000, 0.000000000000000 ) );
#215 = DIRECTION( '', ( -1.00000000000000, 0.000000000000000, 0.000000000000000 ) );
#216 = DIRECTION( '', ( 0.000000000000000, 0.000000000000000, 1.00000000000000 ) );
#217 = SURFACE_STYLE_FILL_AREA( #297 );
#218 = VERTEX_POINT( '', #298 );
#219 = ORIENTED_EDGE( '', *, *, #280, .T. );
#220 = CARTESIAN_POINT( '', ( 48.2904000000001, 2.12503625807159E-14, 0.000000000000000 ) );
#221 = DIRECTION( '', ( 1.00000000000000, 0.000000000000000, 0.000000000000000 ) );
#222 = DIRECTION( '', ( 0.000000000000000, -1.00000000000000, 0.000000000000000 ) );
#223 = SURFACE_STYLE_FILL_AREA( #299 );
#224 = ORIENTED_EDGE( '', *, *, #288, .F. );
#225 = ORIENTED_EDGE( '', *, *, #300, .F. );
#226 = CARTESIAN_POINT( '', ( -1.24913973513030E-16, 5.14413553705547E-15, 0.000000000000000 ) );
#227 = DIRECTION( '', ( 1.00000000000000, -6.12323399573677E-17, -0.000000000000000 ) );
#228 = DIRECTION( '', ( 6.12323399573677E-17, 1.00000000000000, 0.000000000000000 ) );
#229 = SURFACE_STYLE_FILL_AREA( #301 );
#230 = ORIENTED_EDGE( '', *, *, #278, .F. );
#231 = ORIENTED_EDGE( '', *, *, #302, .T. );
#232 = ORIENTED_EDGE( '', *, *, #303, .T. );
#233 = ORIENTED_EDGE( '', *, *, #293, .F. );
#234 = ORIENTED_EDGE( '', *, *, #304, .T. );
#235 = ORIENTED_EDGE( '', *, *, #290, .T. );
#236 = ORIENTED_EDGE( '', *, *, #305, .T. );
#237 = ORIENTED_EDGE( '', *, *, #295, .F. );
#238 = ORIENTED_EDGE( '', *, *, #306, .T. );
#239 = CARTESIAN_POINT( '', ( 55.0000000000000, 1.77635683940025E-15, 0.000000000000000 ) );
#240 = DIRECTION( '', ( -1.00000000000000, 6.12323399573677E-17, 0.000000000000000 ) );
#241 = DIRECTION( '', ( 6.12323399573677E-17, 1.00000000000000, 0.000000000000000 ) );
#242 = SURFACE_STYLE_FILL_AREA( #307 );
#243 = ORIENTED_EDGE( '', *, *, #281, .F. );
#244 = ORIENTED_EDGE( '', *, *, #283, .T. );
#245 = CARTESIAN_POINT( '', ( 50.5000000000000, 3.60000000000000, 0.000000000000000 ) );
#246 = DIRECTION( '', ( 1.00000000000000, -6.12323399573677E-17, -0.000000000000000 ) );
#247 = DIRECTION( '', ( 6.12323399573677E-17, 1.00000000000000, 0.000000000000000 ) );
#248 = SURFACE_STYLE_FILL_AREA( #308 );
#249 = ORIENTED_EDGE( '', *, *, #286, .T. );
#250 = ORIENTED_EDGE( '', *, *, #309, .F. );
#251 = ORIENTED_EDGE( '', *, *, #306, .F. );
#252 = ORIENTED_EDGE( '', *, *, #294, .F. );
#253 = ORIENTED_EDGE( '', *, *, #303, .F. );
#254 = ORIENTED_EDGE( '', *, *, #310, .F. );
#255 = CARTESIAN_POINT( '', ( 3.00000000000000, -0.899999999999995, -10.5000000000000 ) );
#256 = DIRECTION( '', ( 0.000000000000000, -1.00000000000000, 0.000000000000000 ) );
#257 = DIRECTION( '', ( 0.000000000000000, 0.000000000000000, -1.00000000000000 ) );
#258 = SURFACE_STYLE_FILL_AREA( #311 );
#259 = ORIENTED_EDGE( '', *, *, #302, .F. );
#260 = ORIENTED_EDGE( '', *, *, #309, .T. );
#261 = ORIENTED_EDGE( '', *, *, #285, .T. );
#262 = ORIENTED_EDGE( '', *, *, #310, .T. );
#263 = CARTESIAN_POINT( '', ( 0.000000000000000, 5.14413553705547E-15, 0.000000000000000 ) );
#264 = DIRECTION( '', ( 1.00000000000000, -6.12323399573677E-17, -0.000000000000000 ) );
#265 = DIRECTION( '', ( 6.12323399573677E-17, 1.00000000000000, 0.000000000000000 ) );
#266 = SURFACE_STYLE_FILL_AREA( #312 );
#267 = ORIENTED_EDGE( '', *, *, #289, .F. );
#268 = ORIENTED_EDGE( '', *, *, #300, .T. );
#269 = ORIENTED_EDGE( '', *, *, #291, .F. );
#270 = ORIENTED_EDGE( '', *, *, #304, .F. );
#271 = ORIENTED_EDGE( '', *, *, #296, .F. );
#272 = ORIENTED_EDGE( '', *, *, #305, .F. );
#273 = CARTESIAN_POINT( '', ( 3.00000000000000, 0.900000000000005, 10.5000000000000 ) );
#274 = DIRECTION( '', ( 0.000000000000000, 1.00000000000000, 0.000000000000000 ) );
#275 = DIRECTION( '', ( 0.000000000000000, -0.000000000000000, 1.00000000000000 ) );
#276 = FILL_AREA_STYLE( '', ( #313 ) );
#277 = EDGE_CURVE( '', #314, #314, #315, .T. );
#278 = EDGE_CURVE( '', #316, #316, #317, .T. );
#279 = FILL_AREA_STYLE( '', ( #318 ) );
#280 = EDGE_CURVE( '', #319, #319, #320, .T. );
#281 = EDGE_CURVE( '', #321, #321, #322, .T. );
#282 = FILL_AREA_STYLE( '', ( #323 ) );
#283 = EDGE_CURVE( '', #324, #324, #325, .T. );
#284 = FILL_AREA_STYLE( '', ( #326 ) );
#285 = EDGE_CURVE( '', #327, #328, #329, .T. );
#286 = EDGE_CURVE( '', #328, #327, #330, .T. );
#287 = FILL_AREA_STYLE( '', ( #331 ) );
#288 = EDGE_CURVE( '', #332, #333, #334, .T. );
#289 = EDGE_CURVE( '', #333, #335, #336, .T. );
#290 = EDGE_CURVE( '', #337, #335, #338, .T. );
#291 = EDGE_CURVE( '', #337, #332, #339, .T. );
#292 = FILL_AREA_STYLE( '', ( #340 ) );
#293 = EDGE_CURVE( '', #341, #342, #343, .T. );
#294 = EDGE_CURVE( '', #342, #344, #345, .T. );
#295 = EDGE_CURVE( '', #344, #346, #347, .T. );
#296 = EDGE_CURVE( '', #346, #341, #348, .T. );
#297 = FILL_AREA_STYLE( '', ( #349 ) );
#298 = CARTESIAN_POINT( '', ( 55.0000000000000, 2.04286735643600E-14, 0.000000000000000 ) );
#299 = FILL_AREA_STYLE( '', ( #350 ) );
#300 = EDGE_CURVE( '', #333, #332, #351, .T. );
#301 = FILL_AREA_STYLE( '', ( #352 ) );
#302 = EDGE_CURVE( '', #353, #354, #355, .T. );
#303 = EDGE_CURVE( '', #354, #342, #356, .T. );
#304 = EDGE_CURVE( '', #341, #337, #357, .F. );
#305 = EDGE_CURVE( '', #335, #346, #358, .T. );
#306 = EDGE_CURVE( '', #344, #353, #359, .F. );
#307 = FILL_AREA_STYLE( '', ( #360 ) );
#308 = FILL_AREA_STYLE( '', ( #361 ) );
#309 = EDGE_CURVE( '', #353, #327, #362, .T. );
#310 = EDGE_CURVE( '', #328, #354, #363, .T. );
#311 = FILL_AREA_STYLE( '', ( #364 ) );
#312 = FILL_AREA_STYLE( '', ( #365 ) );
#313 = FILL_AREA_STYLE_COLOUR( '', #366 );
#314 = VERTEX_POINT( '', #367 );
#315 = CIRCLE( '', #368, 3.60000000000000 );
#316 = VERTEX_POINT( '', #369 );
#317 = CIRCLE( '', #370, 5.00000000000000 );
#318 = FILL_AREA_STYLE_COLOUR( '', #371 );
#319 = VERTEX_POINT( '', #372 );
#320 = CIRCLE( '', #373, 4.00000000000000 );
#321 = VERTEX_POINT( '', #374 );
#322 = CIRCLE( '', #375, 4.00000000000000 );
#323 = FILL_AREA_STYLE_COLOUR( '', #376 );
#324 = VERTEX_POINT( '', #377 );
#325 = CIRCLE( '', #378, 3.60000000000000 );
#326 = FILL_AREA_STYLE_COLOUR( '', #379 );
#327 = VERTEX_POINT( '', #380 );
#328 = VERTEX_POINT( '', #381 );
#329 = CIRCLE( '', #382, 4.08000000000000 );
#330 = LINE( '', #383, #384 );
#331 = FILL_AREA_STYLE_COLOUR( '', #385 );
#332 = VERTEX_POINT( '', #386 );
#333 = VERTEX_POINT( '', #387 );
#334 = CIRCLE( '', #388, 4.08000000000000 );
#335 = VERTEX_POINT( '', #389 );
#336 = B_SPLINE_CURVE_WITH_KNOTS( '', 3, ( #390, #391, #392, #393 ), .UNSPECIFIED., .F., .F., ( 4, 4 ), ( 0.0201757967681981, 0.0214894077203397 ), .UNSPECIFIED. );
#337 = VERTEX_POINT( '', #394 );
#338 = CIRCLE( '', #395, 5.00000000000000 );
#339 = B_SPLINE_CURVE_WITH_KNOTS( '', 3, ( #396, #397, #398, #399 ), .UNSPECIFIED., .F., .F., ( 4, 4 ), ( 0.00855302721908261, 0.00986748988713592 ), .UNSPECIFIED. );
#340 = FILL_AREA_STYLE_COLOUR( '', #400 );
#341 = VERTEX_POINT( '', #401 );
#342 = VERTEX_POINT( '', #402 );
#343 = CIRCLE( '', #403, 5.00000000000000 );
#344 = VERTEX_POINT( '', #404 );
#345 = LINE( '', #405, #406 );
#346 = VERTEX_POINT( '', #407 );
#347 = CIRCLE( '', #408, 5.00000000000000 );
#348 = LINE( '', #409, #410 );
#349 = FILL_AREA_STYLE_COLOUR( '', #411 );
#350 = FILL_AREA_STYLE_COLOUR( '', #412 );
#351 = LINE( '', #413, #414 );
#352 = FILL_AREA_STYLE_COLOUR( '', #415 );
#353 = VERTEX_POINT( '', #416 );
#354 = VERTEX_POINT( '', #417 );
#355 = CIRCLE( '', #418, 5.00000000000000 );
#356 = LINE( '', #419, #420 );
#357 = LINE( '', #421, #422 );
#358 = LINE( '', #423, #424 );
#359 = LINE( '', #425, #426 );
#360 = FILL_AREA_STYLE_COLOUR( '', #427 );
#361 = FILL_AREA_STYLE_COLOUR( '', #428 );
#362 = B_SPLINE_CURVE_WITH_KNOTS( '', 3, ( #429, #430, #431, #432 ), .UNSPECIFIED., .F., .F., ( 4, 4 ), ( 0.00855302721908261, 0.00986748988713592 ), .UNSPECIFIED. );
#363 = B_SPLINE_CURVE_WITH_KNOTS( '', 3, ( #433, #434, #435, #436 ), .UNSPECIFIED., .F., .F., ( 4, 4 ), ( 0.0201757967681981, 0.0214894077203397 ), .UNSPECIFIED. );
#364 = FILL_AREA_STYLE_COLOUR( '', #437 );
#365 = FILL_AREA_STYLE_COLOUR( '', #438 );
#366 = COLOUR_RGB( '', 0.689999997600000, 0.689999997600000, 0.689999997600000 );
#367 = CARTESIAN_POINT( '', ( 46.8660700000000, 3.60000000000000, 0.000000000000000 ) );
#368 = AXIS2_PLACEMENT_3D( '', #439, #440, #441 );
#369 = CARTESIAN_POINT( '', ( 46.0000000000000, 5.00000000000000, 0.000000000000000 ) );
#370 = AXIS2_PLACEMENT_3D( '', #442, #443, #444 );
#371 = COLOUR_RGB( '', 0.689999997600000, 0.689999997600000, 0.689999997600000 );
#372 = CARTESIAN_POINT( '', ( 53.6773037637589, 4.00000000000000, 0.000000000000000 ) );
#373 = AXIS2_PLACEMENT_3D( '', #445, #446, #447 );
#374 = CARTESIAN_POINT( '', ( 50.5000000000000, 4.00000000000000, 0.000000000000000 ) );
#375 = AXIS2_PLACEMENT_3D( '', #448, #449, #450 );
#376 = COLOUR_RGB( '', 0.689999997600000, 0.689999997600000, 0.689999997600000 );
#377 = CARTESIAN_POINT( '', ( 50.5000000000000, 3.60000000000000, 0.000000000000000 ) );
#378 = AXIS2_PLACEMENT_3D( '', #451, #452, #453 );
#379 = COLOUR_RGB( '', 0.689999997600000, 0.689999997600000, 0.689999997600000 );
#380 = CARTESIAN_POINT( '', ( 0.000000000000000, -0.899999999999995, 3.97949745570970 ) );
#381 = CARTESIAN_POINT( '', ( 0.000000000000000, -0.899999999999995, -3.97949745570970 ) );
#382 = AXIS2_PLACEMENT_3D( '', #454, #455, #456 );
#383 = CARTESIAN_POINT( '', ( 0.000000000000000, -0.899999999999995, -10.5000000000000 ) );
#384 = VECTOR( '', #457, 1000.00000000000 );
#385 = COLOUR_RGB( '', 0.689999997600000, 0.689999997600000, 0.689999997600000 );
#386 = CARTESIAN_POINT( '', ( 0.000000000000000, 0.900000000000005, -3.97949745570970 ) );
#387 = CARTESIAN_POINT( '', ( 0.000000000000000, 0.900000000000005, 3.97949745570970 ) );
#388 = AXIS2_PLACEMENT_3D( '', #458, #459, #460 );
#389 = CARTESIAN_POINT( '', ( 0.920000000000004, 0.900000000000009, 4.91833305094317 ) );
#390 = CARTESIAN_POINT( '', ( -4.68354095998620E-16, 0.900000000000005, 3.97949745570970 ) );
#391 = CARTESIAN_POINT( '', ( 0.305938770650470, 0.900000000000005, 4.29316273584777 ) );
#392 = CARTESIAN_POINT( '', ( 0.612741841782414, 0.900000000000005, 4.60597299415660 ) );
#393 = CARTESIAN_POINT( '', ( 0.920000000000000, 0.900000000000005, 4.91833305094318 ) );
#394 = CARTESIAN_POINT( '', ( 0.920000000000004, 0.900000000000009, -4.91833305094317 ) );
#395 = AXIS2_PLACEMENT_3D( '', #461, #462, #463 );
#396 = CARTESIAN_POINT( '', ( 0.920000000000001, 0.900000000000005, -4.91833305094318 ) );
#397 = CARTESIAN_POINT( '', ( 0.612739261072120, 0.900000000000005, -4.60597037059464 ) );
#398 = CARTESIAN_POINT( '', ( 0.305935608496525, 0.900000000000005, -4.29315949383336 ) );
#399 = CARTESIAN_POINT( '', ( -8.43797886681952E-16, 0.900000000000005, -3.97949745570970 ) );
#400 = COLOUR_RGB( '', 0.689999997600000, 0.689999997600000, 0.689999997600000 );
#401 = CARTESIAN_POINT( '', ( 3.00000000000000, 0.900000000000005, -4.91833305094317 ) );
#402 = CARTESIAN_POINT( '', ( 3.00000000000000, -0.899999999999995, -4.91833305094317 ) );
#403 = AXIS2_PLACEMENT_3D( '', #464, #465, #466 );
#404 = CARTESIAN_POINT( '', ( 3.00000000000000, -0.899999999999995, 4.91833305094317 ) );
#405 = CARTESIAN_POINT( '', ( 3.00000000000000, -0.899999999999995, -10.5000000000000 ) );
#406 = VECTOR( '', #467, 1000.00000000000 );
#407 = CARTESIAN_POINT( '', ( 3.00000000000000, 0.900000000000005, 4.91833305094317 ) );
#408 = AXIS2_PLACEMENT_3D( '', #468, #469, #470 );
#409 = CARTESIAN_POINT( '', ( 3.00000000000000, 0.900000000000005, 10.5000000000000 ) );
#410 = VECTOR( '', #471, 1000.00000000000 );
#411 = COLOUR_RGB( '', 0.689999997600000, 0.689999997600000, 0.689999997600000 );
#412 = COLOUR_RGB( '', 0.689999997600000, 0.689999997600000, 0.689999997600000 );
#413 = CARTESIAN_POINT( '', ( 0.000000000000000, 0.900000000000005, 10.5000000000000 ) );
#414 = VECTOR( '', #472, 1000.00000000000 );
#415 = COLOUR_RGB( '', 0.689999997600000, 0.689999997600000, 0.689999997600000 );
#416 = CARTESIAN_POINT( '', ( 0.920000000000004, -0.899999999999992, 4.91833305094318 ) );
#417 = CARTESIAN_POINT( '', ( 0.920000000000004, -0.899999999999992, -4.91833305094318 ) );
#418 = AXIS2_PLACEMENT_3D( '', #473, #474, #475 );
#419 = CARTESIAN_POINT( '', ( 55.0000000000000, -0.899999999999995, -4.91833305094318 ) );
#420 = VECTOR( '', #476, 1000.00000000000 );
#421 = CARTESIAN_POINT( '', ( 55.0000000000000, 0.900000000000005, -4.91833305094317 ) );
#422 = VECTOR( '', #477, 1000.00000000000 );
#423 = CARTESIAN_POINT( '', ( 55.0000000000000, 0.900000000000005, 4.91833305094317 ) );
#424 = VECTOR( '', #478, 1000.00000000000 );
#425 = CARTESIAN_POINT( '', ( 55.0000000000000, -0.899999999999995, 4.91833305094318 ) );
#426 = VECTOR( '', #479, 1000.00000000000 );
#427 = COLOUR_RGB( '', 0.689999997600000, 0.689999997600000, 0.689999997600000 );
#428 = COLOUR_RGB( '', 0.689999997600000, 0.689999997600000, 0.689999997600000 );
#429 = CARTESIAN_POINT( '', ( 0.920000000000000, -0.899999999999995, 4.91833305094318 ) );
#430 = CARTESIAN_POINT( '', ( 0.612739261072119, -0.899999999999995, 4.60597037059464 ) );
#431 = CARTESIAN_POINT( '', ( 0.305935608496525, -0.899999999999995, 4.29315949383336 ) );
#432 = CARTESIAN_POINT( '', ( -1.34582577845783E-15, -0.899999999999995, 3.97949745570970 ) );
#433 = CARTESIAN_POINT( '', ( 2.89847860650126E-16, -0.899999999999995, -3.97949745570970 ) );
#434 = CARTESIAN_POINT( '', ( 0.305938770650471, -0.899999999999995, -4.29316273584777 ) );
#435 = CARTESIAN_POINT( '', ( 0.612741841782415, -0.899999999999995, -4.60597299415660 ) );
#436 = CARTESIAN_POINT( '', ( 0.920000000000001, -0.899999999999995, -4.91833305094318 ) );
#437 = COLOUR_RGB( '', 0.689999997600000, 0.689999997600000, 0.689999997600000 );
#438 = COLOUR_RGB( '', 0.689999997600000, 0.689999997600000, 0.689999997600000 );
#439 = CARTESIAN_POINT( '', ( 46.8660700000000, 2.27441640634968E-15, 0.000000000000000 ) );
#440 = DIRECTION( '', ( 1.00000000000000, -6.12323399573677E-17, -0.000000000000000 ) );
#441 = DIRECTION( '', ( 6.12323399573677E-17, 1.00000000000000, 0.000000000000000 ) );
#442 = CARTESIAN_POINT( '', ( 46.0000000000000, 2.32744789901656E-15, 0.000000000000000 ) );
#443 = DIRECTION( '', ( 1.00000000000000, -6.12323399573677E-17, -0.000000000000000 ) );
#444 = DIRECTION( '', ( 6.12323399573677E-17, 1.00000000000000, 0.000000000000000 ) );
#445 = CARTESIAN_POINT( '', ( 53.6773037637589, 1.85734862499809E-15, 0.000000000000000 ) );
#446 = DIRECTION( '', ( 1.00000000000000, -6.12323399573677E-17, -0.000000000000000 ) );
#447 = DIRECTION( '', ( 6.12323399573677E-17, 1.00000000000000, 0.000000000000000 ) );
#448 = CARTESIAN_POINT( '', ( 50.5000000000000, 2.05190236920840E-15, 0.000000000000000 ) );
#449 = DIRECTION( '', ( 1.00000000000000, -6.12323399573677E-17, -0.000000000000000 ) );
#450 = DIRECTION( '', ( 6.12323399573677E-17, 1.00000000000000, 0.000000000000000 ) );
#451 = CARTESIAN_POINT( '', ( 50.5000000000000, 2.05190236920840E-15, 0.000000000000000 ) );
#452 = DIRECTION( '', ( 1.00000000000000, -6.12323399573677E-17, -0.000000000000000 ) );
#453 = DIRECTION( '', ( 6.12323399573677E-17, 1.00000000000000, 0.000000000000000 ) );
#454 = CARTESIAN_POINT( '', ( 0.000000000000000, 5.14413553705547E-15, 0.000000000000000 ) );
#455 = DIRECTION( '', ( 1.00000000000000, -6.12323399573677E-17, -0.000000000000000 ) );
#456 = DIRECTION( '', ( 6.12323399573677E-17, 1.00000000000000, 0.000000000000000 ) );
#457 = DIRECTION( '', ( 0.000000000000000, 0.000000000000000, 1.00000000000000 ) );
#458 = CARTESIAN_POINT( '', ( 0.000000000000000, 5.14413553705547E-15, 0.000000000000000 ) );
#459 = DIRECTION( '', ( 1.00000000000000, -6.12323399573677E-17, -0.000000000000000 ) );
#460 = DIRECTION( '', ( 6.12323399573677E-17, 1.00000000000000, 0.000000000000000 ) );
#461 = CARTESIAN_POINT( '', ( 0.919999999999997, 5.08780178429469E-15, 0.000000000000000 ) );
#462 = DIRECTION( '', ( 1.00000000000000, -6.12323399573677E-17, -0.000000000000000 ) );
#463 = DIRECTION( '', ( 6.12323399573677E-17, 1.00000000000000, 0.000000000000000 ) );
#464 = CARTESIAN_POINT( '', ( 3.00000000000000, 4.96043851718337E-15, 0.000000000000000 ) );
#465 = DIRECTION( '', ( -1.00000000000000, 0.000000000000000, 0.000000000000000 ) );
#466 = DIRECTION( '', ( 0.000000000000000, 0.000000000000000, 1.00000000000000 ) );
#467 = DIRECTION( '', ( 0.000000000000000, 0.000000000000000, 1.00000000000000 ) );
#468 = CARTESIAN_POINT( '', ( 3.00000000000000, 4.96043851718337E-15, 0.000000000000000 ) );
#469 = DIRECTION( '', ( -1.00000000000000, 0.000000000000000, 0.000000000000000 ) );
#470 = DIRECTION( '', ( 0.000000000000000, 0.000000000000000, 1.00000000000000 ) );
#471 = DIRECTION( '', ( 0.000000000000000, 0.000000000000000, -1.00000000000000 ) );
#472 = DIRECTION( '', ( 0.000000000000000, 0.000000000000000, -1.00000000000000 ) );
#473 = CARTESIAN_POINT( '', ( 0.919999999999997, 5.08780178429469E-15, 0.000000000000000 ) );
#474 = DIRECTION( '', ( 1.00000000000000, -6.12323399573677E-17, -0.000000000000000 ) );
#475 = DIRECTION( '', ( 6.12323399573677E-17, 1.00000000000000, 0.000000000000000 ) );
#476 = DIRECTION( '', ( 1.00000000000000, -6.12323399573677E-17, -0.000000000000000 ) );
#477 = DIRECTION( '', ( 1.00000000000000, -6.12323399573677E-17, -0.000000000000000 ) );
#478 = DIRECTION( '', ( 1.00000000000000, -6.12323399573677E-17, -0.000000000000000 ) );
#479 = DIRECTION( '', ( 1.00000000000000, -6.12323399573677E-17, -0.000000000000000 ) );
ENDSEC;
END-ISO-10303-21;
