ISO-10303-21;
HEADER;
FILE_DESCRIPTION( ( 'STEP AP214' ), '1' );
FILE_NAME( '//goodhand-server/Shared Folders/GoodHand Data/Kipp CAD/K0170/K0170.1105007.stp', '2020-11-26T10:50:37', ( '' ), ( '' ), ' ', 'PARTsolutions', ' ' );
FILE_SCHEMA( ( 'AUTOMOTIVE_DESIGN { 1 0 10303 214 1 1 1 1 }' ) );
ENDSEC;
DATA;
#1 = MECHANICAL_DESIGN_GEOMETRIC_PRESENTATION_REPRESENTATION( ' ', ( #10, #11, #12, #13, #14, #15, #16, #17, #18, #19, #20, #21, #22 ), #6 );
#2 = PRODUCT_DEFINITION_CONTEXT( '', #23, 'design' );
#3 = APPLICATION_PROTOCOL_DEFINITION( 'international standard', 'automotive_design', 2001, #23 );
#4 = PRODUCT_CATEGORY_RELATIONSHIP( 'NONE', 'NONE', #24, #25 );
#5 = SHAPE_DEFINITION_REPRESENTATION( #26, #27 );
#6 =  ( GEOMETRIC_REPRESENTATION_CONTEXT( 3 )GLOBAL_UNCERTAINTY_ASSIGNED_CONTEXT( ( #30 ) )GLOBAL_UNIT_ASSIGNED_CONTEXT( ( #32, #33, #34 ) )REPRESENTATION_CONTEXT( 'NONE', 'WORKSPACE' ) );
#10 = STYLED_ITEM( '', ( #36 ), #37 );
#11 = STYLED_ITEM( '', ( #38 ), #39 );
#12 = STYLED_ITEM( '', ( #40 ), #41 );
#13 = STYLED_ITEM( '', ( #42 ), #43 );
#14 = STYLED_ITEM( '', ( #44 ), #45 );
#15 = STYLED_ITEM( '', ( #46 ), #47 );
#16 = STYLED_ITEM( '', ( #48 ), #49 );
#17 = STYLED_ITEM( '', ( #50 ), #51 );
#18 = STYLED_ITEM( '', ( #52 ), #53 );
#19 = STYLED_ITEM( '', ( #54 ), #55 );
#20 = STYLED_ITEM( '', ( #56 ), #57 );
#21 = STYLED_ITEM( '', ( #58 ), #59 );
#22 = STYLED_ITEM( '', ( #60 ), #61 );
#23 = APPLICATION_CONTEXT( 'core data for automotive mechanical design processes' );
#24 = PRODUCT_CATEGORY( 'part', 'NONE' );
#25 = PRODUCT_RELATED_PRODUCT_CATEGORY( 'detail', ' ', ( #62 ) );
#26 = PRODUCT_DEFINITION_SHAPE( 'NONE', 'NONE', #63 );
#27 = ADVANCED_BREP_SHAPE_REPRESENTATION( '_K0170.1105007', ( #64, #65 ), #6 );
#30 = UNCERTAINTY_MEASURE_WITH_UNIT( LENGTH_MEASURE( 0.00100000000000000 ), #32, '', '' );
#32 =  ( CONVERSION_BASED_UNIT( 'MILLIMETRE', #68 )LENGTH_UNIT(  )NAMED_UNIT( #71 ) );
#33 =  ( NAMED_UNIT( #73 )PLANE_ANGLE_UNIT(  )SI_UNIT( $, .RADIAN. ) );
#34 =  ( NAMED_UNIT( #73 )SI_UNIT( $, .STERADIAN. )SOLID_ANGLE_UNIT(  ) );
#36 = PRESENTATION_STYLE_ASSIGNMENT( ( #79 ) );
#37 = ADVANCED_FACE( '', ( #80, #81 ), #82, .F. );
#38 = PRESENTATION_STYLE_ASSIGNMENT( ( #83 ) );
#39 = ADVANCED_FACE( '', ( #84 ), #85, .T. );
#40 = PRESENTATION_STYLE_ASSIGNMENT( ( #86 ) );
#41 = ADVANCED_FACE( '', ( #87, #88 ), #89, .T. );
#42 = PRESENTATION_STYLE_ASSIGNMENT( ( #90 ) );
#43 = ADVANCED_FACE( '', ( #91 ), #92, .F. );
#44 = PRESENTATION_STYLE_ASSIGNMENT( ( #93 ) );
#45 = ADVANCED_FACE( '', ( #94, #95 ), #96, .T. );
#46 = PRESENTATION_STYLE_ASSIGNMENT( ( #97 ) );
#47 = ADVANCED_FACE( '', ( #98, #99 ), #100, .T. );
#48 = PRESENTATION_STYLE_ASSIGNMENT( ( #101 ) );
#49 = ADVANCED_FACE( '', ( #102 ), #103, .F. );
#50 = PRESENTATION_STYLE_ASSIGNMENT( ( #104 ) );
#51 = ADVANCED_FACE( '', ( #105 ), #106, .F. );
#52 = PRESENTATION_STYLE_ASSIGNMENT( ( #107 ) );
#53 = ADVANCED_FACE( '', ( #108, #109 ), #110, .T. );
#54 = PRESENTATION_STYLE_ASSIGNMENT( ( #111 ) );
#55 = ADVANCED_FACE( '', ( #112, #113 ), #114, .T. );
#56 = PRESENTATION_STYLE_ASSIGNMENT( ( #115 ) );
#57 = ADVANCED_FACE( '', ( #116, #117 ), #118, .T. );
#58 = PRESENTATION_STYLE_ASSIGNMENT( ( #119 ) );
#59 = ADVANCED_FACE( '', ( #120, #121 ), #122, .T. );
#60 = PRESENTATION_STYLE_ASSIGNMENT( ( #123 ) );
#61 = ADVANCED_FACE( '', ( #124 ), #125, .T. );
#62 = PRODUCT( '_K0170.1105007', '_K0170.1105007', 'PART-_K0170.1105007-DESC', ( #126 ) );
#63 = PRODUCT_DEFINITION( 'NONE', 'NONE', #127, #2 );
#64 = MANIFOLD_SOLID_BREP( '_K0170.1105007', #128 );
#65 = AXIS2_PLACEMENT_3D( '', #129, #130, #131 );
#68 = LENGTH_MEASURE_WITH_UNIT( LENGTH_MEASURE( 1.00000000000000 ), #132 );
#71 = DIMENSIONAL_EXPONENTS( 1.00000000000000, 0.000000000000000, 0.000000000000000, 0.000000000000000, 0.000000000000000, 0.000000000000000, 0.000000000000000 );
#73 = DIMENSIONAL_EXPONENTS( 0.000000000000000, 0.000000000000000, 0.000000000000000, 0.000000000000000, 0.000000000000000, 0.000000000000000, 0.000000000000000 );
#79 = SURFACE_STYLE_USAGE( .BOTH., #133 );
#80 = FACE_OUTER_BOUND( '', #134, .T. );
#81 = FACE_BOUND( '', #135, .T. );
#82 = PLANE( '', #136 );
#83 = SURFACE_STYLE_USAGE( .BOTH., #137 );
#84 = FACE_OUTER_BOUND( '', #138, .T. );
#85 = PLANE( '', #139 );
#86 = SURFACE_STYLE_USAGE( .BOTH., #140 );
#87 = FACE_OUTER_BOUND( '', #141, .T. );
#88 = FACE_BOUND( '', #142, .T. );
#89 = CONICAL_SURFACE( '', #143, 2.00950000000000, 0.785398163400000 );
#90 = SURFACE_STYLE_USAGE( .BOTH., #144 );
#91 = FACE_OUTER_BOUND( '', #145, .T. );
#92 = PLANE( '', #146 );
#93 = SURFACE_STYLE_USAGE( .BOTH., #147 );
#94 = FACE_OUTER_BOUND( '', #148, .T. );
#95 = FACE_OUTER_BOUND( '', #149, .T. );
#96 = CYLINDRICAL_SURFACE( '', #150, 2.50000000000000 );
#97 = SURFACE_STYLE_USAGE( .BOTH., #151 );
#98 = FACE_OUTER_BOUND( '', #152, .T. );
#99 = FACE_OUTER_BOUND( '', #153, .T. );
#100 = CYLINDRICAL_SURFACE( '', #154, 7.50000000000000 );
#101 = SURFACE_STYLE_USAGE( .BOTH., #155 );
#102 = FACE_OUTER_BOUND( '', #156, .T. );
#103 = PLANE( '', #157 );
#104 = SURFACE_STYLE_USAGE( .BOTH., #158 );
#105 = FACE_OUTER_BOUND( '', #159, .T. );
#106 = PLANE( '', #160 );
#107 = SURFACE_STYLE_USAGE( .BOTH., #161 );
#108 = FACE_OUTER_BOUND( '', #162, .T. );
#109 = FACE_BOUND( '', #163, .T. );
#110 = ( BOUNDED_SURFACE(  )B_SPLINE_SURFACE( 3, 3, ( ( #166, #167, #168, #169, #170, #171, #172 ), ( #173, #174, #175, #176, #177, #178, #179 ), ( #180, #181, #182, #183, #184, #185, #186 ), ( #187, #188, #189, #190, #191, #192, #193 ) ), .UNSPECIFIED., .F., .T., .F. )B_SPLINE_SURFACE_WITH_KNOTS( ( 4, 4 ), ( 4, 3, 4 ), ( 0.000000000000000, 6.28318530717959 ), ( 1.16300745030023, 1.29957981603396, 1.43615218176768 ), .UNSPECIFIED. )GEOMETRIC_REPRESENTATION_ITEM(  )RATIONAL_B_SPLINE_SURFACE( ( ( 1.00000000000000, 0.333333333333333, 0.333333333333333, 1.00000000000000, 0.333333333333333, 0.333333333333333, 1.00000000000000 ), ( 0.993792320786237, 0.331264106928746, 0.331264106928746, 0.993792320786237, 0.331264106928746, 0.331264106928746, 0.993792320786237 ), ( 0.993792320786237, 0.331264106928746, 0.331264106928746, 0.993792320786237, 0.331264106928746, 0.331264106928746, 0.993792320786237 ), ( 1.00000000000000, 0.333333333333333, 0.333333333333333, 1.00000000000000, 0.333333333333333, 0.333333333333333, 1.00000000000000 ) ) )REPRESENTATION_ITEM( '' )SURFACE(  ) );
#111 = SURFACE_STYLE_USAGE( .BOTH., #199 );
#112 = FACE_OUTER_BOUND( '', #200, .T. );
#113 = FACE_OUTER_BOUND( '', #201, .T. );
#114 = CYLINDRICAL_SURFACE( '', #202, 8.50000000000000 );
#115 = SURFACE_STYLE_USAGE( .BOTH., #203 );
#116 = FACE_OUTER_BOUND( '', #204, .T. );
#117 = FACE_OUTER_BOUND( '', #205, .T. );
#118 = TOROIDAL_SURFACE( '', #206, 5.50000000000000, 3.00000000000000 );
#119 = SURFACE_STYLE_USAGE( .BOTH., #207 );
#120 = FACE_OUTER_BOUND( '', #208, .T. );
#121 = FACE_BOUND( '', #209, .T. );
#122 = CONICAL_SURFACE( '', #210, 7.50000000000000, 0.0433567600000000 );
#123 = SURFACE_STYLE_USAGE( .BOTH., #211 );
#124 = FACE_OUTER_BOUND( '', #212, .T. );
#125 = PLANE( '', #213 );
#126 = PRODUCT_CONTEXT( '', #23, 'mechanical' );
#127 = PRODUCT_DEFINITION_FORMATION_WITH_SPECIFIED_SOURCE( ' ', 'NONE', #62, .NOT_KNOWN. );
#128 = CLOSED_SHELL( '', ( #43, #39, #61, #37, #47, #45, #41, #51, #59, #55, #57, #53, #49 ) );
#129 = CARTESIAN_POINT( '', ( 0.000000000000000, 0.000000000000000, 0.000000000000000 ) );
#130 = DIRECTION( '', ( 0.000000000000000, 0.000000000000000, 1.00000000000000 ) );
#131 = DIRECTION( '', ( 1.00000000000000, 0.000000000000000, 0.000000000000000 ) );
#132 =  ( LENGTH_UNIT(  )NAMED_UNIT( #71 )SI_UNIT( .MILLI., .METRE. ) );
#133 = SURFACE_SIDE_STYLE( '', ( #215 ) );
#134 = EDGE_LOOP( '', ( #216, #217, #218, #219 ) );
#135 = EDGE_LOOP( '', ( #220 ) );
#136 = AXIS2_PLACEMENT_3D( '', #221, #222, #223 );
#137 = SURFACE_SIDE_STYLE( '', ( #224 ) );
#138 = EDGE_LOOP( '', ( #225, #226, #227, #228 ) );
#139 = AXIS2_PLACEMENT_3D( '', #229, #230, #231 );
#140 = SURFACE_SIDE_STYLE( '', ( #232 ) );
#141 = EDGE_LOOP( '', ( #233 ) );
#142 = EDGE_LOOP( '', ( #234 ) );
#143 = AXIS2_PLACEMENT_3D( '', #235, #236, #237 );
#144 = SURFACE_SIDE_STYLE( '', ( #238 ) );
#145 = EDGE_LOOP( '', ( #239, #240 ) );
#146 = AXIS2_PLACEMENT_3D( '', #241, #242, #243 );
#147 = SURFACE_SIDE_STYLE( '', ( #244 ) );
#148 = EDGE_LOOP( '', ( #245 ) );
#149 = EDGE_LOOP( '', ( #246 ) );
#150 = AXIS2_PLACEMENT_3D( '', #247, #248, #249 );
#151 = SURFACE_SIDE_STYLE( '', ( #250 ) );
#152 = EDGE_LOOP( '', ( #251 ) );
#153 = EDGE_LOOP( '', ( #252, #253, #254, #255, #256, #257, #258, #259 ) );
#154 = AXIS2_PLACEMENT_3D( '', #260, #261, #262 );
#155 = SURFACE_SIDE_STYLE( '', ( #263 ) );
#156 = EDGE_LOOP( '', ( #264, #265 ) );
#157 = AXIS2_PLACEMENT_3D( '', #266, #267, #268 );
#158 = SURFACE_SIDE_STYLE( '', ( #269 ) );
#159 = EDGE_LOOP( '', ( #270 ) );
#160 = AXIS2_PLACEMENT_3D( '', #271, #272, #273 );
#161 = SURFACE_SIDE_STYLE( '', ( #274 ) );
#162 = EDGE_LOOP( '', ( #275 ) );
#163 = VERTEX_LOOP( '', #276 );
#166 = CARTESIAN_POINT( '', ( 51.0000000000000, 0.000000000000000, -4.33680868994202E-16 ) );
#167 = CARTESIAN_POINT( '', ( 51.0000000000000, 8.67361737988404E-16, -4.33680868994202E-16 ) );
#168 = CARTESIAN_POINT( '', ( 51.0000000000000, 8.67361737988404E-16, 4.33680868994202E-16 ) );
#169 = CARTESIAN_POINT( '', ( 51.0000000000000, 0.000000000000000, 4.33680868994202E-16 ) );
#170 = CARTESIAN_POINT( '', ( 51.0000000000000, -8.67361737988404E-16, 4.33680868994202E-16 ) );
#171 = CARTESIAN_POINT( '', ( 51.0000000000000, -8.67361737988404E-16, -4.33680868994202E-16 ) );
#172 = CARTESIAN_POINT( '', ( 51.0000000000000, 0.000000000000000, -4.33680868994202E-16 ) );
#173 = CARTESIAN_POINT( '', ( 50.6873635186098, 0.000000000000000, -2.30789780703028 ) );
#174 = CARTESIAN_POINT( '', ( 50.6873635186098, 4.61579561406057, -2.30789780703028 ) );
#175 = CARTESIAN_POINT( '', ( 50.6873635186098, 4.61579561406057, 2.30789780703028 ) );
#176 = CARTESIAN_POINT( '', ( 50.6873635186098, 0.000000000000000, 2.30789780703028 ) );
#177 = CARTESIAN_POINT( '', ( 50.6873635186098, -4.61579561406057, 2.30789780703028 ) );
#178 = CARTESIAN_POINT( '', ( 50.6873635186098, -4.61579561406057, -2.30789780703028 ) );
#179 = CARTESIAN_POINT( '', ( 50.6873635186098, 0.000000000000000, -2.30789780703028 ) );
#180 = CARTESIAN_POINT( '', ( 50.0634220179007, 0.000000000000000, -4.55174068497073 ) );
#181 = CARTESIAN_POINT( '', ( 50.0634220179007, 9.10348136994147, -4.55174068497073 ) );
#182 = CARTESIAN_POINT( '', ( 50.0634220179007, 9.10348136994147, 4.55174068497073 ) );
#183 = CARTESIAN_POINT( '', ( 50.0634220179007, 0.000000000000000, 4.55174068497073 ) );
#184 = CARTESIAN_POINT( '', ( 50.0634220179007, -9.10348136994147, 4.55174068497073 ) );
#185 = CARTESIAN_POINT( '', ( 50.0634220179007, -9.10348136994147, -4.55174068497073 ) );
#186 = CARTESIAN_POINT( '', ( 50.0634220179007, 0.000000000000000, -4.55174068497073 ) );
#187 = CARTESIAN_POINT( '', ( 49.1397951839264, 0.000000000000000, -6.68974146344433 ) );
#188 = CARTESIAN_POINT( '', ( 49.1397951839264, 13.3794829268887, -6.68974146344433 ) );
#189 = CARTESIAN_POINT( '', ( 49.1397951839264, 13.3794829268887, 6.68974146344433 ) );
#190 = CARTESIAN_POINT( '', ( 49.1397951839264, 0.000000000000000, 6.68974146344433 ) );
#191 = CARTESIAN_POINT( '', ( 49.1397951839264, -13.3794829268887, 6.68974146344433 ) );
#192 = CARTESIAN_POINT( '', ( 49.1397951839264, -13.3794829268887, -6.68974146344433 ) );
#193 = CARTESIAN_POINT( '', ( 49.1397951839264, 0.000000000000000, -6.68974146344433 ) );
#199 = SURFACE_SIDE_STYLE( '', ( #277 ) );
#200 = EDGE_LOOP( '', ( #278 ) );
#201 = EDGE_LOOP( '', ( #279 ) );
#202 = AXIS2_PLACEMENT_3D( '', #280, #281, #282 );
#203 = SURFACE_SIDE_STYLE( '', ( #283 ) );
#204 = EDGE_LOOP( '', ( #284 ) );
#205 = EDGE_LOOP( '', ( #285 ) );
#206 = AXIS2_PLACEMENT_3D( '', #286, #287, #288 );
#207 = SURFACE_SIDE_STYLE( '', ( #289 ) );
#208 = EDGE_LOOP( '', ( #290 ) );
#209 = EDGE_LOOP( '', ( #291 ) );
#210 = AXIS2_PLACEMENT_3D( '', #292, #293, #294 );
#211 = SURFACE_SIDE_STYLE( '', ( #295 ) );
#212 = EDGE_LOOP( '', ( #296, #297, #298, #299 ) );
#213 = AXIS2_PLACEMENT_3D( '', #300, #301, #302 );
#215 = SURFACE_STYLE_FILL_AREA( #303 );
#216 = ORIENTED_EDGE( '', *, *, #304, .F. );
#217 = ORIENTED_EDGE( '', *, *, #305, .F. );
#218 = ORIENTED_EDGE( '', *, *, #306, .F. );
#219 = ORIENTED_EDGE( '', *, *, #307, .F. );
#220 = ORIENTED_EDGE( '', *, *, #308, .T. );
#221 = CARTESIAN_POINT( '', ( 0.000000000000000, 2.50000000000000, 0.000000000000000 ) );
#222 = DIRECTION( '', ( 1.00000000000000, 0.000000000000000, -0.000000000000000 ) );
#223 = DIRECTION( '', ( -0.000000000000000, 0.000000000000000, -1.00000000000000 ) );
#224 = SURFACE_STYLE_FILL_AREA( #309 );
#225 = ORIENTED_EDGE( '', *, *, #310, .T. );
#226 = ORIENTED_EDGE( '', *, *, #311, .T. );
#227 = ORIENTED_EDGE( '', *, *, #312, .T. );
#228 = ORIENTED_EDGE( '', *, *, #306, .T. );
#229 = CARTESIAN_POINT( '', ( 4.99000000000000, -6.50000000000000, -17.0000000000000 ) );
#230 = DIRECTION( '', ( 0.000000000000000, -1.00000000000000, 0.000000000000000 ) );
#231 = DIRECTION( '', ( 0.000000000000000, 0.000000000000000, -1.00000000000000 ) );
#232 = SURFACE_STYLE_FILL_AREA( #313 );
#233 = ORIENTED_EDGE( '', *, *, #314, .F. );
#234 = ORIENTED_EDGE( '', *, *, #315, .T. );
#235 = CARTESIAN_POINT( '', ( -7.00000000000000, 0.000000000000000, 0.000000000000000 ) );
#236 = DIRECTION( '', ( 1.00000000000000, -0.000000000000000, -0.000000000000000 ) );
#237 = DIRECTION( '', ( -0.000000000000000, 0.000000000000000, -1.00000000000000 ) );
#238 = SURFACE_STYLE_FILL_AREA( #316 );
#239 = ORIENTED_EDGE( '', *, *, #317, .F. );
#240 = ORIENTED_EDGE( '', *, *, #318, .F. );
#241 = CARTESIAN_POINT( '', ( 4.99000000000000, 0.000000000000000, 0.000000000000000 ) );
#242 = DIRECTION( '', ( 1.00000000000000, 0.000000000000000, 0.000000000000000 ) );
#243 = DIRECTION( '', ( 0.000000000000000, 0.000000000000000, -1.00000000000000 ) );
#244 = SURFACE_STYLE_FILL_AREA( #319 );
#245 = ORIENTED_EDGE( '', *, *, #308, .F. );
#246 = ORIENTED_EDGE( '', *, *, #314, .T. );
#247 = CARTESIAN_POINT( '', ( 51.0000000000000, 0.000000000000000, 0.000000000000000 ) );
#248 = DIRECTION( '', ( -1.00000000000000, -0.000000000000000, 0.000000000000000 ) );
#249 = DIRECTION( '', ( -0.000000000000000, 0.000000000000000, -1.00000000000000 ) );
#250 = SURFACE_STYLE_FILL_AREA( #320 );
#251 = ORIENTED_EDGE( '', *, *, #321, .F. );
#252 = ORIENTED_EDGE( '', *, *, #310, .F. );
#253 = ORIENTED_EDGE( '', *, *, #305, .T. );
#254 = ORIENTED_EDGE( '', *, *, #322, .F. );
#255 = ORIENTED_EDGE( '', *, *, #318, .T. );
#256 = ORIENTED_EDGE( '', *, *, #323, .F. );
#257 = ORIENTED_EDGE( '', *, *, #307, .T. );
#258 = ORIENTED_EDGE( '', *, *, #312, .F. );
#259 = ORIENTED_EDGE( '', *, *, #324, .T. );
#260 = CARTESIAN_POINT( '', ( 51.0000000000000, 0.000000000000000, 0.000000000000000 ) );
#261 = DIRECTION( '', ( -1.00000000000000, -0.000000000000000, 0.000000000000000 ) );
#262 = DIRECTION( '', ( -0.000000000000000, 0.000000000000000, -1.00000000000000 ) );
#263 = SURFACE_STYLE_FILL_AREA( #325 );
#264 = ORIENTED_EDGE( '', *, *, #311, .F. );
#265 = ORIENTED_EDGE( '', *, *, #324, .F. );
#266 = CARTESIAN_POINT( '', ( 4.99000000000000, 0.000000000000000, 0.000000000000000 ) );
#267 = DIRECTION( '', ( 1.00000000000000, 0.000000000000000, -0.000000000000000 ) );
#268 = DIRECTION( '', ( -0.000000000000000, 0.000000000000000, -1.00000000000000 ) );
#269 = SURFACE_STYLE_FILL_AREA( #326 );
#270 = ORIENTED_EDGE( '', *, *, #315, .F. );
#271 = CARTESIAN_POINT( '', ( -7.00000000000000, 0.000000000000000, 0.000000000000000 ) );
#272 = DIRECTION( '', ( 1.00000000000000, 0.000000000000000, -0.000000000000000 ) );
#273 = DIRECTION( '', ( -0.000000000000000, 0.000000000000000, -1.00000000000000 ) );
#274 = SURFACE_STYLE_FILL_AREA( #327 );
#275 = ORIENTED_EDGE( '', *, *, #328, .T. );
#276 = VERTEX_POINT( '', #329 );
#277 = SURFACE_STYLE_FILL_AREA( #330 );
#278 = ORIENTED_EDGE( '', *, *, #331, .F. );
#279 = ORIENTED_EDGE( '', *, *, #332, .T. );
#280 = CARTESIAN_POINT( '', ( 51.0000000000000, 0.000000000000000, 0.000000000000000 ) );
#281 = DIRECTION( '', ( -1.00000000000000, -0.000000000000000, 0.000000000000000 ) );
#282 = DIRECTION( '', ( -0.000000000000000, 0.000000000000000, -1.00000000000000 ) );
#283 = SURFACE_STYLE_FILL_AREA( #333 );
#284 = ORIENTED_EDGE( '', *, *, #331, .T. );
#285 = ORIENTED_EDGE( '', *, *, #328, .F. );
#286 = CARTESIAN_POINT( '', ( 46.3857953200627, 0.000000000000000, 0.000000000000000 ) );
#287 = DIRECTION( '', ( 1.00000000000000, 0.000000000000000, -0.000000000000000 ) );
#288 = DIRECTION( '', ( -0.000000000000000, 0.000000000000000, -1.00000000000000 ) );
#289 = SURFACE_STYLE_FILL_AREA( #334 );
#290 = ORIENTED_EDGE( '', *, *, #332, .F. );
#291 = ORIENTED_EDGE( '', *, *, #321, .T. );
#292 = CARTESIAN_POINT( '', ( 5.00000000000000, 0.000000000000000, 0.000000000000000 ) );
#293 = DIRECTION( '', ( 1.00000000000000, -0.000000000000000, -0.000000000000000 ) );
#294 = DIRECTION( '', ( -0.000000000000000, 0.000000000000000, -1.00000000000000 ) );
#295 = SURFACE_STYLE_FILL_AREA( #335 );
#296 = ORIENTED_EDGE( '', *, *, #323, .T. );
#297 = ORIENTED_EDGE( '', *, *, #317, .T. );
#298 = ORIENTED_EDGE( '', *, *, #322, .T. );
#299 = ORIENTED_EDGE( '', *, *, #304, .T. );
#300 = CARTESIAN_POINT( '', ( 4.99000000000000, 6.50000000000000, 17.0000000000000 ) );
#301 = DIRECTION( '', ( -0.000000000000000, 1.00000000000000, 0.000000000000000 ) );
#302 = DIRECTION( '', ( 0.000000000000000, -0.000000000000000, 1.00000000000000 ) );
#303 = FILL_AREA_STYLE( '', ( #336 ) );
#304 = EDGE_CURVE( '', #337, #338, #339, .T. );
#305 = EDGE_CURVE( '', #340, #337, #341, .T. );
#306 = EDGE_CURVE( '', #342, #340, #343, .T. );
#307 = EDGE_CURVE( '', #338, #342, #344, .T. );
#308 = EDGE_CURVE( '', #345, #345, #346, .T. );
#309 = FILL_AREA_STYLE( '', ( #347 ) );
#310 = EDGE_CURVE( '', #340, #348, #349, .T. );
#311 = EDGE_CURVE( '', #348, #350, #351, .T. );
#312 = EDGE_CURVE( '', #350, #342, #352, .F. );
#313 = FILL_AREA_STYLE( '', ( #353 ) );
#314 = EDGE_CURVE( '', #354, #354, #355, .T. );
#315 = EDGE_CURVE( '', #356, #356, #357, .T. );
#316 = FILL_AREA_STYLE( '', ( #358 ) );
#317 = EDGE_CURVE( '', #359, #360, #361, .T. );
#318 = EDGE_CURVE( '', #360, #359, #362, .T. );
#319 = FILL_AREA_STYLE( '', ( #363 ) );
#320 = FILL_AREA_STYLE( '', ( #364 ) );
#321 = EDGE_CURVE( '', #365, #365, #366, .T. );
#322 = EDGE_CURVE( '', #360, #337, #367, .F. );
#323 = EDGE_CURVE( '', #338, #359, #368, .T. );
#324 = EDGE_CURVE( '', #350, #348, #369, .T. );
#325 = FILL_AREA_STYLE( '', ( #370 ) );
#326 = FILL_AREA_STYLE( '', ( #371 ) );
#327 = FILL_AREA_STYLE( '', ( #372 ) );
#328 = EDGE_CURVE( '', #373, #373, #374, .T. );
#329 = CARTESIAN_POINT( '', ( 51.0000000000000, 4.33680868994202E-16, 0.000000000000000 ) );
#330 = FILL_AREA_STYLE( '', ( #375 ) );
#331 = EDGE_CURVE( '', #376, #376, #377, .T. );
#332 = EDGE_CURVE( '', #378, #378, #379, .T. );
#333 = FILL_AREA_STYLE( '', ( #380 ) );
#334 = FILL_AREA_STYLE( '', ( #381 ) );
#335 = FILL_AREA_STYLE( '', ( #382 ) );
#336 = FILL_AREA_STYLE_COLOUR( '', #383 );
#337 = VERTEX_POINT( '', #384 );
#338 = VERTEX_POINT( '', #385 );
#339 = LINE( '', #386, #387 );
#340 = VERTEX_POINT( '', #388 );
#341 = CIRCLE( '', #389, 7.50000000000000 );
#342 = VERTEX_POINT( '', #390 );
#343 = LINE( '', #391, #392 );
#344 = CIRCLE( '', #393, 7.50000000000000 );
#345 = VERTEX_POINT( '', #394 );
#346 = CIRCLE( '', #395, 2.50000000000000 );
#347 = FILL_AREA_STYLE_COLOUR( '', #396 );
#348 = VERTEX_POINT( '', #397 );
#349 = LINE( '', #398, #399 );
#350 = VERTEX_POINT( '', #400 );
#351 = LINE( '', #401, #402 );
#352 = LINE( '', #403, #404 );
#353 = FILL_AREA_STYLE_COLOUR( '', #405 );
#354 = VERTEX_POINT( '', #406 );
#355 = CIRCLE( '', #407, 2.50000000000000 );
#356 = VERTEX_POINT( '', #408 );
#357 = CIRCLE( '', #409, 2.00950000000000 );
#358 = FILL_AREA_STYLE_COLOUR( '', #410 );
#359 = VERTEX_POINT( '', #411 );
#360 = VERTEX_POINT( '', #412 );
#361 = LINE( '', #413, #414 );
#362 = CIRCLE( '', #415, 7.50000000000000 );
#363 = FILL_AREA_STYLE_COLOUR( '', #416 );
#364 = FILL_AREA_STYLE_COLOUR( '', #417 );
#365 = VERTEX_POINT( '', #418 );
#366 = CIRCLE( '', #419, 7.50000000000000 );
#367 = LINE( '', #420, #421 );
#368 = LINE( '', #422, #423 );
#369 = CIRCLE( '', #424, 7.50000000000000 );
#370 = FILL_AREA_STYLE_COLOUR( '', #425 );
#371 = FILL_AREA_STYLE_COLOUR( '', #426 );
#372 = FILL_AREA_STYLE_COLOUR( '', #427 );
#373 = VERTEX_POINT( '', #428 );
#374 = CIRCLE( '', #429, 6.68974146340000 );
#375 = FILL_AREA_STYLE_COLOUR( '', #430 );
#376 = VERTEX_POINT( '', #431 );
#377 = CIRCLE( '', #432, 8.50000000000000 );
#378 = VERTEX_POINT( '', #433 );
#379 = CIRCLE( '', #434, 8.50000000000000 );
#380 = FILL_AREA_STYLE_COLOUR( '', #435 );
#381 = FILL_AREA_STYLE_COLOUR( '', #436 );
#382 = FILL_AREA_STYLE_COLOUR( '', #437 );
#383 = COLOUR_RGB( '', 0.689999997600000, 0.689999997600000, 0.689999997600000 );
#384 = CARTESIAN_POINT( '', ( 0.000000000000000, 6.50000000000000, -3.74165738677394 ) );
#385 = CARTESIAN_POINT( '', ( 0.000000000000000, 6.50000000000000, 3.74165738677394 ) );
#386 = CARTESIAN_POINT( '', ( 0.000000000000000, 6.50000000000000, 0.000000000000000 ) );
#387 = VECTOR( '', #438, 1000.00000000000 );
#388 = CARTESIAN_POINT( '', ( 0.000000000000000, -6.50000000000000, -3.74165738677394 ) );
#389 = AXIS2_PLACEMENT_3D( '', #439, #440, #441 );
#390 = CARTESIAN_POINT( '', ( 0.000000000000000, -6.50000000000000, 3.74165738677394 ) );
#391 = CARTESIAN_POINT( '', ( 0.000000000000000, -6.50000000000000, 0.000000000000000 ) );
#392 = VECTOR( '', #442, 1000.00000000000 );
#393 = AXIS2_PLACEMENT_3D( '', #443, #444, #445 );
#394 = CARTESIAN_POINT( '', ( 0.000000000000000, 0.000000000000000, -2.50000000000000 ) );
#395 = AXIS2_PLACEMENT_3D( '', #446, #447, #448 );
#396 = COLOUR_RGB( '', 0.689999997600000, 0.689999997600000, 0.689999997600000 );
#397 = CARTESIAN_POINT( '', ( 4.99000000000000, -6.50000000000000, -3.74165738677394 ) );
#398 = CARTESIAN_POINT( '', ( 51.0000000000000, -6.50000000000000, -3.74165738677394 ) );
#399 = VECTOR( '', #449, 1000.00000000000 );
#400 = CARTESIAN_POINT( '', ( 4.99000000000000, -6.50000000000000, 3.74165738677394 ) );
#401 = CARTESIAN_POINT( '', ( 4.99000000000000, -6.50000000000000, -17.0000000000000 ) );
#402 = VECTOR( '', #450, 1000.00000000000 );
#403 = CARTESIAN_POINT( '', ( 51.0000000000000, -6.50000000000000, 3.74165738677394 ) );
#404 = VECTOR( '', #451, 1000.00000000000 );
#405 = COLOUR_RGB( '', 0.689999997600000, 0.689999997600000, 0.689999997600000 );
#406 = CARTESIAN_POINT( '', ( -6.50950000000000, 0.000000000000000, -2.50000000000000 ) );
#407 = AXIS2_PLACEMENT_3D( '', #452, #453, #454 );
#408 = CARTESIAN_POINT( '', ( -7.00000000000000, 0.000000000000000, -2.00950000000000 ) );
#409 = AXIS2_PLACEMENT_3D( '', #455, #456, #457 );
#410 = COLOUR_RGB( '', 0.689999997600000, 0.689999997600000, 0.689999997600000 );
#411 = CARTESIAN_POINT( '', ( 4.99000000000000, 6.50000000000000, 3.74165738677394 ) );
#412 = CARTESIAN_POINT( '', ( 4.99000000000000, 6.50000000000000, -3.74165738677394 ) );
#413 = CARTESIAN_POINT( '', ( 4.99000000000000, 6.50000000000000, 17.0000000000000 ) );
#414 = VECTOR( '', #458, 1000.00000000000 );
#415 = AXIS2_PLACEMENT_3D( '', #459, #460, #461 );
#416 = COLOUR_RGB( '', 0.689999997600000, 0.689999997600000, 0.689999997600000 );
#417 = COLOUR_RGB( '', 0.689999997600000, 0.689999997600000, 0.689999997600000 );
#418 = CARTESIAN_POINT( '', ( 5.00000000000000, 0.000000000000000, -7.50000000000000 ) );
#419 = AXIS2_PLACEMENT_3D( '', #462, #463, #464 );
#420 = CARTESIAN_POINT( '', ( 51.0000000000000, 6.50000000000000, -3.74165738677394 ) );
#421 = VECTOR( '', #465, 1000.00000000000 );
#422 = CARTESIAN_POINT( '', ( 51.0000000000000, 6.50000000000000, 3.74165738677394 ) );
#423 = VECTOR( '', #466, 1000.00000000000 );
#424 = AXIS2_PLACEMENT_3D( '', #467, #468, #469 );
#425 = COLOUR_RGB( '', 0.689999997600000, 0.689999997600000, 0.689999997600000 );
#426 = COLOUR_RGB( '', 0.689999997600000, 0.689999997600000, 0.689999997600000 );
#427 = COLOUR_RGB( '', 0.689999997600000, 0.689999997600000, 0.689999997600000 );
#428 = CARTESIAN_POINT( '', ( 49.1397951839264, 0.000000000000000, -6.68974146344433 ) );
#429 = AXIS2_PLACEMENT_3D( '', #470, #471, #472 );
#430 = COLOUR_RGB( '', 0.689999997600000, 0.689999997600000, 0.689999997600000 );
#431 = CARTESIAN_POINT( '', ( 46.3857953200627, 0.000000000000000, -8.50000000000000 ) );
#432 = AXIS2_PLACEMENT_3D( '', #473, #474, #475 );
#433 = CARTESIAN_POINT( '', ( 28.0500000000000, 0.000000000000000, -8.50000000000000 ) );
#434 = AXIS2_PLACEMENT_3D( '', #476, #477, #478 );
#435 = COLOUR_RGB( '', 0.689999997600000, 0.689999997600000, 0.689999997600000 );
#436 = COLOUR_RGB( '', 0.689999997600000, 0.689999997600000, 0.689999997600000 );
#437 = COLOUR_RGB( '', 0.689999997600000, 0.689999997600000, 0.689999997600000 );
#438 = DIRECTION( '', ( 0.000000000000000, 0.000000000000000, 1.00000000000000 ) );
#439 = CARTESIAN_POINT( '', ( 0.000000000000000, 0.000000000000000, 0.000000000000000 ) );
#440 = DIRECTION( '', ( 1.00000000000000, 0.000000000000000, -0.000000000000000 ) );
#441 = DIRECTION( '', ( -0.000000000000000, 0.000000000000000, -1.00000000000000 ) );
#442 = DIRECTION( '', ( 0.000000000000000, 0.000000000000000, -1.00000000000000 ) );
#443 = CARTESIAN_POINT( '', ( 0.000000000000000, 0.000000000000000, 0.000000000000000 ) );
#444 = DIRECTION( '', ( 1.00000000000000, 0.000000000000000, -0.000000000000000 ) );
#445 = DIRECTION( '', ( -0.000000000000000, 0.000000000000000, -1.00000000000000 ) );
#446 = CARTESIAN_POINT( '', ( 0.000000000000000, 0.000000000000000, 0.000000000000000 ) );
#447 = DIRECTION( '', ( 1.00000000000000, 0.000000000000000, -0.000000000000000 ) );
#448 = DIRECTION( '', ( -0.000000000000000, 0.000000000000000, -1.00000000000000 ) );
#449 = DIRECTION( '', ( 1.00000000000000, -0.000000000000000, -0.000000000000000 ) );
#450 = DIRECTION( '', ( 0.000000000000000, 0.000000000000000, 1.00000000000000 ) );
#451 = DIRECTION( '', ( 1.00000000000000, -0.000000000000000, -0.000000000000000 ) );
#452 = CARTESIAN_POINT( '', ( -6.50950000000000, 0.000000000000000, 0.000000000000000 ) );
#453 = DIRECTION( '', ( 1.00000000000000, 0.000000000000000, -0.000000000000000 ) );
#454 = DIRECTION( '', ( -0.000000000000000, 0.000000000000000, -1.00000000000000 ) );
#455 = CARTESIAN_POINT( '', ( -7.00000000000000, 0.000000000000000, 0.000000000000000 ) );
#456 = DIRECTION( '', ( 1.00000000000000, 0.000000000000000, -0.000000000000000 ) );
#457 = DIRECTION( '', ( -0.000000000000000, 0.000000000000000, -1.00000000000000 ) );
#458 = DIRECTION( '', ( 0.000000000000000, 0.000000000000000, -1.00000000000000 ) );
#459 = CARTESIAN_POINT( '', ( 4.99000000000000, 0.000000000000000, 0.000000000000000 ) );
#460 = DIRECTION( '', ( 1.00000000000000, 0.000000000000000, 0.000000000000000 ) );
#461 = DIRECTION( '', ( 0.000000000000000, 0.000000000000000, -1.00000000000000 ) );
#462 = CARTESIAN_POINT( '', ( 5.00000000000000, 0.000000000000000, 0.000000000000000 ) );
#463 = DIRECTION( '', ( 1.00000000000000, 0.000000000000000, -0.000000000000000 ) );
#464 = DIRECTION( '', ( -0.000000000000000, 0.000000000000000, -1.00000000000000 ) );
#465 = DIRECTION( '', ( 1.00000000000000, -0.000000000000000, -0.000000000000000 ) );
#466 = DIRECTION( '', ( 1.00000000000000, -0.000000000000000, -0.000000000000000 ) );
#467 = CARTESIAN_POINT( '', ( 4.99000000000000, 0.000000000000000, 0.000000000000000 ) );
#468 = DIRECTION( '', ( 1.00000000000000, 0.000000000000000, -0.000000000000000 ) );
#469 = DIRECTION( '', ( -0.000000000000000, 0.000000000000000, -1.00000000000000 ) );
#470 = CARTESIAN_POINT( '', ( 49.1397951839264, 0.000000000000000, 0.000000000000000 ) );
#471 = DIRECTION( '', ( 1.00000000000000, 0.000000000000000, -0.000000000000000 ) );
#472 = DIRECTION( '', ( -0.000000000000000, 0.000000000000000, -1.00000000000000 ) );
#473 = CARTESIAN_POINT( '', ( 46.3857953200627, 0.000000000000000, 0.000000000000000 ) );
#474 = DIRECTION( '', ( 1.00000000000000, 0.000000000000000, -0.000000000000000 ) );
#475 = DIRECTION( '', ( -0.000000000000000, 0.000000000000000, -1.00000000000000 ) );
#476 = CARTESIAN_POINT( '', ( 28.0500000000000, 0.000000000000000, 0.000000000000000 ) );
#477 = DIRECTION( '', ( 1.00000000000000, 0.000000000000000, -0.000000000000000 ) );
#478 = DIRECTION( '', ( -0.000000000000000, 0.000000000000000, -1.00000000000000 ) );
ENDSEC;
END-ISO-10303-21;
