ISO-10303-21;
HEADER;
FILE_DESCRIPTION( ( 'STEP AP214' ), '1' );
FILE_NAME( '//goodhand-server/Shared Folders/GoodHand Data/Kipp CAD/K0141/K0141.04X15.stp', '2020-11-25T12:30:40', ( '' ), ( '' ), ' ', 'PARTsolutions', ' ' );
FILE_SCHEMA( ( 'AUTOMOTIVE_DESIGN { 1 0 10303 214 1 1 1 1 }' ) );
ENDSEC;
DATA;
#1 = MECHANICAL_DESIGN_GEOMETRIC_PRESENTATION_REPRESENTATION( ' ', ( #10, #11, #12, #13, #14, #15, #16, #17, #18, #19, #20, #21, #22, #23 ), #6 );
#2 = PRODUCT_DEFINITION_CONTEXT( '', #24, 'design' );
#3 = APPLICATION_PROTOCOL_DEFINITION( 'international standard', 'automotive_design', 2001, #24 );
#4 = PRODUCT_CATEGORY_RELATIONSHIP( 'NONE', 'NONE', #25, #26 );
#5 = SHAPE_DEFINITION_REPRESENTATION( #27, #28 );
#6 =  ( GEOMETRIC_REPRESENTATION_CONTEXT( 3 )GLOBAL_UNCERTAINTY_ASSIGNED_CONTEXT( ( #31 ) )GLOBAL_UNIT_ASSIGNED_CONTEXT( ( #33, #34, #35 ) )REPRESENTATION_CONTEXT( 'NONE', 'WORKSPACE' ) );
#10 = STYLED_ITEM( '', ( #37 ), #38 );
#11 = STYLED_ITEM( '', ( #39 ), #40 );
#12 = STYLED_ITEM( '', ( #41 ), #42 );
#13 = STYLED_ITEM( '', ( #43 ), #44 );
#14 = STYLED_ITEM( '', ( #45 ), #46 );
#15 = STYLED_ITEM( '', ( #47 ), #48 );
#16 = STYLED_ITEM( '', ( #49 ), #50 );
#17 = STYLED_ITEM( '', ( #51 ), #52 );
#18 = STYLED_ITEM( '', ( #53 ), #54 );
#19 = STYLED_ITEM( '', ( #55 ), #56 );
#20 = STYLED_ITEM( '', ( #57 ), #58 );
#21 = STYLED_ITEM( '', ( #59 ), #60 );
#22 = STYLED_ITEM( '', ( #61 ), #62 );
#23 = STYLED_ITEM( '', ( #63 ), #64 );
#24 = APPLICATION_CONTEXT( 'core data for automotive mechanical design processes' );
#25 = PRODUCT_CATEGORY( 'part', 'NONE' );
#26 = PRODUCT_RELATED_PRODUCT_CATEGORY( 'detail', ' ', ( #65 ) );
#27 = PRODUCT_DEFINITION_SHAPE( 'NONE', 'NONE', #66 );
#28 = ADVANCED_BREP_SHAPE_REPRESENTATION( '_K0141.04X15', ( #67, #68 ), #6 );
#31 = UNCERTAINTY_MEASURE_WITH_UNIT( LENGTH_MEASURE( 0.00100000000000000 ), #33, '', '' );
#33 =  ( CONVERSION_BASED_UNIT( 'MILLIMETRE', #71 )LENGTH_UNIT(  )NAMED_UNIT( #74 ) );
#34 =  ( NAMED_UNIT( #76 )PLANE_ANGLE_UNIT(  )SI_UNIT( $, .RADIAN. ) );
#35 =  ( NAMED_UNIT( #76 )SI_UNIT( $, .STERADIAN. )SOLID_ANGLE_UNIT(  ) );
#37 = PRESENTATION_STYLE_ASSIGNMENT( ( #82 ) );
#38 = ADVANCED_FACE( '', ( #83, #84 ), #85, .F. );
#39 = PRESENTATION_STYLE_ASSIGNMENT( ( #86 ) );
#40 = ADVANCED_FACE( '', ( #87, #88 ), #89, .F. );
#41 = PRESENTATION_STYLE_ASSIGNMENT( ( #90 ) );
#42 = ADVANCED_FACE( '', ( #91, #92 ), #93, .T. );
#43 = PRESENTATION_STYLE_ASSIGNMENT( ( #94 ) );
#44 = ADVANCED_FACE( '', ( #95, #96 ), #97, .T. );
#45 = PRESENTATION_STYLE_ASSIGNMENT( ( #98 ) );
#46 = ADVANCED_FACE( '', ( #99, #100 ), #101, .T. );
#47 = PRESENTATION_STYLE_ASSIGNMENT( ( #102 ) );
#48 = ADVANCED_FACE( '', ( #103, #104 ), #105, .T. );
#49 = PRESENTATION_STYLE_ASSIGNMENT( ( #106 ) );
#50 = ADVANCED_FACE( '', ( #107, #108 ), #109, .F. );
#51 = PRESENTATION_STYLE_ASSIGNMENT( ( #110 ) );
#52 = ADVANCED_FACE( '', ( #111, #112 ), #113, .T. );
#53 = PRESENTATION_STYLE_ASSIGNMENT( ( #114 ) );
#54 = ADVANCED_FACE( '', ( #115, #116 ), #117, .T. );
#55 = PRESENTATION_STYLE_ASSIGNMENT( ( #118 ) );
#56 = ADVANCED_FACE( '', ( #119, #120 ), #121, .T. );
#57 = PRESENTATION_STYLE_ASSIGNMENT( ( #122 ) );
#58 = ADVANCED_FACE( '', ( #123, #124 ), #125, .F. );
#59 = PRESENTATION_STYLE_ASSIGNMENT( ( #126 ) );
#60 = ADVANCED_FACE( '', ( #127, #128 ), #129, .F. );
#61 = PRESENTATION_STYLE_ASSIGNMENT( ( #130 ) );
#62 = ADVANCED_FACE( '', ( #131 ), #132, .F. );
#63 = PRESENTATION_STYLE_ASSIGNMENT( ( #133 ) );
#64 = ADVANCED_FACE( '', ( #134 ), #135, .F. );
#65 = PRODUCT( '_K0141.04X15', '_K0141.04X15', 'PART-_K0141.04X15-DESC', ( #136 ) );
#66 = PRODUCT_DEFINITION( 'NONE', 'NONE', #137, #2 );
#67 = MANIFOLD_SOLID_BREP( '_K0141.04X15', #138 );
#68 = AXIS2_PLACEMENT_3D( '', #139, #140, #141 );
#71 = LENGTH_MEASURE_WITH_UNIT( LENGTH_MEASURE( 1.00000000000000 ), #142 );
#74 = DIMENSIONAL_EXPONENTS( 1.00000000000000, 0.000000000000000, 0.000000000000000, 0.000000000000000, 0.000000000000000, 0.000000000000000, 0.000000000000000 );
#76 = DIMENSIONAL_EXPONENTS( 0.000000000000000, 0.000000000000000, 0.000000000000000, 0.000000000000000, 0.000000000000000, 0.000000000000000, 0.000000000000000 );
#82 = SURFACE_STYLE_USAGE( .BOTH., #143 );
#83 = FACE_OUTER_BOUND( '', #144, .T. );
#84 = FACE_OUTER_BOUND( '', #145, .T. );
#85 = TOROIDAL_SURFACE( '', #146, 2.75468750000000, 1.35468750000000 );
#86 = SURFACE_STYLE_USAGE( .BOTH., #147 );
#87 = FACE_OUTER_BOUND( '', #148, .T. );
#88 = FACE_BOUND( '', #149, .T. );
#89 = CONICAL_SURFACE( '', #150, 5.00000000000000, 0.523598775600000 );
#90 = SURFACE_STYLE_USAGE( .BOTH., #151 );
#91 = FACE_OUTER_BOUND( '', #152, .T. );
#92 = FACE_OUTER_BOUND( '', #153, .T. );
#93 = CYLINDRICAL_SURFACE( '', #154, 3.50000000000000 );
#94 = SURFACE_STYLE_USAGE( .BOTH., #155 );
#95 = FACE_OUTER_BOUND( '', #156, .T. );
#96 = FACE_OUTER_BOUND( '', #157, .T. );
#97 = CYLINDRICAL_SURFACE( '', #158, 2.00000000000000 );
#98 = SURFACE_STYLE_USAGE( .BOTH., #159 );
#99 = FACE_BOUND( '', #160, .T. );
#100 = FACE_OUTER_BOUND( '', #161, .T. );
#101 = CONICAL_SURFACE( '', #162, 9.00000000000000, 1.22173047640000 );
#102 = SURFACE_STYLE_USAGE( .BOTH., #163 );
#103 = FACE_OUTER_BOUND( '', #164, .T. );
#104 = FACE_OUTER_BOUND( '', #165, .T. );
#105 = TOROIDAL_SURFACE( '', #166, 8.20000000000000, 0.800000000000000 );
#106 = SURFACE_STYLE_USAGE( .BOTH., #167 );
#107 = FACE_BOUND( '', #168, .T. );
#108 = FACE_OUTER_BOUND( '', #169, .T. );
#109 = PLANE( '', #170 );
#110 = SURFACE_STYLE_USAGE( .BOTH., #171 );
#111 = FACE_BOUND( '', #172, .T. );
#112 = FACE_OUTER_BOUND( '', #173, .T. );
#113 = CONICAL_SURFACE( '', #174, 2.00000000000000, 0.785398163400000 );
#114 = SURFACE_STYLE_USAGE( .BOTH., #175 );
#115 = FACE_OUTER_BOUND( '', #176, .T. );
#116 = FACE_OUTER_BOUND( '', #177, .T. );
#117 = CYLINDRICAL_SURFACE( '', #178, 9.00000000000000 );
#118 = SURFACE_STYLE_USAGE( .BOTH., #179 );
#119 = FACE_OUTER_BOUND( '', #180, .T. );
#120 = FACE_OUTER_BOUND( '', #181, .T. );
#121 = CYLINDRICAL_SURFACE( '', #182, 5.00000000000000 );
#122 = SURFACE_STYLE_USAGE( .BOTH., #183 );
#123 = FACE_BOUND( '', #184, .T. );
#124 = FACE_OUTER_BOUND( '', #185, .T. );
#125 = PLANE( '', #186 );
#126 = SURFACE_STYLE_USAGE( .BOTH., #187 );
#127 = FACE_OUTER_BOUND( '', #188, .T. );
#128 = FACE_BOUND( '', #189, .T. );
#129 = PLANE( '', #190 );
#130 = SURFACE_STYLE_USAGE( .BOTH., #191 );
#131 = FACE_OUTER_BOUND( '', #192, .T. );
#132 = PLANE( '', #193 );
#133 = SURFACE_STYLE_USAGE( .BOTH., #194 );
#134 = FACE_OUTER_BOUND( '', #195, .T. );
#135 = PLANE( '', #196 );
#136 = PRODUCT_CONTEXT( '', #24, 'mechanical' );
#137 = PRODUCT_DEFINITION_FORMATION_WITH_SPECIFIED_SOURCE( ' ', 'NONE', #65, .NOT_KNOWN. );
#138 = CLOSED_SHELL( '', ( #52, #44, #38, #58, #42, #50, #56, #46, #54, #48, #60, #62, #40, #64 ) );
#139 = CARTESIAN_POINT( '', ( 0.000000000000000, 0.000000000000000, 0.000000000000000 ) );
#140 = DIRECTION( '', ( 0.000000000000000, 0.000000000000000, 1.00000000000000 ) );
#141 = DIRECTION( '', ( 1.00000000000000, 0.000000000000000, 0.000000000000000 ) );
#142 =  ( LENGTH_UNIT(  )NAMED_UNIT( #74 )SI_UNIT( .MILLI., .METRE. ) );
#143 = SURFACE_SIDE_STYLE( '', ( #198 ) );
#144 = EDGE_LOOP( '', ( #199 ) );
#145 = EDGE_LOOP( '', ( #200 ) );
#146 = AXIS2_PLACEMENT_3D( '', #201, #202, #203 );
#147 = SURFACE_SIDE_STYLE( '', ( #204 ) );
#148 = EDGE_LOOP( '', ( #205 ) );
#149 = EDGE_LOOP( '', ( #206 ) );
#150 = AXIS2_PLACEMENT_3D( '', #207, #208, #209 );
#151 = SURFACE_SIDE_STYLE( '', ( #210 ) );
#152 = EDGE_LOOP( '', ( #211 ) );
#153 = EDGE_LOOP( '', ( #212 ) );
#154 = AXIS2_PLACEMENT_3D( '', #213, #214, #215 );
#155 = SURFACE_SIDE_STYLE( '', ( #216 ) );
#156 = EDGE_LOOP( '', ( #217 ) );
#157 = EDGE_LOOP( '', ( #218 ) );
#158 = AXIS2_PLACEMENT_3D( '', #219, #220, #221 );
#159 = SURFACE_SIDE_STYLE( '', ( #222 ) );
#160 = EDGE_LOOP( '', ( #223 ) );
#161 = EDGE_LOOP( '', ( #224 ) );
#162 = AXIS2_PLACEMENT_3D( '', #225, #226, #227 );
#163 = SURFACE_SIDE_STYLE( '', ( #228 ) );
#164 = EDGE_LOOP( '', ( #229 ) );
#165 = EDGE_LOOP( '', ( #230 ) );
#166 = AXIS2_PLACEMENT_3D( '', #231, #232, #233 );
#167 = SURFACE_SIDE_STYLE( '', ( #234 ) );
#168 = EDGE_LOOP( '', ( #235 ) );
#169 = EDGE_LOOP( '', ( #236 ) );
#170 = AXIS2_PLACEMENT_3D( '', #237, #238, #239 );
#171 = SURFACE_SIDE_STYLE( '', ( #240 ) );
#172 = EDGE_LOOP( '', ( #241 ) );
#173 = EDGE_LOOP( '', ( #242 ) );
#174 = AXIS2_PLACEMENT_3D( '', #243, #244, #245 );
#175 = SURFACE_SIDE_STYLE( '', ( #246 ) );
#176 = EDGE_LOOP( '', ( #247 ) );
#177 = EDGE_LOOP( '', ( #248 ) );
#178 = AXIS2_PLACEMENT_3D( '', #249, #250, #251 );
#179 = SURFACE_SIDE_STYLE( '', ( #252 ) );
#180 = EDGE_LOOP( '', ( #253 ) );
#181 = EDGE_LOOP( '', ( #254 ) );
#182 = AXIS2_PLACEMENT_3D( '', #255, #256, #257 );
#183 = SURFACE_SIDE_STYLE( '', ( #258 ) );
#184 = EDGE_LOOP( '', ( #259 ) );
#185 = EDGE_LOOP( '', ( #260 ) );
#186 = AXIS2_PLACEMENT_3D( '', #261, #262, #263 );
#187 = SURFACE_SIDE_STYLE( '', ( #264 ) );
#188 = EDGE_LOOP( '', ( #265 ) );
#189 = EDGE_LOOP( '', ( #266 ) );
#190 = AXIS2_PLACEMENT_3D( '', #267, #268, #269 );
#191 = SURFACE_SIDE_STYLE( '', ( #270 ) );
#192 = EDGE_LOOP( '', ( #271 ) );
#193 = AXIS2_PLACEMENT_3D( '', #272, #273, #274 );
#194 = SURFACE_SIDE_STYLE( '', ( #275 ) );
#195 = EDGE_LOOP( '', ( #276 ) );
#196 = AXIS2_PLACEMENT_3D( '', #277, #278, #279 );
#198 = SURFACE_STYLE_FILL_AREA( #280 );
#199 = ORIENTED_EDGE( '', *, *, #281, .F. );
#200 = ORIENTED_EDGE( '', *, *, #282, .T. );
#201 = CARTESIAN_POINT( '', ( 14.6350000000000, 0.000000000000000, 0.000000000000000 ) );
#202 = DIRECTION( '', ( 1.00000000000000, 0.000000000000000, -0.000000000000000 ) );
#203 = DIRECTION( '', ( -0.000000000000000, 0.000000000000000, -1.00000000000000 ) );
#204 = SURFACE_STYLE_FILL_AREA( #283 );
#205 = ORIENTED_EDGE( '', *, *, #284, .F. );
#206 = ORIENTED_EDGE( '', *, *, #285, .T. );
#207 = CARTESIAN_POINT( '', ( 4.50000000000000, 0.000000000000000, 0.000000000000000 ) );
#208 = DIRECTION( '', ( -1.00000000000000, 0.000000000000000, -0.000000000000000 ) );
#209 = DIRECTION( '', ( 0.000000000000000, 0.000000000000000, 1.00000000000000 ) );
#210 = SURFACE_STYLE_FILL_AREA( #286 );
#211 = ORIENTED_EDGE( '', *, *, #287, .F. );
#212 = ORIENTED_EDGE( '', *, *, #288, .T. );
#213 = CARTESIAN_POINT( '', ( 28.5100000000000, 0.000000000000000, 0.000000000000000 ) );
#214 = DIRECTION( '', ( -1.00000000000000, -0.000000000000000, 0.000000000000000 ) );
#215 = DIRECTION( '', ( -0.000000000000000, 0.000000000000000, -1.00000000000000 ) );
#216 = SURFACE_STYLE_FILL_AREA( #289 );
#217 = ORIENTED_EDGE( '', *, *, #290, .F. );
#218 = ORIENTED_EDGE( '', *, *, #281, .T. );
#219 = CARTESIAN_POINT( '', ( 28.5100000000000, 0.000000000000000, 0.000000000000000 ) );
#220 = DIRECTION( '', ( -1.00000000000000, -0.000000000000000, 0.000000000000000 ) );
#221 = DIRECTION( '', ( -0.000000000000000, 0.000000000000000, -1.00000000000000 ) );
#222 = SURFACE_STYLE_FILL_AREA( #291 );
#223 = ORIENTED_EDGE( '', *, *, #292, .F. );
#224 = ORIENTED_EDGE( '', *, *, #293, .T. );
#225 = CARTESIAN_POINT( '', ( 8.00000000000000, 0.000000000000000, 0.000000000000000 ) );
#226 = DIRECTION( '', ( -1.00000000000000, 0.000000000000000, -0.000000000000000 ) );
#227 = DIRECTION( '', ( 0.000000000000000, 0.000000000000000, 1.00000000000000 ) );
#228 = SURFACE_STYLE_FILL_AREA( #294 );
#229 = ORIENTED_EDGE( '', *, *, #295, .T. );
#230 = ORIENTED_EDGE( '', *, *, #296, .F. );
#231 = CARTESIAN_POINT( '', ( 0.800000000000002, 0.000000000000000, 0.000000000000000 ) );
#232 = DIRECTION( '', ( 1.00000000000000, 0.000000000000000, -0.000000000000000 ) );
#233 = DIRECTION( '', ( -0.000000000000000, 0.000000000000000, -1.00000000000000 ) );
#234 = SURFACE_STYLE_FILL_AREA( #297 );
#235 = ORIENTED_EDGE( '', *, *, #288, .F. );
#236 = ORIENTED_EDGE( '', *, *, #298, .T. );
#237 = CARTESIAN_POINT( '', ( 13.0100000000000, 5.00000000000000, 0.000000000000000 ) );
#238 = DIRECTION( '', ( -1.00000000000000, 0.000000000000000, 0.000000000000000 ) );
#239 = DIRECTION( '', ( 0.000000000000000, 0.000000000000000, 1.00000000000000 ) );
#240 = SURFACE_STYLE_FILL_AREA( #299 );
#241 = ORIENTED_EDGE( '', *, *, #300, .F. );
#242 = ORIENTED_EDGE( '', *, *, #290, .T. );
#243 = CARTESIAN_POINT( '', ( 28.0805000000000, 0.000000000000000, 0.000000000000000 ) );
#244 = DIRECTION( '', ( -1.00000000000000, 0.000000000000000, -0.000000000000000 ) );
#245 = DIRECTION( '', ( 0.000000000000000, 0.000000000000000, 1.00000000000000 ) );
#246 = SURFACE_STYLE_FILL_AREA( #301 );
#247 = ORIENTED_EDGE( '', *, *, #293, .F. );
#248 = ORIENTED_EDGE( '', *, *, #296, .T. );
#249 = CARTESIAN_POINT( '', ( 28.5100000000000, 0.000000000000000, 0.000000000000000 ) );
#250 = DIRECTION( '', ( -1.00000000000000, -0.000000000000000, 0.000000000000000 ) );
#251 = DIRECTION( '', ( -0.000000000000000, 0.000000000000000, -1.00000000000000 ) );
#252 = SURFACE_STYLE_FILL_AREA( #302 );
#253 = ORIENTED_EDGE( '', *, *, #298, .F. );
#254 = ORIENTED_EDGE( '', *, *, #292, .T. );
#255 = CARTESIAN_POINT( '', ( 28.5100000000000, 0.000000000000000, 0.000000000000000 ) );
#256 = DIRECTION( '', ( -1.00000000000000, -0.000000000000000, 0.000000000000000 ) );
#257 = DIRECTION( '', ( -0.000000000000000, 0.000000000000000, -1.00000000000000 ) );
#258 = SURFACE_STYLE_FILL_AREA( #303 );
#259 = ORIENTED_EDGE( '', *, *, #282, .F. );
#260 = ORIENTED_EDGE( '', *, *, #287, .T. );
#261 = CARTESIAN_POINT( '', ( 13.5100000000000, 3.50000000000000, 0.000000000000000 ) );
#262 = DIRECTION( '', ( -1.00000000000000, 0.000000000000000, 0.000000000000000 ) );
#263 = DIRECTION( '', ( 0.000000000000000, 0.000000000000000, 1.00000000000000 ) );
#264 = SURFACE_STYLE_FILL_AREA( #304 );
#265 = ORIENTED_EDGE( '', *, *, #295, .F. );
#266 = ORIENTED_EDGE( '', *, *, #284, .T. );
#267 = CARTESIAN_POINT( '', ( 0.000000000000000, 7.59807621135331, 0.000000000000000 ) );
#268 = DIRECTION( '', ( 1.00000000000000, 0.000000000000000, -0.000000000000000 ) );
#269 = DIRECTION( '', ( -0.000000000000000, 0.000000000000000, -1.00000000000000 ) );
#270 = SURFACE_STYLE_FILL_AREA( #305 );
#271 = ORIENTED_EDGE( '', *, *, #285, .F. );
#272 = CARTESIAN_POINT( '', ( 4.50000000000000, 0.000000000000000, 0.000000000000000 ) );
#273 = DIRECTION( '', ( 1.00000000000000, 0.000000000000000, -0.000000000000000 ) );
#274 = DIRECTION( '', ( -0.000000000000000, 0.000000000000000, -1.00000000000000 ) );
#275 = SURFACE_STYLE_FILL_AREA( #306 );
#276 = ORIENTED_EDGE( '', *, *, #300, .T. );
#277 = CARTESIAN_POINT( '', ( 28.5100000000000, 1.57050000000000, 0.000000000000000 ) );
#278 = DIRECTION( '', ( -1.00000000000000, 0.000000000000000, 0.000000000000000 ) );
#279 = DIRECTION( '', ( 0.000000000000000, 0.000000000000000, 1.00000000000000 ) );
#280 = FILL_AREA_STYLE( '', ( #307 ) );
#281 = EDGE_CURVE( '', #308, #308, #309, .T. );
#282 = EDGE_CURVE( '', #310, #310, #311, .T. );
#283 = FILL_AREA_STYLE( '', ( #312 ) );
#284 = EDGE_CURVE( '', #313, #313, #314, .T. );
#285 = EDGE_CURVE( '', #315, #315, #316, .T. );
#286 = FILL_AREA_STYLE( '', ( #317 ) );
#287 = EDGE_CURVE( '', #318, #318, #319, .T. );
#288 = EDGE_CURVE( '', #320, #320, #321, .T. );
#289 = FILL_AREA_STYLE( '', ( #322 ) );
#290 = EDGE_CURVE( '', #323, #323, #324, .T. );
#291 = FILL_AREA_STYLE( '', ( #325 ) );
#292 = EDGE_CURVE( '', #326, #326, #327, .T. );
#293 = EDGE_CURVE( '', #328, #328, #329, .T. );
#294 = FILL_AREA_STYLE( '', ( #330 ) );
#295 = EDGE_CURVE( '', #331, #331, #332, .T. );
#296 = EDGE_CURVE( '', #333, #333, #334, .T. );
#297 = FILL_AREA_STYLE( '', ( #335 ) );
#298 = EDGE_CURVE( '', #336, #336, #337, .T. );
#299 = FILL_AREA_STYLE( '', ( #338 ) );
#300 = EDGE_CURVE( '', #339, #339, #340, .T. );
#301 = FILL_AREA_STYLE( '', ( #341 ) );
#302 = FILL_AREA_STYLE( '', ( #342 ) );
#303 = FILL_AREA_STYLE( '', ( #343 ) );
#304 = FILL_AREA_STYLE( '', ( #344 ) );
#305 = FILL_AREA_STYLE( '', ( #345 ) );
#306 = FILL_AREA_STYLE( '', ( #346 ) );
#307 = FILL_AREA_STYLE_COLOUR( '', #347 );
#308 = VERTEX_POINT( '', #348 );
#309 = CIRCLE( '', #349, 2.00000000000000 );
#310 = VERTEX_POINT( '', #350 );
#311 = CIRCLE( '', #351, 2.00000000000000 );
#312 = FILL_AREA_STYLE_COLOUR( '', #352 );
#313 = VERTEX_POINT( '', #353 );
#314 = CIRCLE( '', #354, 7.59807621140000 );
#315 = VERTEX_POINT( '', #355 );
#316 = CIRCLE( '', #356, 5.00000000000000 );
#317 = FILL_AREA_STYLE_COLOUR( '', #357 );
#318 = VERTEX_POINT( '', #358 );
#319 = CIRCLE( '', #359, 3.50000000000000 );
#320 = VERTEX_POINT( '', #360 );
#321 = CIRCLE( '', #361, 3.50000000000000 );
#322 = FILL_AREA_STYLE_COLOUR( '', #362 );
#323 = VERTEX_POINT( '', #363 );
#324 = CIRCLE( '', #364, 2.00000000000000 );
#325 = FILL_AREA_STYLE_COLOUR( '', #365 );
#326 = VERTEX_POINT( '', #366 );
#327 = CIRCLE( '', #367, 5.00000000000000 );
#328 = VERTEX_POINT( '', #368 );
#329 = CIRCLE( '', #369, 9.00000000000000 );
#330 = FILL_AREA_STYLE_COLOUR( '', #370 );
#331 = VERTEX_POINT( '', #371 );
#332 = CIRCLE( '', #372, 8.20000000000000 );
#333 = VERTEX_POINT( '', #373 );
#334 = CIRCLE( '', #374, 9.00000000000000 );
#335 = FILL_AREA_STYLE_COLOUR( '', #375 );
#336 = VERTEX_POINT( '', #376 );
#337 = CIRCLE( '', #377, 5.00000000000000 );
#338 = FILL_AREA_STYLE_COLOUR( '', #378 );
#339 = VERTEX_POINT( '', #379 );
#340 = CIRCLE( '', #380, 1.57050000000000 );
#341 = FILL_AREA_STYLE_COLOUR( '', #381 );
#342 = FILL_AREA_STYLE_COLOUR( '', #382 );
#343 = FILL_AREA_STYLE_COLOUR( '', #383 );
#344 = FILL_AREA_STYLE_COLOUR( '', #384 );
#345 = FILL_AREA_STYLE_COLOUR( '', #385 );
#346 = FILL_AREA_STYLE_COLOUR( '', #386 );
#347 = COLOUR_RGB( '', 0.689999997600000, 0.689999997600000, 0.689999997600000 );
#348 = CARTESIAN_POINT( '', ( 15.7600000000000, 0.000000000000000, -2.00000000000000 ) );
#349 = AXIS2_PLACEMENT_3D( '', #387, #388, #389 );
#350 = CARTESIAN_POINT( '', ( 13.5100000000000, 0.000000000000000, -2.00000000000000 ) );
#351 = AXIS2_PLACEMENT_3D( '', #390, #391, #392 );
#352 = COLOUR_RGB( '', 0.689999997600000, 0.689999997600000, 0.689999997600000 );
#353 = CARTESIAN_POINT( '', ( 0.000000000000000, 0.000000000000000, -7.59807621135331 ) );
#354 = AXIS2_PLACEMENT_3D( '', #393, #394, #395 );
#355 = CARTESIAN_POINT( '', ( 4.50000000000000, 0.000000000000000, -5.00000000000000 ) );
#356 = AXIS2_PLACEMENT_3D( '', #396, #397, #398 );
#357 = COLOUR_RGB( '', 0.689999997600000, 0.689999997600000, 0.689999997600000 );
#358 = CARTESIAN_POINT( '', ( 13.5100000000000, 0.000000000000000, -3.50000000000000 ) );
#359 = AXIS2_PLACEMENT_3D( '', #399, #400, #401 );
#360 = CARTESIAN_POINT( '', ( 13.0100000000000, 0.000000000000000, -3.50000000000000 ) );
#361 = AXIS2_PLACEMENT_3D( '', #402, #403, #404 );
#362 = COLOUR_RGB( '', 0.689999997600000, 0.689999997600000, 0.689999997600000 );
#363 = CARTESIAN_POINT( '', ( 28.0805000000000, 0.000000000000000, -2.00000000000000 ) );
#364 = AXIS2_PLACEMENT_3D( '', #405, #406, #407 );
#365 = COLOUR_RGB( '', 0.689999997600000, 0.689999997600000, 0.689999997600000 );
#366 = CARTESIAN_POINT( '', ( 9.45588093706481, 0.000000000000000, -5.00000000000000 ) );
#367 = AXIS2_PLACEMENT_3D( '', #408, #409, #410 );
#368 = CARTESIAN_POINT( '', ( 8.00000000000000, 0.000000000000000, -9.00000000000000 ) );
#369 = AXIS2_PLACEMENT_3D( '', #411, #412, #413 );
#370 = COLOUR_RGB( '', 0.689999997600000, 0.689999997600000, 0.689999997600000 );
#371 = CARTESIAN_POINT( '', ( 0.000000000000000, 0.000000000000000, -8.20000000000000 ) );
#372 = AXIS2_PLACEMENT_3D( '', #414, #415, #416 );
#373 = CARTESIAN_POINT( '', ( 0.799999999999999, 0.000000000000000, -9.00000000000000 ) );
#374 = AXIS2_PLACEMENT_3D( '', #417, #418, #419 );
#375 = COLOUR_RGB( '', 0.689999997600000, 0.689999997600000, 0.689999997600000 );
#376 = CARTESIAN_POINT( '', ( 13.0100000000000, 0.000000000000000, -5.00000000000000 ) );
#377 = AXIS2_PLACEMENT_3D( '', #420, #421, #422 );
#378 = COLOUR_RGB( '', 0.689999997600000, 0.689999997600000, 0.689999997600000 );
#379 = CARTESIAN_POINT( '', ( 28.5100000000000, 0.000000000000000, -1.57050000000000 ) );
#380 = AXIS2_PLACEMENT_3D( '', #423, #424, #425 );
#381 = COLOUR_RGB( '', 0.689999997600000, 0.689999997600000, 0.689999997600000 );
#382 = COLOUR_RGB( '', 0.689999997600000, 0.689999997600000, 0.689999997600000 );
#383 = COLOUR_RGB( '', 0.689999997600000, 0.689999997600000, 0.689999997600000 );
#384 = COLOUR_RGB( '', 0.689999997600000, 0.689999997600000, 0.689999997600000 );
#385 = COLOUR_RGB( '', 0.689999997600000, 0.689999997600000, 0.689999997600000 );
#386 = COLOUR_RGB( '', 0.689999997600000, 0.689999997600000, 0.689999997600000 );
#387 = CARTESIAN_POINT( '', ( 15.7600000000000, 0.000000000000000, 0.000000000000000 ) );
#388 = DIRECTION( '', ( 1.00000000000000, 0.000000000000000, -0.000000000000000 ) );
#389 = DIRECTION( '', ( -0.000000000000000, 0.000000000000000, -1.00000000000000 ) );
#390 = CARTESIAN_POINT( '', ( 13.5100000000000, 0.000000000000000, 0.000000000000000 ) );
#391 = DIRECTION( '', ( 1.00000000000000, 0.000000000000000, -0.000000000000000 ) );
#392 = DIRECTION( '', ( -0.000000000000000, 0.000000000000000, -1.00000000000000 ) );
#393 = CARTESIAN_POINT( '', ( 0.000000000000000, 0.000000000000000, 0.000000000000000 ) );
#394 = DIRECTION( '', ( 1.00000000000000, 0.000000000000000, -0.000000000000000 ) );
#395 = DIRECTION( '', ( -0.000000000000000, 0.000000000000000, -1.00000000000000 ) );
#396 = CARTESIAN_POINT( '', ( 4.50000000000000, 0.000000000000000, 0.000000000000000 ) );
#397 = DIRECTION( '', ( 1.00000000000000, 0.000000000000000, -0.000000000000000 ) );
#398 = DIRECTION( '', ( -0.000000000000000, 0.000000000000000, -1.00000000000000 ) );
#399 = CARTESIAN_POINT( '', ( 13.5100000000000, 0.000000000000000, 0.000000000000000 ) );
#400 = DIRECTION( '', ( 1.00000000000000, 0.000000000000000, -0.000000000000000 ) );
#401 = DIRECTION( '', ( -0.000000000000000, 0.000000000000000, -1.00000000000000 ) );
#402 = CARTESIAN_POINT( '', ( 13.0100000000000, 0.000000000000000, 0.000000000000000 ) );
#403 = DIRECTION( '', ( 1.00000000000000, 0.000000000000000, -0.000000000000000 ) );
#404 = DIRECTION( '', ( -0.000000000000000, 0.000000000000000, -1.00000000000000 ) );
#405 = CARTESIAN_POINT( '', ( 28.0805000000000, 0.000000000000000, 0.000000000000000 ) );
#406 = DIRECTION( '', ( 1.00000000000000, 0.000000000000000, -0.000000000000000 ) );
#407 = DIRECTION( '', ( -0.000000000000000, 0.000000000000000, -1.00000000000000 ) );
#408 = CARTESIAN_POINT( '', ( 9.45588093706481, 0.000000000000000, 0.000000000000000 ) );
#409 = DIRECTION( '', ( 1.00000000000000, 0.000000000000000, -0.000000000000000 ) );
#410 = DIRECTION( '', ( -0.000000000000000, 0.000000000000000, -1.00000000000000 ) );
#411 = CARTESIAN_POINT( '', ( 8.00000000000000, 0.000000000000000, 0.000000000000000 ) );
#412 = DIRECTION( '', ( 1.00000000000000, 0.000000000000000, -0.000000000000000 ) );
#413 = DIRECTION( '', ( -0.000000000000000, 0.000000000000000, -1.00000000000000 ) );
#414 = CARTESIAN_POINT( '', ( 0.000000000000000, 0.000000000000000, 0.000000000000000 ) );
#415 = DIRECTION( '', ( 1.00000000000000, 0.000000000000000, -0.000000000000000 ) );
#416 = DIRECTION( '', ( -0.000000000000000, 0.000000000000000, -1.00000000000000 ) );
#417 = CARTESIAN_POINT( '', ( 0.799999999999999, 0.000000000000000, 0.000000000000000 ) );
#418 = DIRECTION( '', ( 1.00000000000000, 0.000000000000000, -0.000000000000000 ) );
#419 = DIRECTION( '', ( -0.000000000000000, 0.000000000000000, -1.00000000000000 ) );
#420 = CARTESIAN_POINT( '', ( 13.0100000000000, 0.000000000000000, 0.000000000000000 ) );
#421 = DIRECTION( '', ( 1.00000000000000, 0.000000000000000, -0.000000000000000 ) );
#422 = DIRECTION( '', ( -0.000000000000000, 0.000000000000000, -1.00000000000000 ) );
#423 = CARTESIAN_POINT( '', ( 28.5100000000000, 0.000000000000000, 0.000000000000000 ) );
#424 = DIRECTION( '', ( 1.00000000000000, 0.000000000000000, -0.000000000000000 ) );
#425 = DIRECTION( '', ( -0.000000000000000, 0.000000000000000, -1.00000000000000 ) );
ENDSEC;
END-ISO-10303-21;
