ISO-10303-21;
HEADER;
FILE_DESCRIPTION( ( 'STEP AP214' ), '1' );
FILE_NAME( '//goodhand-server/Shared Folders/GoodHand Data/Kipp CAD/K0170/K0170.105007.stp', '2020-11-26T10:50:24', ( '' ), ( '' ), ' ', 'PARTsolutions', ' ' );
FILE_SCHEMA( ( 'AUTOMOTIVE_DESIGN { 1 0 10303 214 1 1 1 1 }' ) );
ENDSEC;
DATA;
#1 = MECHANICAL_DESIGN_GEOMETRIC_PRESENTATION_REPRESENTATION( ' ', ( #10, #11, #12, #13, #14, #15, #16, #17, #18, #19, #20, #21, #22 ), #6 );
#2 = PRODUCT_DEFINITION_CONTEXT( '', #23, 'design' );
#3 = APPLICATION_PROTOCOL_DEFINITION( 'international standard', 'automotive_design', 2001, #23 );
#4 = PRODUCT_CATEGORY_RELATIONSHIP( 'NONE', 'NONE', #24, #25 );
#5 = SHAPE_DEFINITION_REPRESENTATION( #26, #27 );
#6 =  ( GEOMETRIC_REPRESENTATION_CONTEXT( 3 )GLOBAL_UNCERTAINTY_ASSIGNED_CONTEXT( ( #30 ) )GLOBAL_UNIT_ASSIGNED_CONTEXT( ( #32, #33, #34 ) )REPRESENTATION_CONTEXT( 'NONE', 'WORKSPACE' ) );
#10 = STYLED_ITEM( '', ( #36 ), #37 );
#11 = STYLED_ITEM( '', ( #38 ), #39 );
#12 = STYLED_ITEM( '', ( #40 ), #41 );
#13 = STYLED_ITEM( '', ( #42 ), #43 );
#14 = STYLED_ITEM( '', ( #44 ), #45 );
#15 = STYLED_ITEM( '', ( #46 ), #47 );
#16 = STYLED_ITEM( '', ( #48 ), #49 );
#17 = STYLED_ITEM( '', ( #50 ), #51 );
#18 = STYLED_ITEM( '', ( #52 ), #53 );
#19 = STYLED_ITEM( '', ( #54 ), #55 );
#20 = STYLED_ITEM( '', ( #56 ), #57 );
#21 = STYLED_ITEM( '', ( #58 ), #59 );
#22 = STYLED_ITEM( '', ( #60 ), #61 );
#23 = APPLICATION_CONTEXT( 'core data for automotive mechanical design processes' );
#24 = PRODUCT_CATEGORY( 'part', 'NONE' );
#25 = PRODUCT_RELATED_PRODUCT_CATEGORY( 'detail', ' ', ( #62 ) );
#26 = PRODUCT_DEFINITION_SHAPE( 'NONE', 'NONE', #63 );
#27 = ADVANCED_BREP_SHAPE_REPRESENTATION( '_K0170.105007', ( #64, #65 ), #6 );
#30 = UNCERTAINTY_MEASURE_WITH_UNIT( LENGTH_MEASURE( 0.00100000000000000 ), #32, '', '' );
#32 =  ( CONVERSION_BASED_UNIT( 'MILLIMETRE', #68 )LENGTH_UNIT(  )NAMED_UNIT( #71 ) );
#33 =  ( NAMED_UNIT( #73 )PLANE_ANGLE_UNIT(  )SI_UNIT( $, .RADIAN. ) );
#34 =  ( NAMED_UNIT( #73 )SI_UNIT( $, .STERADIAN. )SOLID_ANGLE_UNIT(  ) );
#36 = PRESENTATION_STYLE_ASSIGNMENT( ( #79 ) );
#37 = ADVANCED_FACE( '', ( #80 ), #81, .F. );
#38 = PRESENTATION_STYLE_ASSIGNMENT( ( #82 ) );
#39 = ADVANCED_FACE( '', ( #83, #84 ), #85, .T. );
#40 = PRESENTATION_STYLE_ASSIGNMENT( ( #86 ) );
#41 = ADVANCED_FACE( '', ( #87, #88 ), #89, .T. );
#42 = PRESENTATION_STYLE_ASSIGNMENT( ( #90 ) );
#43 = ADVANCED_FACE( '', ( #91 ), #92, .T. );
#44 = PRESENTATION_STYLE_ASSIGNMENT( ( #93 ) );
#45 = ADVANCED_FACE( '', ( #94, #95 ), #96, .T. );
#46 = PRESENTATION_STYLE_ASSIGNMENT( ( #97 ) );
#47 = ADVANCED_FACE( '', ( #98, #99 ), #100, .T. );
#48 = PRESENTATION_STYLE_ASSIGNMENT( ( #101 ) );
#49 = ADVANCED_FACE( '', ( #102, #103 ), #104, .T. );
#50 = PRESENTATION_STYLE_ASSIGNMENT( ( #105 ) );
#51 = ADVANCED_FACE( '', ( #106 ), #107, .T. );
#52 = PRESENTATION_STYLE_ASSIGNMENT( ( #108 ) );
#53 = ADVANCED_FACE( '', ( #109 ), #110, .F. );
#54 = PRESENTATION_STYLE_ASSIGNMENT( ( #111 ) );
#55 = ADVANCED_FACE( '', ( #112 ), #113, .F. );
#56 = PRESENTATION_STYLE_ASSIGNMENT( ( #114 ) );
#57 = ADVANCED_FACE( '', ( #115, #116 ), #117, .T. );
#58 = PRESENTATION_STYLE_ASSIGNMENT( ( #118 ) );
#59 = ADVANCED_FACE( '', ( #119, #120 ), #121, .T. );
#60 = PRESENTATION_STYLE_ASSIGNMENT( ( #122 ) );
#61 = ADVANCED_FACE( '', ( #123, #124 ), #125, .F. );
#62 = PRODUCT( '_K0170.105007', '_K0170.105007', 'PART-_K0170.105007-DESC', ( #126 ) );
#63 = PRODUCT_DEFINITION( 'NONE', 'NONE', #127, #2 );
#64 = MANIFOLD_SOLID_BREP( '_K0170.105007', #128 );
#65 = AXIS2_PLACEMENT_3D( '', #129, #130, #131 );
#68 = LENGTH_MEASURE_WITH_UNIT( LENGTH_MEASURE( 1.00000000000000 ), #132 );
#71 = DIMENSIONAL_EXPONENTS( 1.00000000000000, 0.000000000000000, 0.000000000000000, 0.000000000000000, 0.000000000000000, 0.000000000000000, 0.000000000000000 );
#73 = DIMENSIONAL_EXPONENTS( 0.000000000000000, 0.000000000000000, 0.000000000000000, 0.000000000000000, 0.000000000000000, 0.000000000000000, 0.000000000000000 );
#79 = SURFACE_STYLE_USAGE( .BOTH., #133 );
#80 = FACE_OUTER_BOUND( '', #134, .T. );
#81 = PLANE( '', #135 );
#82 = SURFACE_STYLE_USAGE( .BOTH., #136 );
#83 = FACE_OUTER_BOUND( '', #137, .T. );
#84 = FACE_BOUND( '', #138, .T. );
#85 = CONICAL_SURFACE( '', #139, 2.00950000000000, 0.785398163400000 );
#86 = SURFACE_STYLE_USAGE( .BOTH., #140 );
#87 = FACE_OUTER_BOUND( '', #141, .T. );
#88 = FACE_BOUND( '', #142, .T. );
#89 = CONICAL_SURFACE( '', #143, 7.50000000000000, 0.0433567600000000 );
#90 = SURFACE_STYLE_USAGE( .BOTH., #144 );
#91 = FACE_OUTER_BOUND( '', #145, .T. );
#92 = PLANE( '', #146 );
#93 = SURFACE_STYLE_USAGE( .BOTH., #147 );
#94 = FACE_OUTER_BOUND( '', #148, .T. );
#95 = FACE_OUTER_BOUND( '', #149, .T. );
#96 = TOROIDAL_SURFACE( '', #150, 5.50000000000000, 3.00000000000000 );
#97 = SURFACE_STYLE_USAGE( .BOTH., #151 );
#98 = FACE_OUTER_BOUND( '', #152, .T. );
#99 = FACE_OUTER_BOUND( '', #153, .T. );
#100 = CYLINDRICAL_SURFACE( '', #154, 2.50000000000000 );
#101 = SURFACE_STYLE_USAGE( .BOTH., #155 );
#102 = FACE_OUTER_BOUND( '', #156, .T. );
#103 = FACE_BOUND( '', #157, .T. );
#104 = ( BOUNDED_SURFACE(  )B_SPLINE_SURFACE( 3, 3, ( ( #160, #161, #162, #163, #164, #165, #166 ), ( #167, #168, #169, #170, #171, #172, #173 ), ( #174, #175, #176, #177, #178, #179, #180 ), ( #181, #182, #183, #184, #185, #186, #187 ) ), .UNSPECIFIED., .F., .T., .F. )B_SPLINE_SURFACE_WITH_KNOTS( ( 4, 4 ), ( 4, 3, 4 ), ( 0.000000000000000, 6.28318530717959 ), ( 1.16300745030023, 1.29957981603396, 1.43615218176768 ), .UNSPECIFIED. )GEOMETRIC_REPRESENTATION_ITEM(  )RATIONAL_B_SPLINE_SURFACE( ( ( 1.00000000000000, 0.333333333333333, 0.333333333333333, 1.00000000000000, 0.333333333333333, 0.333333333333333, 1.00000000000000 ), ( 0.993792320786237, 0.331264106928746, 0.331264106928746, 0.993792320786237, 0.331264106928746, 0.331264106928746, 0.993792320786237 ), ( 0.993792320786237, 0.331264106928746, 0.331264106928746, 0.993792320786237, 0.331264106928746, 0.331264106928746, 0.993792320786237 ), ( 1.00000000000000, 0.333333333333333, 0.333333333333333, 1.00000000000000, 0.333333333333333, 0.333333333333333, 1.00000000000000 ) ) )REPRESENTATION_ITEM( '' )SURFACE(  ) );
#105 = SURFACE_STYLE_USAGE( .BOTH., #193 );
#106 = FACE_OUTER_BOUND( '', #194, .T. );
#107 = PLANE( '', #195 );
#108 = SURFACE_STYLE_USAGE( .BOTH., #196 );
#109 = FACE_OUTER_BOUND( '', #197, .T. );
#110 = PLANE( '', #198 );
#111 = SURFACE_STYLE_USAGE( .BOTH., #199 );
#112 = FACE_OUTER_BOUND( '', #200, .T. );
#113 = PLANE( '', #201 );
#114 = SURFACE_STYLE_USAGE( .BOTH., #202 );
#115 = FACE_OUTER_BOUND( '', #203, .T. );
#116 = FACE_OUTER_BOUND( '', #204, .T. );
#117 = CYLINDRICAL_SURFACE( '', #205, 7.50000000000000 );
#118 = SURFACE_STYLE_USAGE( .BOTH., #206 );
#119 = FACE_OUTER_BOUND( '', #207, .T. );
#120 = FACE_OUTER_BOUND( '', #208, .T. );
#121 = CYLINDRICAL_SURFACE( '', #209, 8.50000000000000 );
#122 = SURFACE_STYLE_USAGE( .BOTH., #210 );
#123 = FACE_OUTER_BOUND( '', #211, .T. );
#124 = FACE_BOUND( '', #212, .T. );
#125 = PLANE( '', #213 );
#126 = PRODUCT_CONTEXT( '', #23, 'mechanical' );
#127 = PRODUCT_DEFINITION_FORMATION_WITH_SPECIFIED_SOURCE( ' ', 'NONE', #62, .NOT_KNOWN. );
#128 = CLOSED_SHELL( '', ( #55, #43, #51, #61, #57, #47, #39, #37, #41, #59, #45, #49, #53 ) );
#129 = CARTESIAN_POINT( '', ( 0.000000000000000, 0.000000000000000, 0.000000000000000 ) );
#130 = DIRECTION( '', ( 0.000000000000000, 0.000000000000000, 1.00000000000000 ) );
#131 = DIRECTION( '', ( 1.00000000000000, 0.000000000000000, 0.000000000000000 ) );
#132 =  ( LENGTH_UNIT(  )NAMED_UNIT( #71 )SI_UNIT( .MILLI., .METRE. ) );
#133 = SURFACE_SIDE_STYLE( '', ( #215 ) );
#134 = EDGE_LOOP( '', ( #216 ) );
#135 = AXIS2_PLACEMENT_3D( '', #217, #218, #219 );
#136 = SURFACE_SIDE_STYLE( '', ( #220 ) );
#137 = EDGE_LOOP( '', ( #221 ) );
#138 = EDGE_LOOP( '', ( #222 ) );
#139 = AXIS2_PLACEMENT_3D( '', #223, #224, #225 );
#140 = SURFACE_SIDE_STYLE( '', ( #226 ) );
#141 = EDGE_LOOP( '', ( #227 ) );
#142 = EDGE_LOOP( '', ( #228 ) );
#143 = AXIS2_PLACEMENT_3D( '', #229, #230, #231 );
#144 = SURFACE_SIDE_STYLE( '', ( #232 ) );
#145 = EDGE_LOOP( '', ( #233, #234, #235, #236 ) );
#146 = AXIS2_PLACEMENT_3D( '', #237, #238, #239 );
#147 = SURFACE_SIDE_STYLE( '', ( #240 ) );
#148 = EDGE_LOOP( '', ( #241 ) );
#149 = EDGE_LOOP( '', ( #242 ) );
#150 = AXIS2_PLACEMENT_3D( '', #243, #244, #245 );
#151 = SURFACE_SIDE_STYLE( '', ( #246 ) );
#152 = EDGE_LOOP( '', ( #247 ) );
#153 = EDGE_LOOP( '', ( #248 ) );
#154 = AXIS2_PLACEMENT_3D( '', #249, #250, #251 );
#155 = SURFACE_SIDE_STYLE( '', ( #252 ) );
#156 = EDGE_LOOP( '', ( #253 ) );
#157 = VERTEX_LOOP( '', #254 );
#160 = CARTESIAN_POINT( '', ( 51.0000000000000, 0.000000000000000, -4.33680868994202E-16 ) );
#161 = CARTESIAN_POINT( '', ( 51.0000000000000, 8.67361737988404E-16, -4.33680868994202E-16 ) );
#162 = CARTESIAN_POINT( '', ( 51.0000000000000, 8.67361737988404E-16, 4.33680868994202E-16 ) );
#163 = CARTESIAN_POINT( '', ( 51.0000000000000, 0.000000000000000, 4.33680868994202E-16 ) );
#164 = CARTESIAN_POINT( '', ( 51.0000000000000, -8.67361737988404E-16, 4.33680868994202E-16 ) );
#165 = CARTESIAN_POINT( '', ( 51.0000000000000, -8.67361737988404E-16, -4.33680868994202E-16 ) );
#166 = CARTESIAN_POINT( '', ( 51.0000000000000, 0.000000000000000, -4.33680868994202E-16 ) );
#167 = CARTESIAN_POINT( '', ( 50.6873635186098, 0.000000000000000, -2.30789780703028 ) );
#168 = CARTESIAN_POINT( '', ( 50.6873635186098, 4.61579561406057, -2.30789780703028 ) );
#169 = CARTESIAN_POINT( '', ( 50.6873635186098, 4.61579561406057, 2.30789780703028 ) );
#170 = CARTESIAN_POINT( '', ( 50.6873635186098, 0.000000000000000, 2.30789780703028 ) );
#171 = CARTESIAN_POINT( '', ( 50.6873635186098, -4.61579561406057, 2.30789780703028 ) );
#172 = CARTESIAN_POINT( '', ( 50.6873635186098, -4.61579561406057, -2.30789780703028 ) );
#173 = CARTESIAN_POINT( '', ( 50.6873635186098, 0.000000000000000, -2.30789780703028 ) );
#174 = CARTESIAN_POINT( '', ( 50.0634220179007, 0.000000000000000, -4.55174068497073 ) );
#175 = CARTESIAN_POINT( '', ( 50.0634220179007, 9.10348136994147, -4.55174068497073 ) );
#176 = CARTESIAN_POINT( '', ( 50.0634220179007, 9.10348136994147, 4.55174068497073 ) );
#177 = CARTESIAN_POINT( '', ( 50.0634220179007, 0.000000000000000, 4.55174068497073 ) );
#178 = CARTESIAN_POINT( '', ( 50.0634220179007, -9.10348136994147, 4.55174068497073 ) );
#179 = CARTESIAN_POINT( '', ( 50.0634220179007, -9.10348136994147, -4.55174068497073 ) );
#180 = CARTESIAN_POINT( '', ( 50.0634220179007, 0.000000000000000, -4.55174068497073 ) );
#181 = CARTESIAN_POINT( '', ( 49.1397951839264, 0.000000000000000, -6.68974146344433 ) );
#182 = CARTESIAN_POINT( '', ( 49.1397951839264, 13.3794829268887, -6.68974146344433 ) );
#183 = CARTESIAN_POINT( '', ( 49.1397951839264, 13.3794829268887, 6.68974146344433 ) );
#184 = CARTESIAN_POINT( '', ( 49.1397951839264, 0.000000000000000, 6.68974146344433 ) );
#185 = CARTESIAN_POINT( '', ( 49.1397951839264, -13.3794829268887, 6.68974146344433 ) );
#186 = CARTESIAN_POINT( '', ( 49.1397951839264, -13.3794829268887, -6.68974146344433 ) );
#187 = CARTESIAN_POINT( '', ( 49.1397951839264, 0.000000000000000, -6.68974146344433 ) );
#193 = SURFACE_SIDE_STYLE( '', ( #255 ) );
#194 = EDGE_LOOP( '', ( #256, #257, #258, #259 ) );
#195 = AXIS2_PLACEMENT_3D( '', #260, #261, #262 );
#196 = SURFACE_SIDE_STYLE( '', ( #263 ) );
#197 = EDGE_LOOP( '', ( #264, #265 ) );
#198 = AXIS2_PLACEMENT_3D( '', #266, #267, #268 );
#199 = SURFACE_SIDE_STYLE( '', ( #269 ) );
#200 = EDGE_LOOP( '', ( #270, #271 ) );
#201 = AXIS2_PLACEMENT_3D( '', #272, #273, #274 );
#202 = SURFACE_SIDE_STYLE( '', ( #275 ) );
#203 = EDGE_LOOP( '', ( #276 ) );
#204 = EDGE_LOOP( '', ( #277, #278, #279, #280, #281, #282, #283, #284 ) );
#205 = AXIS2_PLACEMENT_3D( '', #285, #286, #287 );
#206 = SURFACE_SIDE_STYLE( '', ( #288 ) );
#207 = EDGE_LOOP( '', ( #289 ) );
#208 = EDGE_LOOP( '', ( #290 ) );
#209 = AXIS2_PLACEMENT_3D( '', #291, #292, #293 );
#210 = SURFACE_SIDE_STYLE( '', ( #294 ) );
#211 = EDGE_LOOP( '', ( #295, #296, #297, #298 ) );
#212 = EDGE_LOOP( '', ( #299 ) );
#213 = AXIS2_PLACEMENT_3D( '', #300, #301, #302 );
#215 = SURFACE_STYLE_FILL_AREA( #303 );
#216 = ORIENTED_EDGE( '', *, *, #304, .F. );
#217 = CARTESIAN_POINT( '', ( -7.00000000000000, 0.000000000000000, 0.000000000000000 ) );
#218 = DIRECTION( '', ( 1.00000000000000, 0.000000000000000, -0.000000000000000 ) );
#219 = DIRECTION( '', ( -0.000000000000000, 0.000000000000000, -1.00000000000000 ) );
#220 = SURFACE_STYLE_FILL_AREA( #305 );
#221 = ORIENTED_EDGE( '', *, *, #306, .F. );
#222 = ORIENTED_EDGE( '', *, *, #304, .T. );
#223 = CARTESIAN_POINT( '', ( -7.00000000000000, 0.000000000000000, 0.000000000000000 ) );
#224 = DIRECTION( '', ( 1.00000000000000, -0.000000000000000, -0.000000000000000 ) );
#225 = DIRECTION( '', ( -0.000000000000000, 0.000000000000000, -1.00000000000000 ) );
#226 = SURFACE_STYLE_FILL_AREA( #307 );
#227 = ORIENTED_EDGE( '', *, *, #308, .F. );
#228 = ORIENTED_EDGE( '', *, *, #309, .T. );
#229 = CARTESIAN_POINT( '', ( 5.00000000000000, 0.000000000000000, 0.000000000000000 ) );
#230 = DIRECTION( '', ( 1.00000000000000, -0.000000000000000, -0.000000000000000 ) );
#231 = DIRECTION( '', ( -0.000000000000000, 0.000000000000000, -1.00000000000000 ) );
#232 = SURFACE_STYLE_FILL_AREA( #310 );
#233 = ORIENTED_EDGE( '', *, *, #311, .T. );
#234 = ORIENTED_EDGE( '', *, *, #312, .T. );
#235 = ORIENTED_EDGE( '', *, *, #313, .T. );
#236 = ORIENTED_EDGE( '', *, *, #314, .T. );
#237 = CARTESIAN_POINT( '', ( 4.99000000000000, -6.50000000000000, -17.0000000000000 ) );
#238 = DIRECTION( '', ( 0.000000000000000, -1.00000000000000, 0.000000000000000 ) );
#239 = DIRECTION( '', ( 0.000000000000000, 0.000000000000000, -1.00000000000000 ) );
#240 = SURFACE_STYLE_FILL_AREA( #315 );
#241 = ORIENTED_EDGE( '', *, *, #316, .T. );
#242 = ORIENTED_EDGE( '', *, *, #317, .F. );
#243 = CARTESIAN_POINT( '', ( 46.3857953200627, 0.000000000000000, 0.000000000000000 ) );
#244 = DIRECTION( '', ( 1.00000000000000, 0.000000000000000, -0.000000000000000 ) );
#245 = DIRECTION( '', ( -0.000000000000000, 0.000000000000000, -1.00000000000000 ) );
#246 = SURFACE_STYLE_FILL_AREA( #318 );
#247 = ORIENTED_EDGE( '', *, *, #319, .F. );
#248 = ORIENTED_EDGE( '', *, *, #306, .T. );
#249 = CARTESIAN_POINT( '', ( 51.0000000000000, 0.000000000000000, 0.000000000000000 ) );
#250 = DIRECTION( '', ( -1.00000000000000, -0.000000000000000, 0.000000000000000 ) );
#251 = DIRECTION( '', ( -0.000000000000000, 0.000000000000000, -1.00000000000000 ) );
#252 = SURFACE_STYLE_FILL_AREA( #320 );
#253 = ORIENTED_EDGE( '', *, *, #317, .T. );
#254 = VERTEX_POINT( '', #321 );
#255 = SURFACE_STYLE_FILL_AREA( #322 );
#256 = ORIENTED_EDGE( '', *, *, #323, .T. );
#257 = ORIENTED_EDGE( '', *, *, #324, .T. );
#258 = ORIENTED_EDGE( '', *, *, #325, .T. );
#259 = ORIENTED_EDGE( '', *, *, #326, .T. );
#260 = CARTESIAN_POINT( '', ( 4.99000000000000, 6.50000000000000, 17.0000000000000 ) );
#261 = DIRECTION( '', ( -0.000000000000000, 1.00000000000000, 0.000000000000000 ) );
#262 = DIRECTION( '', ( 0.000000000000000, -0.000000000000000, 1.00000000000000 ) );
#263 = SURFACE_STYLE_FILL_AREA( #327 );
#264 = ORIENTED_EDGE( '', *, *, #312, .F. );
#265 = ORIENTED_EDGE( '', *, *, #328, .F. );
#266 = CARTESIAN_POINT( '', ( 4.99000000000000, 0.000000000000000, 0.000000000000000 ) );
#267 = DIRECTION( '', ( 1.00000000000000, 0.000000000000000, -0.000000000000000 ) );
#268 = DIRECTION( '', ( -0.000000000000000, 0.000000000000000, -1.00000000000000 ) );
#269 = SURFACE_STYLE_FILL_AREA( #329 );
#270 = ORIENTED_EDGE( '', *, *, #324, .F. );
#271 = ORIENTED_EDGE( '', *, *, #330, .F. );
#272 = CARTESIAN_POINT( '', ( 4.99000000000000, 0.000000000000000, 0.000000000000000 ) );
#273 = DIRECTION( '', ( 1.00000000000000, 0.000000000000000, 0.000000000000000 ) );
#274 = DIRECTION( '', ( 0.000000000000000, 0.000000000000000, -1.00000000000000 ) );
#275 = SURFACE_STYLE_FILL_AREA( #331 );
#276 = ORIENTED_EDGE( '', *, *, #309, .F. );
#277 = ORIENTED_EDGE( '', *, *, #311, .F. );
#278 = ORIENTED_EDGE( '', *, *, #332, .T. );
#279 = ORIENTED_EDGE( '', *, *, #325, .F. );
#280 = ORIENTED_EDGE( '', *, *, #330, .T. );
#281 = ORIENTED_EDGE( '', *, *, #323, .F. );
#282 = ORIENTED_EDGE( '', *, *, #333, .T. );
#283 = ORIENTED_EDGE( '', *, *, #313, .F. );
#284 = ORIENTED_EDGE( '', *, *, #328, .T. );
#285 = CARTESIAN_POINT( '', ( 51.0000000000000, 0.000000000000000, 0.000000000000000 ) );
#286 = DIRECTION( '', ( -1.00000000000000, -0.000000000000000, 0.000000000000000 ) );
#287 = DIRECTION( '', ( -0.000000000000000, 0.000000000000000, -1.00000000000000 ) );
#288 = SURFACE_STYLE_FILL_AREA( #334 );
#289 = ORIENTED_EDGE( '', *, *, #316, .F. );
#290 = ORIENTED_EDGE( '', *, *, #308, .T. );
#291 = CARTESIAN_POINT( '', ( 51.0000000000000, 0.000000000000000, 0.000000000000000 ) );
#292 = DIRECTION( '', ( -1.00000000000000, -0.000000000000000, 0.000000000000000 ) );
#293 = DIRECTION( '', ( -0.000000000000000, 0.000000000000000, -1.00000000000000 ) );
#294 = SURFACE_STYLE_FILL_AREA( #335 );
#295 = ORIENTED_EDGE( '', *, *, #326, .F. );
#296 = ORIENTED_EDGE( '', *, *, #332, .F. );
#297 = ORIENTED_EDGE( '', *, *, #314, .F. );
#298 = ORIENTED_EDGE( '', *, *, #333, .F. );
#299 = ORIENTED_EDGE( '', *, *, #319, .T. );
#300 = CARTESIAN_POINT( '', ( 0.000000000000000, 2.50000000000000, 0.000000000000000 ) );
#301 = DIRECTION( '', ( 1.00000000000000, 0.000000000000000, -0.000000000000000 ) );
#302 = DIRECTION( '', ( -0.000000000000000, 0.000000000000000, -1.00000000000000 ) );
#303 = FILL_AREA_STYLE( '', ( #336 ) );
#304 = EDGE_CURVE( '', #337, #337, #338, .T. );
#305 = FILL_AREA_STYLE( '', ( #339 ) );
#306 = EDGE_CURVE( '', #340, #340, #341, .T. );
#307 = FILL_AREA_STYLE( '', ( #342 ) );
#308 = EDGE_CURVE( '', #343, #343, #344, .T. );
#309 = EDGE_CURVE( '', #345, #345, #346, .T. );
#310 = FILL_AREA_STYLE( '', ( #347 ) );
#311 = EDGE_CURVE( '', #348, #349, #350, .T. );
#312 = EDGE_CURVE( '', #349, #351, #352, .T. );
#313 = EDGE_CURVE( '', #351, #353, #354, .F. );
#314 = EDGE_CURVE( '', #353, #348, #355, .T. );
#315 = FILL_AREA_STYLE( '', ( #356 ) );
#316 = EDGE_CURVE( '', #357, #357, #358, .T. );
#317 = EDGE_CURVE( '', #359, #359, #360, .T. );
#318 = FILL_AREA_STYLE( '', ( #361 ) );
#319 = EDGE_CURVE( '', #362, #362, #363, .T. );
#320 = FILL_AREA_STYLE( '', ( #364 ) );
#321 = CARTESIAN_POINT( '', ( 51.0000000000000, 4.33680868994202E-16, 0.000000000000000 ) );
#322 = FILL_AREA_STYLE( '', ( #365 ) );
#323 = EDGE_CURVE( '', #366, #367, #368, .T. );
#324 = EDGE_CURVE( '', #367, #369, #370, .T. );
#325 = EDGE_CURVE( '', #369, #371, #372, .F. );
#326 = EDGE_CURVE( '', #371, #366, #373, .T. );
#327 = FILL_AREA_STYLE( '', ( #374 ) );
#328 = EDGE_CURVE( '', #351, #349, #375, .T. );
#329 = FILL_AREA_STYLE( '', ( #376 ) );
#330 = EDGE_CURVE( '', #369, #367, #377, .T. );
#331 = FILL_AREA_STYLE( '', ( #378 ) );
#332 = EDGE_CURVE( '', #348, #371, #379, .T. );
#333 = EDGE_CURVE( '', #366, #353, #380, .T. );
#334 = FILL_AREA_STYLE( '', ( #381 ) );
#335 = FILL_AREA_STYLE( '', ( #382 ) );
#336 = FILL_AREA_STYLE_COLOUR( '', #383 );
#337 = VERTEX_POINT( '', #384 );
#338 = CIRCLE( '', #385, 2.00950000000000 );
#339 = FILL_AREA_STYLE_COLOUR( '', #386 );
#340 = VERTEX_POINT( '', #387 );
#341 = CIRCLE( '', #388, 2.50000000000000 );
#342 = FILL_AREA_STYLE_COLOUR( '', #389 );
#343 = VERTEX_POINT( '', #390 );
#344 = CIRCLE( '', #391, 8.50000000000000 );
#345 = VERTEX_POINT( '', #392 );
#346 = CIRCLE( '', #393, 7.50000000000000 );
#347 = FILL_AREA_STYLE_COLOUR( '', #394 );
#348 = VERTEX_POINT( '', #395 );
#349 = VERTEX_POINT( '', #396 );
#350 = LINE( '', #397, #398 );
#351 = VERTEX_POINT( '', #399 );
#352 = LINE( '', #400, #401 );
#353 = VERTEX_POINT( '', #402 );
#354 = LINE( '', #403, #404 );
#355 = LINE( '', #405, #406 );
#356 = FILL_AREA_STYLE_COLOUR( '', #407 );
#357 = VERTEX_POINT( '', #408 );
#358 = CIRCLE( '', #409, 8.50000000000000 );
#359 = VERTEX_POINT( '', #410 );
#360 = CIRCLE( '', #411, 6.68974146340000 );
#361 = FILL_AREA_STYLE_COLOUR( '', #412 );
#362 = VERTEX_POINT( '', #413 );
#363 = CIRCLE( '', #414, 2.50000000000000 );
#364 = FILL_AREA_STYLE_COLOUR( '', #415 );
#365 = FILL_AREA_STYLE_COLOUR( '', #416 );
#366 = VERTEX_POINT( '', #417 );
#367 = VERTEX_POINT( '', #418 );
#368 = LINE( '', #419, #420 );
#369 = VERTEX_POINT( '', #421 );
#370 = LINE( '', #422, #423 );
#371 = VERTEX_POINT( '', #424 );
#372 = LINE( '', #425, #426 );
#373 = LINE( '', #427, #428 );
#374 = FILL_AREA_STYLE_COLOUR( '', #429 );
#375 = CIRCLE( '', #430, 7.50000000000000 );
#376 = FILL_AREA_STYLE_COLOUR( '', #431 );
#377 = CIRCLE( '', #432, 7.50000000000000 );
#378 = FILL_AREA_STYLE_COLOUR( '', #433 );
#379 = CIRCLE( '', #434, 7.50000000000000 );
#380 = CIRCLE( '', #435, 7.50000000000000 );
#381 = FILL_AREA_STYLE_COLOUR( '', #436 );
#382 = FILL_AREA_STYLE_COLOUR( '', #437 );
#383 = COLOUR_RGB( '', 0.689999997600000, 0.689999997600000, 0.689999997600000 );
#384 = CARTESIAN_POINT( '', ( -7.00000000000000, 0.000000000000000, -2.00950000000000 ) );
#385 = AXIS2_PLACEMENT_3D( '', #438, #439, #440 );
#386 = COLOUR_RGB( '', 0.689999997600000, 0.689999997600000, 0.689999997600000 );
#387 = CARTESIAN_POINT( '', ( -6.50950000000000, 0.000000000000000, -2.50000000000000 ) );
#388 = AXIS2_PLACEMENT_3D( '', #441, #442, #443 );
#389 = COLOUR_RGB( '', 0.689999997600000, 0.689999997600000, 0.689999997600000 );
#390 = CARTESIAN_POINT( '', ( 28.0500000000000, 0.000000000000000, -8.50000000000000 ) );
#391 = AXIS2_PLACEMENT_3D( '', #444, #445, #446 );
#392 = CARTESIAN_POINT( '', ( 5.00000000000000, 0.000000000000000, -7.50000000000000 ) );
#393 = AXIS2_PLACEMENT_3D( '', #447, #448, #449 );
#394 = COLOUR_RGB( '', 0.689999997600000, 0.689999997600000, 0.689999997600000 );
#395 = CARTESIAN_POINT( '', ( 0.000000000000000, -6.50000000000000, -3.74165738677394 ) );
#396 = CARTESIAN_POINT( '', ( 4.99000000000000, -6.50000000000000, -3.74165738677394 ) );
#397 = CARTESIAN_POINT( '', ( 51.0000000000000, -6.50000000000000, -3.74165738677394 ) );
#398 = VECTOR( '', #450, 1000.00000000000 );
#399 = CARTESIAN_POINT( '', ( 4.99000000000000, -6.50000000000000, 3.74165738677394 ) );
#400 = CARTESIAN_POINT( '', ( 4.99000000000000, -6.50000000000000, -17.0000000000000 ) );
#401 = VECTOR( '', #451, 1000.00000000000 );
#402 = CARTESIAN_POINT( '', ( 0.000000000000000, -6.50000000000000, 3.74165738677394 ) );
#403 = CARTESIAN_POINT( '', ( 51.0000000000000, -6.50000000000000, 3.74165738677394 ) );
#404 = VECTOR( '', #452, 1000.00000000000 );
#405 = CARTESIAN_POINT( '', ( 0.000000000000000, -6.50000000000000, 0.000000000000000 ) );
#406 = VECTOR( '', #453, 1000.00000000000 );
#407 = COLOUR_RGB( '', 0.689999997600000, 0.689999997600000, 0.689999997600000 );
#408 = CARTESIAN_POINT( '', ( 46.3857953200627, 0.000000000000000, -8.50000000000000 ) );
#409 = AXIS2_PLACEMENT_3D( '', #454, #455, #456 );
#410 = CARTESIAN_POINT( '', ( 49.1397951839264, 0.000000000000000, -6.68974146344433 ) );
#411 = AXIS2_PLACEMENT_3D( '', #457, #458, #459 );
#412 = COLOUR_RGB( '', 0.689999997600000, 0.689999997600000, 0.689999997600000 );
#413 = CARTESIAN_POINT( '', ( 0.000000000000000, 0.000000000000000, -2.50000000000000 ) );
#414 = AXIS2_PLACEMENT_3D( '', #460, #461, #462 );
#415 = COLOUR_RGB( '', 0.689999997600000, 0.689999997600000, 0.689999997600000 );
#416 = COLOUR_RGB( '', 0.689999997600000, 0.689999997600000, 0.689999997600000 );
#417 = CARTESIAN_POINT( '', ( 0.000000000000000, 6.50000000000000, 3.74165738677394 ) );
#418 = CARTESIAN_POINT( '', ( 4.99000000000000, 6.50000000000000, 3.74165738677394 ) );
#419 = CARTESIAN_POINT( '', ( 51.0000000000000, 6.50000000000000, 3.74165738677394 ) );
#420 = VECTOR( '', #463, 1000.00000000000 );
#421 = CARTESIAN_POINT( '', ( 4.99000000000000, 6.50000000000000, -3.74165738677394 ) );
#422 = CARTESIAN_POINT( '', ( 4.99000000000000, 6.50000000000000, 17.0000000000000 ) );
#423 = VECTOR( '', #464, 1000.00000000000 );
#424 = CARTESIAN_POINT( '', ( 0.000000000000000, 6.50000000000000, -3.74165738677394 ) );
#425 = CARTESIAN_POINT( '', ( 51.0000000000000, 6.50000000000000, -3.74165738677394 ) );
#426 = VECTOR( '', #465, 1000.00000000000 );
#427 = CARTESIAN_POINT( '', ( 0.000000000000000, 6.50000000000000, 0.000000000000000 ) );
#428 = VECTOR( '', #466, 1000.00000000000 );
#429 = COLOUR_RGB( '', 0.689999997600000, 0.689999997600000, 0.689999997600000 );
#430 = AXIS2_PLACEMENT_3D( '', #467, #468, #469 );
#431 = COLOUR_RGB( '', 0.689999997600000, 0.689999997600000, 0.689999997600000 );
#432 = AXIS2_PLACEMENT_3D( '', #470, #471, #472 );
#433 = COLOUR_RGB( '', 0.689999997600000, 0.689999997600000, 0.689999997600000 );
#434 = AXIS2_PLACEMENT_3D( '', #473, #474, #475 );
#435 = AXIS2_PLACEMENT_3D( '', #476, #477, #478 );
#436 = COLOUR_RGB( '', 0.689999997600000, 0.689999997600000, 0.689999997600000 );
#437 = COLOUR_RGB( '', 0.689999997600000, 0.689999997600000, 0.689999997600000 );
#438 = CARTESIAN_POINT( '', ( -7.00000000000000, 0.000000000000000, 0.000000000000000 ) );
#439 = DIRECTION( '', ( 1.00000000000000, 0.000000000000000, -0.000000000000000 ) );
#440 = DIRECTION( '', ( -0.000000000000000, 0.000000000000000, -1.00000000000000 ) );
#441 = CARTESIAN_POINT( '', ( -6.50950000000000, 0.000000000000000, 0.000000000000000 ) );
#442 = DIRECTION( '', ( 1.00000000000000, 0.000000000000000, -0.000000000000000 ) );
#443 = DIRECTION( '', ( -0.000000000000000, 0.000000000000000, -1.00000000000000 ) );
#444 = CARTESIAN_POINT( '', ( 28.0500000000000, 0.000000000000000, 0.000000000000000 ) );
#445 = DIRECTION( '', ( 1.00000000000000, 0.000000000000000, -0.000000000000000 ) );
#446 = DIRECTION( '', ( -0.000000000000000, 0.000000000000000, -1.00000000000000 ) );
#447 = CARTESIAN_POINT( '', ( 5.00000000000000, 0.000000000000000, 0.000000000000000 ) );
#448 = DIRECTION( '', ( 1.00000000000000, 0.000000000000000, -0.000000000000000 ) );
#449 = DIRECTION( '', ( -0.000000000000000, 0.000000000000000, -1.00000000000000 ) );
#450 = DIRECTION( '', ( 1.00000000000000, -0.000000000000000, -0.000000000000000 ) );
#451 = DIRECTION( '', ( 0.000000000000000, 0.000000000000000, 1.00000000000000 ) );
#452 = DIRECTION( '', ( 1.00000000000000, -0.000000000000000, -0.000000000000000 ) );
#453 = DIRECTION( '', ( 0.000000000000000, 0.000000000000000, -1.00000000000000 ) );
#454 = CARTESIAN_POINT( '', ( 46.3857953200627, 0.000000000000000, 0.000000000000000 ) );
#455 = DIRECTION( '', ( 1.00000000000000, 0.000000000000000, -0.000000000000000 ) );
#456 = DIRECTION( '', ( -0.000000000000000, 0.000000000000000, -1.00000000000000 ) );
#457 = CARTESIAN_POINT( '', ( 49.1397951839264, 0.000000000000000, 0.000000000000000 ) );
#458 = DIRECTION( '', ( 1.00000000000000, 0.000000000000000, -0.000000000000000 ) );
#459 = DIRECTION( '', ( -0.000000000000000, 0.000000000000000, -1.00000000000000 ) );
#460 = CARTESIAN_POINT( '', ( 0.000000000000000, 0.000000000000000, 0.000000000000000 ) );
#461 = DIRECTION( '', ( 1.00000000000000, 0.000000000000000, -0.000000000000000 ) );
#462 = DIRECTION( '', ( -0.000000000000000, 0.000000000000000, -1.00000000000000 ) );
#463 = DIRECTION( '', ( 1.00000000000000, -0.000000000000000, -0.000000000000000 ) );
#464 = DIRECTION( '', ( 0.000000000000000, 0.000000000000000, -1.00000000000000 ) );
#465 = DIRECTION( '', ( 1.00000000000000, -0.000000000000000, -0.000000000000000 ) );
#466 = DIRECTION( '', ( 0.000000000000000, 0.000000000000000, 1.00000000000000 ) );
#467 = CARTESIAN_POINT( '', ( 4.99000000000000, 0.000000000000000, 0.000000000000000 ) );
#468 = DIRECTION( '', ( 1.00000000000000, 0.000000000000000, -0.000000000000000 ) );
#469 = DIRECTION( '', ( -0.000000000000000, 0.000000000000000, -1.00000000000000 ) );
#470 = CARTESIAN_POINT( '', ( 4.99000000000000, 0.000000000000000, 0.000000000000000 ) );
#471 = DIRECTION( '', ( 1.00000000000000, 0.000000000000000, 0.000000000000000 ) );
#472 = DIRECTION( '', ( 0.000000000000000, 0.000000000000000, -1.00000000000000 ) );
#473 = CARTESIAN_POINT( '', ( 0.000000000000000, 0.000000000000000, 0.000000000000000 ) );
#474 = DIRECTION( '', ( 1.00000000000000, 0.000000000000000, -0.000000000000000 ) );
#475 = DIRECTION( '', ( -0.000000000000000, 0.000000000000000, -1.00000000000000 ) );
#476 = CARTESIAN_POINT( '', ( 0.000000000000000, 0.000000000000000, 0.000000000000000 ) );
#477 = DIRECTION( '', ( 1.00000000000000, 0.000000000000000, -0.000000000000000 ) );
#478 = DIRECTION( '', ( -0.000000000000000, 0.000000000000000, -1.00000000000000 ) );
ENDSEC;
END-ISO-10303-21;
