ISO-10303-21;
HEADER;
FILE_DESCRIPTION( ( 'STEP AP214' ), '1' );
FILE_NAME( '//goodhand-server/Shared Folders/GoodHand Data/Kipp CAD/K0163/K0163.1080X10.stp', '2020-11-26T10:29:37', ( '' ), ( '' ), ' ', 'PARTsolutions', ' ' );
FILE_SCHEMA( ( 'AUTOMOTIVE_DESIGN { 1 0 10303 214 1 1 1 1 }' ) );
ENDSEC;
DATA;
#1 = MECHANICAL_DESIGN_GEOMETRIC_PRESENTATION_REPRESENTATION( ' ', ( #10, #11, #12, #13, #14, #15, #16, #17, #18, #19, #20, #21, #22, #23, #24 ), #6 );
#2 = PRODUCT_DEFINITION_CONTEXT( '', #25, 'design' );
#3 = APPLICATION_PROTOCOL_DEFINITION( 'international standard', 'automotive_design', 2001, #25 );
#4 = PRODUCT_CATEGORY_RELATIONSHIP( 'NONE', 'NONE', #26, #27 );
#5 = SHAPE_DEFINITION_REPRESENTATION( #28, #29 );
#6 =  ( GEOMETRIC_REPRESENTATION_CONTEXT( 3 )GLOBAL_UNCERTAINTY_ASSIGNED_CONTEXT( ( #32 ) )GLOBAL_UNIT_ASSIGNED_CONTEXT( ( #34, #35, #36 ) )REPRESENTATION_CONTEXT( 'NONE', 'WORKSPACE' ) );
#10 = STYLED_ITEM( '', ( #38 ), #39 );
#11 = STYLED_ITEM( '', ( #40 ), #41 );
#12 = STYLED_ITEM( '', ( #42 ), #43 );
#13 = STYLED_ITEM( '', ( #44 ), #45 );
#14 = STYLED_ITEM( '', ( #46 ), #47 );
#15 = STYLED_ITEM( '', ( #48 ), #49 );
#16 = STYLED_ITEM( '', ( #50 ), #51 );
#17 = STYLED_ITEM( '', ( #52 ), #53 );
#18 = STYLED_ITEM( '', ( #54 ), #55 );
#19 = STYLED_ITEM( '', ( #56 ), #57 );
#20 = STYLED_ITEM( '', ( #58 ), #59 );
#21 = STYLED_ITEM( '', ( #60 ), #61 );
#22 = STYLED_ITEM( '', ( #62 ), #63 );
#23 = STYLED_ITEM( '', ( #64 ), #65 );
#24 = STYLED_ITEM( '', ( #66 ), #67 );
#25 = APPLICATION_CONTEXT( 'core data for automotive mechanical design processes' );
#26 = PRODUCT_CATEGORY( 'part', 'NONE' );
#27 = PRODUCT_RELATED_PRODUCT_CATEGORY( 'detail', ' ', ( #68 ) );
#28 = PRODUCT_DEFINITION_SHAPE( 'NONE', 'NONE', #69 );
#29 = ADVANCED_BREP_SHAPE_REPRESENTATION( '_K0163.1080X10', ( #70, #71 ), #6 );
#32 = UNCERTAINTY_MEASURE_WITH_UNIT( LENGTH_MEASURE( 0.00100000000000000 ), #34, '', '' );
#34 =  ( CONVERSION_BASED_UNIT( 'MILLIMETRE', #74 )LENGTH_UNIT(  )NAMED_UNIT( #77 ) );
#35 =  ( NAMED_UNIT( #79 )PLANE_ANGLE_UNIT(  )SI_UNIT( $, .RADIAN. ) );
#36 =  ( NAMED_UNIT( #79 )SI_UNIT( $, .STERADIAN. )SOLID_ANGLE_UNIT(  ) );
#38 = PRESENTATION_STYLE_ASSIGNMENT( ( #85 ) );
#39 = ADVANCED_FACE( '', ( #86, #87 ), #88, .T. );
#40 = PRESENTATION_STYLE_ASSIGNMENT( ( #89 ) );
#41 = ADVANCED_FACE( '', ( #90, #91 ), #92, .F. );
#42 = PRESENTATION_STYLE_ASSIGNMENT( ( #93 ) );
#43 = ADVANCED_FACE( '', ( #94 ), #95, .T. );
#44 = PRESENTATION_STYLE_ASSIGNMENT( ( #96 ) );
#45 = ADVANCED_FACE( '', ( #97, #98 ), #99, .F. );
#46 = PRESENTATION_STYLE_ASSIGNMENT( ( #100 ) );
#47 = ADVANCED_FACE( '', ( #101, #102 ), #103, .F. );
#48 = PRESENTATION_STYLE_ASSIGNMENT( ( #104 ) );
#49 = ADVANCED_FACE( '', ( #105 ), #106, .F. );
#50 = PRESENTATION_STYLE_ASSIGNMENT( ( #107 ) );
#51 = ADVANCED_FACE( '', ( #108, #109 ), #110, .T. );
#52 = PRESENTATION_STYLE_ASSIGNMENT( ( #111 ) );
#53 = ADVANCED_FACE( '', ( #112 ), #113, .T. );
#54 = PRESENTATION_STYLE_ASSIGNMENT( ( #114 ) );
#55 = ADVANCED_FACE( '', ( #115, #116 ), #117, .F. );
#56 = PRESENTATION_STYLE_ASSIGNMENT( ( #118 ) );
#57 = ADVANCED_FACE( '', ( #119, #120, #121 ), #122, .T. );
#58 = PRESENTATION_STYLE_ASSIGNMENT( ( #123 ) );
#59 = ADVANCED_FACE( '', ( #124, #125 ), #126, .T. );
#60 = PRESENTATION_STYLE_ASSIGNMENT( ( #127 ) );
#61 = ADVANCED_FACE( '', ( #128 ), #129, .T. );
#62 = PRESENTATION_STYLE_ASSIGNMENT( ( #130 ) );
#63 = ADVANCED_FACE( '', ( #131, #132 ), #133, .F. );
#64 = PRESENTATION_STYLE_ASSIGNMENT( ( #134 ) );
#65 = ADVANCED_FACE( '', ( #135, #136 ), #137, .F. );
#66 = PRESENTATION_STYLE_ASSIGNMENT( ( #138 ) );
#67 = ADVANCED_FACE( '', ( #139, #140 ), #141, .T. );
#68 = PRODUCT( '_K0163.1080X10', '_K0163.1080X10', 'PART-_K0163.1080X10-DESC', ( #142 ) );
#69 = PRODUCT_DEFINITION( 'NONE', 'NONE', #143, #2 );
#70 = MANIFOLD_SOLID_BREP( '_K0163.1080X10', #144 );
#71 = AXIS2_PLACEMENT_3D( '', #145, #146, #147 );
#74 = LENGTH_MEASURE_WITH_UNIT( LENGTH_MEASURE( 1.00000000000000 ), #148 );
#77 = DIMENSIONAL_EXPONENTS( 1.00000000000000, 0.000000000000000, 0.000000000000000, 0.000000000000000, 0.000000000000000, 0.000000000000000, 0.000000000000000 );
#79 = DIMENSIONAL_EXPONENTS( 0.000000000000000, 0.000000000000000, 0.000000000000000, 0.000000000000000, 0.000000000000000, 0.000000000000000, 0.000000000000000 );
#85 = SURFACE_STYLE_USAGE( .BOTH., #149 );
#86 = FACE_OUTER_BOUND( '', #150, .T. );
#87 = FACE_OUTER_BOUND( '', #151, .T. );
#88 = CYLINDRICAL_SURFACE( '', #152, 12.5000000000000 );
#89 = SURFACE_STYLE_USAGE( .BOTH., #153 );
#90 = FACE_BOUND( '', #154, .T. );
#91 = FACE_OUTER_BOUND( '', #155, .T. );
#92 = CONICAL_SURFACE( '', #156, 32.0000000000000, 1.21202565650000 );
#93 = SURFACE_STYLE_USAGE( .BOTH., #157 );
#94 = FACE_OUTER_BOUND( '', #158, .T. );
#95 = PLANE( '', #159 );
#96 = SURFACE_STYLE_USAGE( .BOTH., #160 );
#97 = FACE_OUTER_BOUND( '', #161, .T. );
#98 = FACE_BOUND( '', #162, .T. );
#99 = CONICAL_SURFACE( '', #163, 31.5000000000000, 0.245454072200000 );
#100 = SURFACE_STYLE_USAGE( .BOTH., #164 );
#101 = FACE_OUTER_BOUND( '', #165, .T. );
#102 = FACE_BOUND( '', #166, .T. );
#103 = PLANE( '', #167 );
#104 = SURFACE_STYLE_USAGE( .BOTH., #168 );
#105 = FACE_OUTER_BOUND( '', #169, .T. );
#106 = CYLINDRICAL_SURFACE( '', #170, 5.00000000000000 );
#107 = SURFACE_STYLE_USAGE( .BOTH., #171 );
#108 = FACE_BOUND( '', #172, .T. );
#109 = FACE_OUTER_BOUND( '', #173, .T. );
#110 = CONICAL_SURFACE( '', #174, 28.0000000000000, 0.911990290700000 );
#111 = SURFACE_STYLE_USAGE( .BOTH., #175 );
#112 = FACE_OUTER_BOUND( '', #176, .T. );
#113 = PLANE( '', #177 );
#114 = SURFACE_STYLE_USAGE( .BOTH., #178 );
#115 = FACE_OUTER_BOUND( '', #179, .T. );
#116 = FACE_BOUND( '', #180, .T. );
#117 = CONICAL_SURFACE( '', #181, 12.5000000000000, 1.00148313570000 );
#118 = SURFACE_STYLE_USAGE( .BOTH., #182 );
#119 = FACE_BOUND( '', #183, .T. );
#120 = FACE_OUTER_BOUND( '', #184, .T. );
#121 = FACE_OUTER_BOUND( '', #185, .T. );
#122 = TOROIDAL_SURFACE( '', #186, 32.2500000000000, 7.75000000000000 );
#123 = SURFACE_STYLE_USAGE( .BOTH., #187 );
#124 = FACE_OUTER_BOUND( '', #188, .T. );
#125 = FACE_OUTER_BOUND( '', #189, .T. );
#126 = CYLINDRICAL_SURFACE( '', #190, 12.5000000000000 );
#127 = SURFACE_STYLE_USAGE( .BOTH., #191 );
#128 = FACE_OUTER_BOUND( '', #192, .T. );
#129 = PLANE( '', #193 );
#130 = SURFACE_STYLE_USAGE( .BOTH., #194 );
#131 = FACE_BOUND( '', #195, .T. );
#132 = FACE_OUTER_BOUND( '', #196, .T. );
#133 = PLANE( '', #197 );
#134 = SURFACE_STYLE_USAGE( .BOTH., #198 );
#135 = FACE_BOUND( '', #199, .T. );
#136 = FACE_OUTER_BOUND( '', #200, .T. );
#137 = CONICAL_SURFACE( '', #201, 33.0000000000000, 0.471030031100000 );
#138 = SURFACE_STYLE_USAGE( .BOTH., #202 );
#139 = FACE_OUTER_BOUND( '', #203, .T. );
#140 = FACE_OUTER_BOUND( '', #204, .T. );
#141 = TOROIDAL_SURFACE( '', #205, 32.9528845709000, 8.00000000000000 );
#142 = PRODUCT_CONTEXT( '', #25, 'mechanical' );
#143 = PRODUCT_DEFINITION_FORMATION_WITH_SPECIFIED_SOURCE( ' ', 'NONE', #68, .NOT_KNOWN. );
#144 = CLOSED_SHELL( '', ( #47, #43, #53, #49, #61, #63, #59, #51, #41, #65, #57, #45, #67, #55, #39 ) );
#145 = CARTESIAN_POINT( '', ( 0.000000000000000, 0.000000000000000, 0.000000000000000 ) );
#146 = DIRECTION( '', ( 0.000000000000000, 0.000000000000000, 1.00000000000000 ) );
#147 = DIRECTION( '', ( 1.00000000000000, 0.000000000000000, 0.000000000000000 ) );
#148 =  ( LENGTH_UNIT(  )NAMED_UNIT( #77 )SI_UNIT( .MILLI., .METRE. ) );
#149 = SURFACE_SIDE_STYLE( '', ( #207 ) );
#150 = EDGE_LOOP( '', ( #208 ) );
#151 = EDGE_LOOP( '', ( #209 ) );
#152 = AXIS2_PLACEMENT_3D( '', #210, #211, #212 );
#153 = SURFACE_SIDE_STYLE( '', ( #213 ) );
#154 = EDGE_LOOP( '', ( #214 ) );
#155 = EDGE_LOOP( '', ( #215 ) );
#156 = AXIS2_PLACEMENT_3D( '', #216, #217, #218 );
#157 = SURFACE_SIDE_STYLE( '', ( #219 ) );
#158 = EDGE_LOOP( '', ( #220, #221, #222, #223 ) );
#159 = AXIS2_PLACEMENT_3D( '', #224, #225, #226 );
#160 = SURFACE_SIDE_STYLE( '', ( #227 ) );
#161 = EDGE_LOOP( '', ( #228 ) );
#162 = EDGE_LOOP( '', ( #229 ) );
#163 = AXIS2_PLACEMENT_3D( '', #230, #231, #232 );
#164 = SURFACE_SIDE_STYLE( '', ( #233 ) );
#165 = EDGE_LOOP( '', ( #234 ) );
#166 = EDGE_LOOP( '', ( #235, #236, #237, #238 ) );
#167 = AXIS2_PLACEMENT_3D( '', #239, #240, #241 );
#168 = SURFACE_SIDE_STYLE( '', ( #242 ) );
#169 = EDGE_LOOP( '', ( #243, #244, #245, #246 ) );
#170 = AXIS2_PLACEMENT_3D( '', #247, #248, #249 );
#171 = SURFACE_SIDE_STYLE( '', ( #250 ) );
#172 = EDGE_LOOP( '', ( #251 ) );
#173 = EDGE_LOOP( '', ( #252 ) );
#174 = AXIS2_PLACEMENT_3D( '', #253, #254, #255 );
#175 = SURFACE_SIDE_STYLE( '', ( #256 ) );
#176 = EDGE_LOOP( '', ( #257, #258, #259, #260 ) );
#177 = AXIS2_PLACEMENT_3D( '', #261, #262, #263 );
#178 = SURFACE_SIDE_STYLE( '', ( #264 ) );
#179 = EDGE_LOOP( '', ( #265 ) );
#180 = EDGE_LOOP( '', ( #266 ) );
#181 = AXIS2_PLACEMENT_3D( '', #267, #268, #269 );
#182 = SURFACE_SIDE_STYLE( '', ( #270 ) );
#183 = VERTEX_LOOP( '', #271 );
#184 = EDGE_LOOP( '', ( #272 ) );
#185 = EDGE_LOOP( '', ( #273 ) );
#186 = AXIS2_PLACEMENT_3D( '', #274, #275, #276 );
#187 = SURFACE_SIDE_STYLE( '', ( #277 ) );
#188 = EDGE_LOOP( '', ( #278 ) );
#189 = EDGE_LOOP( '', ( #279 ) );
#190 = AXIS2_PLACEMENT_3D( '', #280, #281, #282 );
#191 = SURFACE_SIDE_STYLE( '', ( #283 ) );
#192 = EDGE_LOOP( '', ( #284, #285, #286, #287 ) );
#193 = AXIS2_PLACEMENT_3D( '', #288, #289, #290 );
#194 = SURFACE_SIDE_STYLE( '', ( #291 ) );
#195 = EDGE_LOOP( '', ( #292, #293, #294, #295 ) );
#196 = EDGE_LOOP( '', ( #296 ) );
#197 = AXIS2_PLACEMENT_3D( '', #297, #298, #299 );
#198 = SURFACE_SIDE_STYLE( '', ( #300 ) );
#199 = EDGE_LOOP( '', ( #301 ) );
#200 = EDGE_LOOP( '', ( #302 ) );
#201 = AXIS2_PLACEMENT_3D( '', #303, #304, #305 );
#202 = SURFACE_SIDE_STYLE( '', ( #306 ) );
#203 = EDGE_LOOP( '', ( #307 ) );
#204 = EDGE_LOOP( '', ( #308 ) );
#205 = AXIS2_PLACEMENT_3D( '', #309, #310, #311 );
#207 = SURFACE_STYLE_FILL_AREA( #312 );
#208 = ORIENTED_EDGE( '', *, *, #313, .F. );
#209 = ORIENTED_EDGE( '', *, *, #314, .T. );
#210 = CARTESIAN_POINT( '', ( 0.000000000000000, 0.000000000000000, 0.000000000000000 ) );
#211 = DIRECTION( '', ( 1.00000000000000, -0.000000000000000, -0.000000000000000 ) );
#212 = DIRECTION( '', ( 0.000000000000000, 0.000000000000000, 1.00000000000000 ) );
#213 = SURFACE_STYLE_FILL_AREA( #315 );
#214 = ORIENTED_EDGE( '', *, *, #316, .F. );
#215 = ORIENTED_EDGE( '', *, *, #317, .T. );
#216 = CARTESIAN_POINT( '', ( 16.5000000000000, 0.000000000000000, 0.000000000000000 ) );
#217 = DIRECTION( '', ( -1.00000000000000, -0.000000000000000, -0.000000000000000 ) );
#218 = DIRECTION( '', ( 0.000000000000000, 0.000000000000000, 1.00000000000000 ) );
#219 = SURFACE_STYLE_FILL_AREA( #318 );
#220 = ORIENTED_EDGE( '', *, *, #319, .T. );
#221 = ORIENTED_EDGE( '', *, *, #320, .T. );
#222 = ORIENTED_EDGE( '', *, *, #321, .F. );
#223 = ORIENTED_EDGE( '', *, *, #322, .F. );
#224 = CARTESIAN_POINT( '', ( 24.0000000000000, 6.40000000000000, -1.49999999999999 ) );
#225 = DIRECTION( '', ( 0.000000000000000, -1.00000000000000, 0.000000000000000 ) );
#226 = DIRECTION( '', ( 0.000000000000000, 0.000000000000000, -1.00000000000000 ) );
#227 = SURFACE_STYLE_FILL_AREA( #323 );
#228 = ORIENTED_EDGE( '', *, *, #324, .F. );
#229 = ORIENTED_EDGE( '', *, *, #325, .T. );
#230 = CARTESIAN_POINT( '', ( 28.0000000000000, 0.000000000000000, 0.000000000000000 ) );
#231 = DIRECTION( '', ( 1.00000000000000, -0.000000000000000, 0.000000000000000 ) );
#232 = DIRECTION( '', ( 0.000000000000000, 0.000000000000000, -1.00000000000000 ) );
#233 = SURFACE_STYLE_FILL_AREA( #326 );
#234 = ORIENTED_EDGE( '', *, *, #314, .F. );
#235 = ORIENTED_EDGE( '', *, *, #327, .F. );
#236 = ORIENTED_EDGE( '', *, *, #319, .F. );
#237 = ORIENTED_EDGE( '', *, *, #328, .F. );
#238 = ORIENTED_EDGE( '', *, *, #329, .F. );
#239 = CARTESIAN_POINT( '', ( 16.0000000000000, 0.000000000000000, 0.000000000000000 ) );
#240 = DIRECTION( '', ( -1.00000000000000, 0.000000000000000, 0.000000000000000 ) );
#241 = DIRECTION( '', ( 0.000000000000000, 0.000000000000000, 1.00000000000000 ) );
#242 = SURFACE_STYLE_FILL_AREA( #330 );
#243 = ORIENTED_EDGE( '', *, *, #329, .T. );
#244 = ORIENTED_EDGE( '', *, *, #331, .T. );
#245 = ORIENTED_EDGE( '', *, *, #332, .T. );
#246 = ORIENTED_EDGE( '', *, *, #333, .F. );
#247 = CARTESIAN_POINT( '', ( 24.0000000000000, -9.89334482393023E-16, 0.000000000000000 ) );
#248 = DIRECTION( '', ( 1.00000000000000, -0.000000000000000, -0.000000000000000 ) );
#249 = DIRECTION( '', ( 0.000000000000000, 0.000000000000000, 1.00000000000000 ) );
#250 = SURFACE_STYLE_FILL_AREA( #334 );
#251 = ORIENTED_EDGE( '', *, *, #335, .F. );
#252 = ORIENTED_EDGE( '', *, *, #316, .T. );
#253 = CARTESIAN_POINT( '', ( 18.0000000000000, 0.000000000000000, 0.000000000000000 ) );
#254 = DIRECTION( '', ( 1.00000000000000, -0.000000000000000, 0.000000000000000 ) );
#255 = DIRECTION( '', ( 0.000000000000000, 0.000000000000000, -1.00000000000000 ) );
#256 = SURFACE_STYLE_FILL_AREA( #336 );
#257 = ORIENTED_EDGE( '', *, *, #328, .T. );
#258 = ORIENTED_EDGE( '', *, *, #322, .T. );
#259 = ORIENTED_EDGE( '', *, *, #337, .F. );
#260 = ORIENTED_EDGE( '', *, *, #331, .F. );
#261 = CARTESIAN_POINT( '', ( 24.0000000000000, 4.76969600708473, -1.50000000000000 ) );
#262 = DIRECTION( '', ( 0.000000000000000, -4.38920248585579E-15, 1.00000000000000 ) );
#263 = DIRECTION( '', ( 0.000000000000000, -1.00000000000000, -4.38920248585579E-15 ) );
#264 = SURFACE_STYLE_FILL_AREA( #338 );
#265 = ORIENTED_EDGE( '', *, *, #339, .F. );
#266 = ORIENTED_EDGE( '', *, *, #313, .T. );
#267 = CARTESIAN_POINT( '', ( 13.0000000000000, 0.000000000000000, 0.000000000000000 ) );
#268 = DIRECTION( '', ( 1.00000000000000, -0.000000000000000, 0.000000000000000 ) );
#269 = DIRECTION( '', ( 0.000000000000000, 0.000000000000000, -1.00000000000000 ) );
#270 = SURFACE_STYLE_FILL_AREA( #340 );
#271 = VERTEX_POINT( '', #341 );
#272 = ORIENTED_EDGE( '', *, *, #324, .T. );
#273 = ORIENTED_EDGE( '', *, *, #342, .F. );
#274 = CARTESIAN_POINT( '', ( 22.2500000000000, 0.000000000000000, 0.000000000000000 ) );
#275 = DIRECTION( '', ( -1.00000000000000, 0.000000000000000, 0.000000000000000 ) );
#276 = DIRECTION( '', ( 0.000000000000000, 0.000000000000000, 1.00000000000000 ) );
#277 = SURFACE_STYLE_FILL_AREA( #343 );
#278 = ORIENTED_EDGE( '', *, *, #344, .F. );
#279 = ORIENTED_EDGE( '', *, *, #335, .T. );
#280 = CARTESIAN_POINT( '', ( 0.000000000000000, 0.000000000000000, 0.000000000000000 ) );
#281 = DIRECTION( '', ( 1.00000000000000, -0.000000000000000, -0.000000000000000 ) );
#282 = DIRECTION( '', ( 0.000000000000000, 0.000000000000000, 1.00000000000000 ) );
#283 = SURFACE_STYLE_FILL_AREA( #345 );
#284 = ORIENTED_EDGE( '', *, *, #327, .T. );
#285 = ORIENTED_EDGE( '', *, *, #333, .T. );
#286 = ORIENTED_EDGE( '', *, *, #346, .F. );
#287 = ORIENTED_EDGE( '', *, *, #320, .F. );
#288 = CARTESIAN_POINT( '', ( 24.0000000000000, 6.40000000000000, 1.50000000000000 ) );
#289 = DIRECTION( '', ( 0.000000000000000, 0.000000000000000, -1.00000000000000 ) );
#290 = DIRECTION( '', ( -1.00000000000000, 0.000000000000000, 0.000000000000000 ) );
#291 = SURFACE_STYLE_FILL_AREA( #347 );
#292 = ORIENTED_EDGE( '', *, *, #346, .T. );
#293 = ORIENTED_EDGE( '', *, *, #332, .F. );
#294 = ORIENTED_EDGE( '', *, *, #337, .T. );
#295 = ORIENTED_EDGE( '', *, *, #321, .T. );
#296 = ORIENTED_EDGE( '', *, *, #344, .T. );
#297 = CARTESIAN_POINT( '', ( 0.000000000000000, -12.5000000000000, 0.000000000000000 ) );
#298 = DIRECTION( '', ( 1.00000000000000, 0.000000000000000, 0.000000000000000 ) );
#299 = DIRECTION( '', ( 0.000000000000000, 0.000000000000000, -1.00000000000000 ) );
#300 = SURFACE_STYLE_FILL_AREA( #348 );
#301 = ORIENTED_EDGE( '', *, *, #317, .F. );
#302 = ORIENTED_EDGE( '', *, *, #342, .T. );
#303 = CARTESIAN_POINT( '', ( 14.5363756897292, 0.000000000000000, 0.000000000000000 ) );
#304 = DIRECTION( '', ( -1.00000000000000, -0.000000000000000, -0.000000000000000 ) );
#305 = DIRECTION( '', ( 0.000000000000000, 0.000000000000000, 1.00000000000000 ) );
#306 = SURFACE_STYLE_FILL_AREA( #349 );
#307 = ORIENTED_EDGE( '', *, *, #339, .T. );
#308 = ORIENTED_EDGE( '', *, *, #325, .F. );
#309 = CARTESIAN_POINT( '', ( 20.1330357555473, 0.000000000000000, 0.000000000000000 ) );
#310 = DIRECTION( '', ( -1.00000000000000, 0.000000000000000, 0.000000000000000 ) );
#311 = DIRECTION( '', ( 0.000000000000000, 0.000000000000000, 1.00000000000000 ) );
#312 = FILL_AREA_STYLE( '', ( #350 ) );
#313 = EDGE_CURVE( '', #351, #351, #352, .T. );
#314 = EDGE_CURVE( '', #353, #353, #354, .T. );
#315 = FILL_AREA_STYLE( '', ( #355 ) );
#316 = EDGE_CURVE( '', #356, #356, #357, .T. );
#317 = EDGE_CURVE( '', #358, #358, #359, .T. );
#318 = FILL_AREA_STYLE( '', ( #360 ) );
#319 = EDGE_CURVE( '', #361, #362, #363, .T. );
#320 = EDGE_CURVE( '', #362, #364, #365, .T. );
#321 = EDGE_CURVE( '', #366, #364, #367, .T. );
#322 = EDGE_CURVE( '', #361, #366, #368, .T. );
#323 = FILL_AREA_STYLE( '', ( #369 ) );
#324 = EDGE_CURVE( '', #370, #370, #371, .T. );
#325 = EDGE_CURVE( '', #372, #372, #373, .T. );
#326 = FILL_AREA_STYLE( '', ( #374 ) );
#327 = EDGE_CURVE( '', #362, #375, #376, .T. );
#328 = EDGE_CURVE( '', #377, #361, #378, .T. );
#329 = EDGE_CURVE( '', #375, #377, #379, .F. );
#330 = FILL_AREA_STYLE( '', ( #380 ) );
#331 = EDGE_CURVE( '', #377, #381, #382, .T. );
#332 = EDGE_CURVE( '', #381, #383, #384, .F. );
#333 = EDGE_CURVE( '', #375, #383, #385, .T. );
#334 = FILL_AREA_STYLE( '', ( #386 ) );
#335 = EDGE_CURVE( '', #387, #387, #388, .T. );
#336 = FILL_AREA_STYLE( '', ( #389 ) );
#337 = EDGE_CURVE( '', #381, #366, #390, .T. );
#338 = FILL_AREA_STYLE( '', ( #391 ) );
#339 = EDGE_CURVE( '', #392, #392, #393, .T. );
#340 = FILL_AREA_STYLE( '', ( #394 ) );
#341 = CARTESIAN_POINT( '', ( 22.2500000000000, 0.000000000000000, 40.0000000000000 ) );
#342 = EDGE_CURVE( '', #395, #395, #396, .T. );
#343 = FILL_AREA_STYLE( '', ( #397 ) );
#344 = EDGE_CURVE( '', #398, #398, #399, .T. );
#345 = FILL_AREA_STYLE( '', ( #400 ) );
#346 = EDGE_CURVE( '', #364, #383, #401, .T. );
#347 = FILL_AREA_STYLE( '', ( #402 ) );
#348 = FILL_AREA_STYLE( '', ( #403 ) );
#349 = FILL_AREA_STYLE( '', ( #404 ) );
#350 = FILL_AREA_STYLE_COLOUR( '', #405 );
#351 = VERTEX_POINT( '', #406 );
#352 = CIRCLE( '', #407, 12.5000000000000 );
#353 = VERTEX_POINT( '', #408 );
#354 = CIRCLE( '', #409, 12.5000000000000 );
#355 = FILL_AREA_STYLE_COLOUR( '', #410 );
#356 = VERTEX_POINT( '', #411 );
#357 = CIRCLE( '', #412, 28.0000000000000 );
#358 = VERTEX_POINT( '', #413 );
#359 = CIRCLE( '', #414, 32.0000000000000 );
#360 = FILL_AREA_STYLE_COLOUR( '', #415 );
#361 = VERTEX_POINT( '', #416 );
#362 = VERTEX_POINT( '', #417 );
#363 = LINE( '', #418, #419 );
#364 = VERTEX_POINT( '', #420 );
#365 = LINE( '', #421, #422 );
#366 = VERTEX_POINT( '', #423 );
#367 = LINE( '', #424, #425 );
#368 = LINE( '', #426, #427 );
#369 = FILL_AREA_STYLE_COLOUR( '', #428 );
#370 = VERTEX_POINT( '', #429 );
#371 = CIRCLE( '', #430, 32.0000000000000 );
#372 = VERTEX_POINT( '', #431 );
#373 = CIRCLE( '', #432, 31.5000000000000 );
#374 = FILL_AREA_STYLE_COLOUR( '', #433 );
#375 = VERTEX_POINT( '', #434 );
#376 = LINE( '', #435, #436 );
#377 = VERTEX_POINT( '', #437 );
#378 = LINE( '', #438, #439 );
#379 = CIRCLE( '', #440, 5.00000000000000 );
#380 = FILL_AREA_STYLE_COLOUR( '', #441 );
#381 = VERTEX_POINT( '', #442 );
#382 = LINE( '', #443, #444 );
#383 = VERTEX_POINT( '', #445 );
#384 = CIRCLE( '', #446, 5.00000000000000 );
#385 = LINE( '', #447, #448 );
#386 = FILL_AREA_STYLE_COLOUR( '', #449 );
#387 = VERTEX_POINT( '', #450 );
#388 = CIRCLE( '', #451, 12.5000000000000 );
#389 = FILL_AREA_STYLE_COLOUR( '', #452 );
#390 = LINE( '', #453, #454 );
#391 = FILL_AREA_STYLE_COLOUR( '', #455 );
#392 = VERTEX_POINT( '', #456 );
#393 = CIRCLE( '', #457, 25.0000000000000 );
#394 = FILL_AREA_STYLE_COLOUR( '', #458 );
#395 = VERTEX_POINT( '', #459 );
#396 = CIRCLE( '', #460, 33.0000000000000 );
#397 = FILL_AREA_STYLE_COLOUR( '', #461 );
#398 = VERTEX_POINT( '', #462 );
#399 = CIRCLE( '', #463, 12.5000000000000 );
#400 = FILL_AREA_STYLE_COLOUR( '', #464 );
#401 = LINE( '', #465, #466 );
#402 = FILL_AREA_STYLE_COLOUR( '', #467 );
#403 = FILL_AREA_STYLE_COLOUR( '', #468 );
#404 = FILL_AREA_STYLE_COLOUR( '', #469 );
#405 = COLOUR_RGB( '', 0.689999997600000, 0.689999997600000, 0.689999997600000 );
#406 = CARTESIAN_POINT( '', ( 13.0000000000000, 0.000000000000000, 12.5000000000000 ) );
#407 = AXIS2_PLACEMENT_3D( '', #470, #471, #472 );
#408 = CARTESIAN_POINT( '', ( 16.0000000000000, 0.000000000000000, 12.5000000000000 ) );
#409 = AXIS2_PLACEMENT_3D( '', #473, #474, #475 );
#410 = COLOUR_RGB( '', 0.689999997600000, 0.689999997600000, 0.689999997600000 );
#411 = CARTESIAN_POINT( '', ( 18.0000000000000, 0.000000000000000, 28.0000000000000 ) );
#412 = AXIS2_PLACEMENT_3D( '', #476, #477, #478 );
#413 = CARTESIAN_POINT( '', ( 16.5000000000000, 0.000000000000000, 32.0000000000000 ) );
#414 = AXIS2_PLACEMENT_3D( '', #479, #480, #481 );
#415 = COLOUR_RGB( '', 0.689999997600000, 0.689999997600000, 0.689999997600000 );
#416 = CARTESIAN_POINT( '', ( 16.0000000000000, 6.40000000000000, -1.49999999999999 ) );
#417 = CARTESIAN_POINT( '', ( 16.0000000000000, 6.40000000000000, 1.50000000000000 ) );
#418 = CARTESIAN_POINT( '', ( 16.0000000000000, 6.40000000000000, 0.000000000000000 ) );
#419 = VECTOR( '', #482, 1000.00000000000 );
#420 = CARTESIAN_POINT( '', ( 0.000000000000000, 6.40000000000000, 1.50000000000000 ) );
#421 = CARTESIAN_POINT( '', ( 24.0000000000000, 6.40000000000000, 1.50000000000000 ) );
#422 = VECTOR( '', #483, 1000.00000000000 );
#423 = CARTESIAN_POINT( '', ( 0.000000000000000, 6.40000000000000, -1.49999999999999 ) );
#424 = CARTESIAN_POINT( '', ( 0.000000000000000, 6.40000000000000, -1.49999999999999 ) );
#425 = VECTOR( '', #484, 1000.00000000000 );
#426 = CARTESIAN_POINT( '', ( 24.0000000000000, 6.40000000000000, -1.49999999999999 ) );
#427 = VECTOR( '', #485, 1000.00000000000 );
#428 = COLOUR_RGB( '', 0.689999997600000, 0.689999997600000, 0.689999997600000 );
#429 = CARTESIAN_POINT( '', ( 29.9959666924148, 0.000000000000000, 32.0000000000000 ) );
#430 = AXIS2_PLACEMENT_3D( '', #486, #487, #488 );
#431 = CARTESIAN_POINT( '', ( 28.0000000000000, 0.000000000000000, 31.5000000000000 ) );
#432 = AXIS2_PLACEMENT_3D( '', #489, #490, #491 );
#433 = COLOUR_RGB( '', 0.689999997600000, 0.689999997600000, 0.689999997600000 );
#434 = CARTESIAN_POINT( '', ( 16.0000000000000, 4.76969600708473, 1.50000000000000 ) );
#435 = CARTESIAN_POINT( '', ( 16.0000000000000, 0.000000000000000, 1.50000000000000 ) );
#436 = VECTOR( '', #492, 1000.00000000000 );
#437 = CARTESIAN_POINT( '', ( 16.0000000000000, 4.76969600708473, -1.50000000000000 ) );
#438 = CARTESIAN_POINT( '', ( 16.0000000000000, 6.58380372878377E-15, -1.50000000000002 ) );
#439 = VECTOR( '', #493, 1000.00000000000 );
#440 = AXIS2_PLACEMENT_3D( '', #494, #495, #496 );
#441 = COLOUR_RGB( '', 0.689999997600000, 0.689999997600000, 0.689999997600000 );
#442 = CARTESIAN_POINT( '', ( 0.000000000000000, 4.76969600708473, -1.50000000000000 ) );
#443 = CARTESIAN_POINT( '', ( 24.0000000000000, 4.76969600708473, -1.50000000000000 ) );
#444 = VECTOR( '', #497, 1000.00000000000 );
#445 = CARTESIAN_POINT( '', ( 0.000000000000000, 4.76969600708473, 1.50000000000000 ) );
#446 = AXIS2_PLACEMENT_3D( '', #498, #499, #500 );
#447 = CARTESIAN_POINT( '', ( 24.0000000000000, 4.76969600708473, 1.50000000000000 ) );
#448 = VECTOR( '', #501, 1000.00000000000 );
#449 = COLOUR_RGB( '', 0.689999997600000, 0.689999997600000, 0.689999997600000 );
#450 = CARTESIAN_POINT( '', ( 6.00000000000000, 0.000000000000000, 12.5000000000000 ) );
#451 = AXIS2_PLACEMENT_3D( '', #502, #503, #504 );
#452 = COLOUR_RGB( '', 0.689999997600000, 0.689999997600000, 0.689999997600000 );
#453 = CARTESIAN_POINT( '', ( 0.000000000000000, 4.76969600708473, -1.50000000000000 ) );
#454 = VECTOR( '', #505, 1000.00000000000 );
#455 = COLOUR_RGB( '', 0.689999997600000, 0.689999997600000, 0.689999997600000 );
#456 = CARTESIAN_POINT( '', ( 21.0000000000000, 0.000000000000000, 25.0000000000000 ) );
#457 = AXIS2_PLACEMENT_3D( '', #506, #507, #508 );
#458 = COLOUR_RGB( '', 0.689999997600000, 0.689999997600000, 0.689999997600000 );
#459 = CARTESIAN_POINT( '', ( 14.5363756897292, 0.000000000000000, 33.0000000000000 ) );
#460 = AXIS2_PLACEMENT_3D( '', #509, #510, #511 );
#461 = COLOUR_RGB( '', 0.689999997600000, 0.689999997600000, 0.689999997600000 );
#462 = CARTESIAN_POINT( '', ( 0.000000000000000, 0.000000000000000, 12.5000000000000 ) );
#463 = AXIS2_PLACEMENT_3D( '', #512, #513, #514 );
#464 = COLOUR_RGB( '', 0.689999997600000, 0.689999997600000, 0.689999997600000 );
#465 = CARTESIAN_POINT( '', ( 0.000000000000000, 6.40000000000000, 1.50000000000000 ) );
#466 = VECTOR( '', #515, 1000.00000000000 );
#467 = COLOUR_RGB( '', 0.689999997600000, 0.689999997600000, 0.689999997600000 );
#468 = COLOUR_RGB( '', 0.689999997600000, 0.689999997600000, 0.689999997600000 );
#469 = COLOUR_RGB( '', 0.689999997600000, 0.689999997600000, 0.689999997600000 );
#470 = CARTESIAN_POINT( '', ( 13.0000000000000, 0.000000000000000, 0.000000000000000 ) );
#471 = DIRECTION( '', ( -1.00000000000000, 0.000000000000000, 0.000000000000000 ) );
#472 = DIRECTION( '', ( 0.000000000000000, 0.000000000000000, 1.00000000000000 ) );
#473 = CARTESIAN_POINT( '', ( 16.0000000000000, 0.000000000000000, 0.000000000000000 ) );
#474 = DIRECTION( '', ( -1.00000000000000, 0.000000000000000, 0.000000000000000 ) );
#475 = DIRECTION( '', ( 0.000000000000000, 0.000000000000000, 1.00000000000000 ) );
#476 = CARTESIAN_POINT( '', ( 18.0000000000000, 0.000000000000000, 0.000000000000000 ) );
#477 = DIRECTION( '', ( -1.00000000000000, 0.000000000000000, 0.000000000000000 ) );
#478 = DIRECTION( '', ( 0.000000000000000, 0.000000000000000, 1.00000000000000 ) );
#479 = CARTESIAN_POINT( '', ( 16.5000000000000, 0.000000000000000, 0.000000000000000 ) );
#480 = DIRECTION( '', ( -1.00000000000000, 0.000000000000000, 0.000000000000000 ) );
#481 = DIRECTION( '', ( 0.000000000000000, 0.000000000000000, 1.00000000000000 ) );
#482 = DIRECTION( '', ( 0.000000000000000, 0.000000000000000, 1.00000000000000 ) );
#483 = DIRECTION( '', ( -1.00000000000000, -0.000000000000000, -0.000000000000000 ) );
#484 = DIRECTION( '', ( 0.000000000000000, 0.000000000000000, 1.00000000000000 ) );
#485 = DIRECTION( '', ( -1.00000000000000, -0.000000000000000, -0.000000000000000 ) );
#486 = CARTESIAN_POINT( '', ( 29.9959666924148, 0.000000000000000, 0.000000000000000 ) );
#487 = DIRECTION( '', ( -1.00000000000000, 0.000000000000000, 0.000000000000000 ) );
#488 = DIRECTION( '', ( 0.000000000000000, 0.000000000000000, 1.00000000000000 ) );
#489 = CARTESIAN_POINT( '', ( 28.0000000000000, 0.000000000000000, 0.000000000000000 ) );
#490 = DIRECTION( '', ( -1.00000000000000, 0.000000000000000, 0.000000000000000 ) );
#491 = DIRECTION( '', ( 0.000000000000000, 0.000000000000000, 1.00000000000000 ) );
#492 = DIRECTION( '', ( 0.000000000000000, -1.00000000000000, 0.000000000000000 ) );
#493 = DIRECTION( '', ( 0.000000000000000, 1.00000000000000, 4.38920248585579E-15 ) );
#494 = CARTESIAN_POINT( '', ( 16.0000000000000, -9.89334482393023E-16, 0.000000000000000 ) );
#495 = DIRECTION( '', ( -1.00000000000000, 0.000000000000000, 0.000000000000000 ) );
#496 = DIRECTION( '', ( 0.000000000000000, 0.000000000000000, 1.00000000000000 ) );
#497 = DIRECTION( '', ( -1.00000000000000, -0.000000000000000, -0.000000000000000 ) );
#498 = CARTESIAN_POINT( '', ( 0.000000000000000, -9.89334482393023E-16, 0.000000000000000 ) );
#499 = DIRECTION( '', ( 1.00000000000000, 0.000000000000000, 0.000000000000000 ) );
#500 = DIRECTION( '', ( 0.000000000000000, 0.000000000000000, -1.00000000000000 ) );
#501 = DIRECTION( '', ( -1.00000000000000, -0.000000000000000, -0.000000000000000 ) );
#502 = CARTESIAN_POINT( '', ( 6.00000000000000, 0.000000000000000, 0.000000000000000 ) );
#503 = DIRECTION( '', ( -1.00000000000000, 0.000000000000000, 0.000000000000000 ) );
#504 = DIRECTION( '', ( 0.000000000000000, 0.000000000000000, 1.00000000000000 ) );
#505 = DIRECTION( '', ( 0.000000000000000, 1.00000000000000, 4.38920248585579E-15 ) );
#506 = CARTESIAN_POINT( '', ( 21.0000000000000, 0.000000000000000, 0.000000000000000 ) );
#507 = DIRECTION( '', ( -1.00000000000000, 0.000000000000000, 0.000000000000000 ) );
#508 = DIRECTION( '', ( 0.000000000000000, 0.000000000000000, 1.00000000000000 ) );
#509 = CARTESIAN_POINT( '', ( 14.5363756897292, 0.000000000000000, 0.000000000000000 ) );
#510 = DIRECTION( '', ( -1.00000000000000, 0.000000000000000, 0.000000000000000 ) );
#511 = DIRECTION( '', ( 0.000000000000000, 0.000000000000000, 1.00000000000000 ) );
#512 = CARTESIAN_POINT( '', ( 0.000000000000000, 0.000000000000000, 0.000000000000000 ) );
#513 = DIRECTION( '', ( -1.00000000000000, 0.000000000000000, 0.000000000000000 ) );
#514 = DIRECTION( '', ( 0.000000000000000, 0.000000000000000, 1.00000000000000 ) );
#515 = DIRECTION( '', ( 0.000000000000000, -1.00000000000000, 0.000000000000000 ) );
ENDSEC;
END-ISO-10303-21;
