ISO-10303-21;
HEADER;
FILE_DESCRIPTION( ( 'STEP AP214' ), '1' );
FILE_NAME( '//goodhand-server/Shared Folders/GoodHand Data/Kipp CAD/K1043/K1043.061.stp', '2020-12-10T09:25:06', ( '' ), ( '' ), ' ', 'PARTsolutions', ' ' );
FILE_SCHEMA( ( 'AUTOMOTIVE_DESIGN { 1 0 10303 214 1 1 1 1 }' ) );
ENDSEC;
DATA;
#1 = MECHANICAL_DESIGN_GEOMETRIC_PRESENTATION_REPRESENTATION( ' ', ( #10, #11, #12, #13, #14, #15, #16, #17, #18, #19, #20, #21 ), #6 );
#2 = PRODUCT_DEFINITION_CONTEXT( '', #22, 'design' );
#3 = APPLICATION_PROTOCOL_DEFINITION( 'international standard', 'automotive_design', 2001, #22 );
#4 = PRODUCT_CATEGORY_RELATIONSHIP( 'NONE', 'NONE', #23, #24 );
#5 = SHAPE_DEFINITION_REPRESENTATION( #25, #26 );
#6 =  ( GEOMETRIC_REPRESENTATION_CONTEXT( 3 )GLOBAL_UNCERTAINTY_ASSIGNED_CONTEXT( ( #29 ) )GLOBAL_UNIT_ASSIGNED_CONTEXT( ( #31, #32, #33 ) )REPRESENTATION_CONTEXT( 'NONE', 'WORKSPACE' ) );
#10 = STYLED_ITEM( '', ( #35 ), #36 );
#11 = STYLED_ITEM( '', ( #37 ), #38 );
#12 = STYLED_ITEM( '', ( #39 ), #40 );
#13 = STYLED_ITEM( '', ( #41 ), #42 );
#14 = STYLED_ITEM( '', ( #43 ), #44 );
#15 = STYLED_ITEM( '', ( #45 ), #46 );
#16 = STYLED_ITEM( '', ( #47 ), #48 );
#17 = STYLED_ITEM( '', ( #49 ), #50 );
#18 = STYLED_ITEM( '', ( #51 ), #52 );
#19 = STYLED_ITEM( '', ( #53 ), #54 );
#20 = STYLED_ITEM( '', ( #55 ), #56 );
#21 = STYLED_ITEM( '', ( #57 ), #58 );
#22 = APPLICATION_CONTEXT( 'core data for automotive mechanical design processes' );
#23 = PRODUCT_CATEGORY( 'part', 'NONE' );
#24 = PRODUCT_RELATED_PRODUCT_CATEGORY( 'detail', ' ', ( #59 ) );
#25 = PRODUCT_DEFINITION_SHAPE( 'NONE', 'NONE', #60 );
#26 = ADVANCED_BREP_SHAPE_REPRESENTATION( '_K1043.061', ( #61, #62 ), #6 );
#29 = UNCERTAINTY_MEASURE_WITH_UNIT( LENGTH_MEASURE( 0.00100000000000000 ), #31, '', '' );
#31 =  ( CONVERSION_BASED_UNIT( 'MILLIMETRE', #65 )LENGTH_UNIT(  )NAMED_UNIT( #68 ) );
#32 =  ( NAMED_UNIT( #70 )PLANE_ANGLE_UNIT(  )SI_UNIT( $, .RADIAN. ) );
#33 =  ( NAMED_UNIT( #70 )SI_UNIT( $, .STERADIAN. )SOLID_ANGLE_UNIT(  ) );
#35 = PRESENTATION_STYLE_ASSIGNMENT( ( #76 ) );
#36 = ADVANCED_FACE( '', ( #77, #78 ), #79, .F. );
#37 = PRESENTATION_STYLE_ASSIGNMENT( ( #80 ) );
#38 = ADVANCED_FACE( '', ( #81 ), #82, .F. );
#39 = PRESENTATION_STYLE_ASSIGNMENT( ( #83 ) );
#40 = ADVANCED_FACE( '', ( #84, #85 ), #86, .F. );
#41 = PRESENTATION_STYLE_ASSIGNMENT( ( #87 ) );
#42 = ADVANCED_FACE( '', ( #88 ), #89, .T. );
#43 = PRESENTATION_STYLE_ASSIGNMENT( ( #90 ) );
#44 = ADVANCED_FACE( '', ( #91, #92 ), #93, .F. );
#45 = PRESENTATION_STYLE_ASSIGNMENT( ( #94 ) );
#46 = ADVANCED_FACE( '', ( #95, #96 ), #97, .F. );
#47 = PRESENTATION_STYLE_ASSIGNMENT( ( #98 ) );
#48 = ADVANCED_FACE( '', ( #99, #100 ), #101, .F. );
#49 = PRESENTATION_STYLE_ASSIGNMENT( ( #102 ) );
#50 = ADVANCED_FACE( '', ( #103, #104 ), #105, .F. );
#51 = PRESENTATION_STYLE_ASSIGNMENT( ( #106 ) );
#52 = ADVANCED_FACE( '', ( #107, #108 ), #109, .F. );
#53 = PRESENTATION_STYLE_ASSIGNMENT( ( #110 ) );
#54 = ADVANCED_FACE( '', ( #111 ), #112, .F. );
#55 = PRESENTATION_STYLE_ASSIGNMENT( ( #113 ) );
#56 = ADVANCED_FACE( '', ( #114 ), #115, .F. );
#57 = PRESENTATION_STYLE_ASSIGNMENT( ( #116 ) );
#58 = ADVANCED_FACE( '', ( #117, #118 ), #119, .F. );
#59 = PRODUCT( '_K1043.061', '_K1043.061', 'PART-_K1043.061-DESC', ( #120 ) );
#60 = PRODUCT_DEFINITION( 'NONE', 'NONE', #121, #2 );
#61 = MANIFOLD_SOLID_BREP( '_K1043.061', #122 );
#62 = AXIS2_PLACEMENT_3D( '', #123, #124, #125 );
#65 = LENGTH_MEASURE_WITH_UNIT( LENGTH_MEASURE( 1.00000000000000 ), #126 );
#68 = DIMENSIONAL_EXPONENTS( 1.00000000000000, 0.000000000000000, 0.000000000000000, 0.000000000000000, 0.000000000000000, 0.000000000000000, 0.000000000000000 );
#70 = DIMENSIONAL_EXPONENTS( 0.000000000000000, 0.000000000000000, 0.000000000000000, 0.000000000000000, 0.000000000000000, 0.000000000000000, 0.000000000000000 );
#76 = SURFACE_STYLE_USAGE( .BOTH., #127 );
#77 = FACE_BOUND( '', #128, .T. );
#78 = FACE_OUTER_BOUND( '', #129, .T. );
#79 = PLANE( '', #130 );
#80 = SURFACE_STYLE_USAGE( .BOTH., #131 );
#81 = FACE_OUTER_BOUND( '', #132, .T. );
#82 = PLANE( '', #133 );
#83 = SURFACE_STYLE_USAGE( .BOTH., #134 );
#84 = FACE_OUTER_BOUND( '', #135, .T. );
#85 = FACE_OUTER_BOUND( '', #136, .T. );
#86 = CYLINDRICAL_SURFACE( '', #137, 3.20000000000000 );
#87 = SURFACE_STYLE_USAGE( .BOTH., #138 );
#88 = FACE_OUTER_BOUND( '', #139, .T. );
#89 = PLANE( '', #140 );
#90 = SURFACE_STYLE_USAGE( .BOTH., #141 );
#91 = FACE_BOUND( '', #142, .T. );
#92 = FACE_OUTER_BOUND( '', #143, .T. );
#93 = PLANE( '', #144 );
#94 = SURFACE_STYLE_USAGE( .BOTH., #145 );
#95 = FACE_OUTER_BOUND( '', #146, .T. );
#96 = FACE_OUTER_BOUND( '', #147, .T. );
#97 = CYLINDRICAL_SURFACE( '', #148, 3.20000000000000 );
#98 = SURFACE_STYLE_USAGE( .BOTH., #149 );
#99 = FACE_BOUND( '', #150, .T. );
#100 = FACE_OUTER_BOUND( '', #151, .T. );
#101 = PLANE( '', #152 );
#102 = SURFACE_STYLE_USAGE( .BOTH., #153 );
#103 = FACE_OUTER_BOUND( '', #154, .T. );
#104 = FACE_BOUND( '', #155, .T. );
#105 = CONICAL_SURFACE( '', #156, 3.20000000000000, 0.785398163400000 );
#106 = SURFACE_STYLE_USAGE( .BOTH., #157 );
#107 = FACE_BOUND( '', #158, .T. );
#108 = FACE_OUTER_BOUND( '', #159, .T. );
#109 = CONICAL_SURFACE( '', #160, 6.10000000000000, 0.785398163400000 );
#110 = SURFACE_STYLE_USAGE( .BOTH., #161 );
#111 = FACE_OUTER_BOUND( '', #162, .T. );
#112 = PLANE( '', #163 );
#113 = SURFACE_STYLE_USAGE( .BOTH., #164 );
#114 = FACE_OUTER_BOUND( '', #165, .T. );
#115 = PLANE( '', #166 );
#116 = SURFACE_STYLE_USAGE( .BOTH., #167 );
#117 = FACE_BOUND( '', #168, .T. );
#118 = FACE_OUTER_BOUND( '', #169, .T. );
#119 = PLANE( '', #170 );
#120 = PRODUCT_CONTEXT( '', #22, 'mechanical' );
#121 = PRODUCT_DEFINITION_FORMATION_WITH_SPECIFIED_SOURCE( ' ', 'NONE', #59, .NOT_KNOWN. );
#122 = CLOSED_SHELL( '', ( #44, #42, #48, #56, #58, #36, #38, #52, #40, #54, #46, #50 ) );
#123 = CARTESIAN_POINT( '', ( 0.000000000000000, 0.000000000000000, 0.000000000000000 ) );
#124 = DIRECTION( '', ( 0.000000000000000, 0.000000000000000, 1.00000000000000 ) );
#125 = DIRECTION( '', ( 1.00000000000000, 0.000000000000000, 0.000000000000000 ) );
#126 =  ( LENGTH_UNIT(  )NAMED_UNIT( #68 )SI_UNIT( .MILLI., .METRE. ) );
#127 = SURFACE_SIDE_STYLE( '', ( #172 ) );
#128 = EDGE_LOOP( '', ( #173 ) );
#129 = EDGE_LOOP( '', ( #174, #175, #176, #177 ) );
#130 = AXIS2_PLACEMENT_3D( '', #178, #179, #180 );
#131 = SURFACE_SIDE_STYLE( '', ( #181 ) );
#132 = EDGE_LOOP( '', ( #182, #183, #184, #185 ) );
#133 = AXIS2_PLACEMENT_3D( '', #186, #187, #188 );
#134 = SURFACE_SIDE_STYLE( '', ( #189 ) );
#135 = EDGE_LOOP( '', ( #190 ) );
#136 = EDGE_LOOP( '', ( #191 ) );
#137 = AXIS2_PLACEMENT_3D( '', #192, #193, #194 );
#138 = SURFACE_SIDE_STYLE( '', ( #195 ) );
#139 = EDGE_LOOP( '', ( #196, #197, #198, #199, #200, #201 ) );
#140 = AXIS2_PLACEMENT_3D( '', #202, #203, #204 );
#141 = SURFACE_SIDE_STYLE( '', ( #205 ) );
#142 = EDGE_LOOP( '', ( #206 ) );
#143 = EDGE_LOOP( '', ( #207, #208, #209, #210 ) );
#144 = AXIS2_PLACEMENT_3D( '', #211, #212, #213 );
#145 = SURFACE_SIDE_STYLE( '', ( #214 ) );
#146 = EDGE_LOOP( '', ( #215 ) );
#147 = EDGE_LOOP( '', ( #216 ) );
#148 = AXIS2_PLACEMENT_3D( '', #217, #218, #219 );
#149 = SURFACE_SIDE_STYLE( '', ( #220 ) );
#150 = EDGE_LOOP( '', ( #221 ) );
#151 = EDGE_LOOP( '', ( #222, #223, #224, #225 ) );
#152 = AXIS2_PLACEMENT_3D( '', #226, #227, #228 );
#153 = SURFACE_SIDE_STYLE( '', ( #229 ) );
#154 = EDGE_LOOP( '', ( #230 ) );
#155 = EDGE_LOOP( '', ( #231 ) );
#156 = AXIS2_PLACEMENT_3D( '', #232, #233, #234 );
#157 = SURFACE_SIDE_STYLE( '', ( #235 ) );
#158 = EDGE_LOOP( '', ( #236 ) );
#159 = EDGE_LOOP( '', ( #237 ) );
#160 = AXIS2_PLACEMENT_3D( '', #238, #239, #240 );
#161 = SURFACE_SIDE_STYLE( '', ( #241 ) );
#162 = EDGE_LOOP( '', ( #242, #243, #244, #245, #246, #247 ) );
#163 = AXIS2_PLACEMENT_3D( '', #248, #249, #250 );
#164 = SURFACE_SIDE_STYLE( '', ( #251 ) );
#165 = EDGE_LOOP( '', ( #252, #253, #254, #255 ) );
#166 = AXIS2_PLACEMENT_3D( '', #256, #257, #258 );
#167 = SURFACE_SIDE_STYLE( '', ( #259 ) );
#168 = EDGE_LOOP( '', ( #260 ) );
#169 = EDGE_LOOP( '', ( #261, #262, #263, #264 ) );
#170 = AXIS2_PLACEMENT_3D( '', #265, #266, #267 );
#172 = SURFACE_STYLE_FILL_AREA( #268 );
#173 = ORIENTED_EDGE( '', *, *, #269, .F. );
#174 = ORIENTED_EDGE( '', *, *, #270, .T. );
#175 = ORIENTED_EDGE( '', *, *, #271, .F. );
#176 = ORIENTED_EDGE( '', *, *, #272, .F. );
#177 = ORIENTED_EDGE( '', *, *, #273, .T. );
#178 = CARTESIAN_POINT( '', ( 0.000000000000000, 0.000000000000000, 15.0000000000000 ) );
#179 = DIRECTION( '', ( 0.000000000000000, 1.00000000000000, 0.000000000000000 ) );
#180 = DIRECTION( '', ( 0.000000000000000, -0.000000000000000, 1.00000000000000 ) );
#181 = SURFACE_STYLE_FILL_AREA( #274 );
#182 = ORIENTED_EDGE( '', *, *, #275, .T. );
#183 = ORIENTED_EDGE( '', *, *, #276, .F. );
#184 = ORIENTED_EDGE( '', *, *, #277, .F. );
#185 = ORIENTED_EDGE( '', *, *, #271, .T. );
#186 = CARTESIAN_POINT( '', ( 30.0000000000000, 0.000000000000000, 15.0000000000000 ) );
#187 = DIRECTION( '', ( -1.00000000000000, 0.000000000000000, 0.000000000000000 ) );
#188 = DIRECTION( '', ( 0.000000000000000, 0.000000000000000, 1.00000000000000 ) );
#189 = SURFACE_STYLE_FILL_AREA( #278 );
#190 = ORIENTED_EDGE( '', *, *, #269, .T. );
#191 = ORIENTED_EDGE( '', *, *, #279, .F. );
#192 = CARTESIAN_POINT( '', ( 15.0000000000000, 0.000000000000000, 0.000000000000000 ) );
#193 = DIRECTION( '', ( -0.000000000000000, 1.00000000000000, 0.000000000000000 ) );
#194 = DIRECTION( '', ( 0.000000000000000, 0.000000000000000, -1.00000000000000 ) );
#195 = SURFACE_STYLE_FILL_AREA( #280 );
#196 = ORIENTED_EDGE( '', *, *, #281, .T. );
#197 = ORIENTED_EDGE( '', *, *, #282, .T. );
#198 = ORIENTED_EDGE( '', *, *, #272, .T. );
#199 = ORIENTED_EDGE( '', *, *, #277, .T. );
#200 = ORIENTED_EDGE( '', *, *, #283, .T. );
#201 = ORIENTED_EDGE( '', *, *, #284, .T. );
#202 = CARTESIAN_POINT( '', ( 0.000000000000000, 0.000000000000000, 15.0000000000000 ) );
#203 = DIRECTION( '', ( 0.000000000000000, 0.000000000000000, 1.00000000000000 ) );
#204 = DIRECTION( '', ( 1.00000000000000, 0.000000000000000, -0.000000000000000 ) );
#205 = SURFACE_STYLE_FILL_AREA( #285 );
#206 = ORIENTED_EDGE( '', *, *, #286, .F. );
#207 = ORIENTED_EDGE( '', *, *, #287, .T. );
#208 = ORIENTED_EDGE( '', *, *, #288, .F. );
#209 = ORIENTED_EDGE( '', *, *, #284, .F. );
#210 = ORIENTED_EDGE( '', *, *, #289, .T. );
#211 = CARTESIAN_POINT( '', ( 3.00000000000000, 3.00000000000000, 15.0000000000000 ) );
#212 = DIRECTION( '', ( -1.00000000000000, 0.000000000000000, 0.000000000000000 ) );
#213 = DIRECTION( '', ( 0.000000000000000, 0.000000000000000, 1.00000000000000 ) );
#214 = SURFACE_STYLE_FILL_AREA( #290 );
#215 = ORIENTED_EDGE( '', *, *, #291, .T. );
#216 = ORIENTED_EDGE( '', *, *, #292, .F. );
#217 = CARTESIAN_POINT( '', ( 3.00000000000000, 15.0000000000000, 0.000000000000000 ) );
#218 = DIRECTION( '', ( -1.00000000000000, -0.000000000000000, 0.000000000000000 ) );
#219 = DIRECTION( '', ( -0.000000000000000, 0.000000000000000, -1.00000000000000 ) );
#220 = SURFACE_STYLE_FILL_AREA( #293 );
#221 = ORIENTED_EDGE( '', *, *, #294, .T. );
#222 = ORIENTED_EDGE( '', *, *, #295, .T. );
#223 = ORIENTED_EDGE( '', *, *, #289, .F. );
#224 = ORIENTED_EDGE( '', *, *, #283, .F. );
#225 = ORIENTED_EDGE( '', *, *, #276, .T. );
#226 = CARTESIAN_POINT( '', ( 30.0000000000000, 3.00000000000000, 15.0000000000000 ) );
#227 = DIRECTION( '', ( 0.000000000000000, -1.00000000000000, 0.000000000000000 ) );
#228 = DIRECTION( '', ( 0.000000000000000, 0.000000000000000, -1.00000000000000 ) );
#229 = SURFACE_STYLE_FILL_AREA( #296 );
#230 = ORIENTED_EDGE( '', *, *, #286, .T. );
#231 = ORIENTED_EDGE( '', *, *, #291, .F. );
#232 = CARTESIAN_POINT( '', ( 0.100000000000002, 15.0000000000000, 0.000000000000000 ) );
#233 = DIRECTION( '', ( 1.00000000000000, -0.000000000000000, -0.000000000000000 ) );
#234 = DIRECTION( '', ( -0.000000000000000, 0.000000000000000, -1.00000000000000 ) );
#235 = SURFACE_STYLE_FILL_AREA( #297 );
#236 = ORIENTED_EDGE( '', *, *, #279, .T. );
#237 = ORIENTED_EDGE( '', *, *, #294, .F. );
#238 = CARTESIAN_POINT( '', ( 15.0000000000000, 3.00000000000000, 0.000000000000000 ) );
#239 = DIRECTION( '', ( -0.000000000000000, 1.00000000000000, 0.000000000000000 ) );
#240 = DIRECTION( '', ( 0.000000000000000, -0.000000000000000, 1.00000000000000 ) );
#241 = SURFACE_STYLE_FILL_AREA( #298 );
#242 = ORIENTED_EDGE( '', *, *, #299, .F. );
#243 = ORIENTED_EDGE( '', *, *, #287, .F. );
#244 = ORIENTED_EDGE( '', *, *, #295, .F. );
#245 = ORIENTED_EDGE( '', *, *, #275, .F. );
#246 = ORIENTED_EDGE( '', *, *, #270, .F. );
#247 = ORIENTED_EDGE( '', *, *, #300, .F. );
#248 = CARTESIAN_POINT( '', ( 0.000000000000000, 0.000000000000000, -15.0000000000000 ) );
#249 = DIRECTION( '', ( 0.000000000000000, 0.000000000000000, 1.00000000000000 ) );
#250 = DIRECTION( '', ( 1.00000000000000, 0.000000000000000, -0.000000000000000 ) );
#251 = SURFACE_STYLE_FILL_AREA( #301 );
#252 = ORIENTED_EDGE( '', *, *, #299, .T. );
#253 = ORIENTED_EDGE( '', *, *, #302, .F. );
#254 = ORIENTED_EDGE( '', *, *, #281, .F. );
#255 = ORIENTED_EDGE( '', *, *, #288, .T. );
#256 = CARTESIAN_POINT( '', ( 3.00000000000000, 30.0000000000000, 15.0000000000000 ) );
#257 = DIRECTION( '', ( 0.000000000000000, -1.00000000000000, 0.000000000000000 ) );
#258 = DIRECTION( '', ( 0.000000000000000, 0.000000000000000, -1.00000000000000 ) );
#259 = SURFACE_STYLE_FILL_AREA( #303 );
#260 = ORIENTED_EDGE( '', *, *, #292, .T. );
#261 = ORIENTED_EDGE( '', *, *, #300, .T. );
#262 = ORIENTED_EDGE( '', *, *, #273, .F. );
#263 = ORIENTED_EDGE( '', *, *, #282, .F. );
#264 = ORIENTED_EDGE( '', *, *, #302, .T. );
#265 = CARTESIAN_POINT( '', ( 0.000000000000000, 30.0000000000000, 15.0000000000000 ) );
#266 = DIRECTION( '', ( 1.00000000000000, 0.000000000000000, -0.000000000000000 ) );
#267 = DIRECTION( '', ( -0.000000000000000, 0.000000000000000, -1.00000000000000 ) );
#268 = FILL_AREA_STYLE( '', ( #304 ) );
#269 = EDGE_CURVE( '', #305, #305, #306, .T. );
#270 = EDGE_CURVE( '', #307, #308, #309, .T. );
#271 = EDGE_CURVE( '', #310, #308, #311, .T. );
#272 = EDGE_CURVE( '', #312, #310, #313, .T. );
#273 = EDGE_CURVE( '', #312, #307, #314, .T. );
#274 = FILL_AREA_STYLE( '', ( #315 ) );
#275 = EDGE_CURVE( '', #308, #316, #317, .T. );
#276 = EDGE_CURVE( '', #318, #316, #319, .T. );
#277 = EDGE_CURVE( '', #310, #318, #320, .T. );
#278 = FILL_AREA_STYLE( '', ( #321 ) );
#279 = EDGE_CURVE( '', #322, #322, #323, .T. );
#280 = FILL_AREA_STYLE( '', ( #324 ) );
#281 = EDGE_CURVE( '', #325, #326, #327, .T. );
#282 = EDGE_CURVE( '', #326, #312, #328, .T. );
#283 = EDGE_CURVE( '', #318, #329, #330, .T. );
#284 = EDGE_CURVE( '', #329, #325, #331, .T. );
#285 = FILL_AREA_STYLE( '', ( #332 ) );
#286 = EDGE_CURVE( '', #333, #333, #334, .T. );
#287 = EDGE_CURVE( '', #335, #336, #337, .T. );
#288 = EDGE_CURVE( '', #325, #336, #338, .T. );
#289 = EDGE_CURVE( '', #329, #335, #339, .T. );
#290 = FILL_AREA_STYLE( '', ( #340 ) );
#291 = EDGE_CURVE( '', #341, #341, #342, .T. );
#292 = EDGE_CURVE( '', #343, #343, #344, .T. );
#293 = FILL_AREA_STYLE( '', ( #345 ) );
#294 = EDGE_CURVE( '', #346, #346, #347, .T. );
#295 = EDGE_CURVE( '', #316, #335, #348, .T. );
#296 = FILL_AREA_STYLE( '', ( #349 ) );
#297 = FILL_AREA_STYLE( '', ( #350 ) );
#298 = FILL_AREA_STYLE( '', ( #351 ) );
#299 = EDGE_CURVE( '', #336, #352, #353, .T. );
#300 = EDGE_CURVE( '', #352, #307, #354, .T. );
#301 = FILL_AREA_STYLE( '', ( #355 ) );
#302 = EDGE_CURVE( '', #326, #352, #356, .T. );
#303 = FILL_AREA_STYLE( '', ( #357 ) );
#304 = FILL_AREA_STYLE_COLOUR( '', #358 );
#305 = VERTEX_POINT( '', #359 );
#306 = CIRCLE( '', #360, 3.20000000000000 );
#307 = VERTEX_POINT( '', #361 );
#308 = VERTEX_POINT( '', #362 );
#309 = LINE( '', #363, #364 );
#310 = VERTEX_POINT( '', #365 );
#311 = LINE( '', #366, #367 );
#312 = VERTEX_POINT( '', #368 );
#313 = LINE( '', #369, #370 );
#314 = LINE( '', #371, #372 );
#315 = FILL_AREA_STYLE_COLOUR( '', #373 );
#316 = VERTEX_POINT( '', #374 );
#317 = LINE( '', #375, #376 );
#318 = VERTEX_POINT( '', #377 );
#319 = LINE( '', #378, #379 );
#320 = LINE( '', #380, #381 );
#321 = FILL_AREA_STYLE_COLOUR( '', #382 );
#322 = VERTEX_POINT( '', #383 );
#323 = CIRCLE( '', #384, 3.20000000000000 );
#324 = FILL_AREA_STYLE_COLOUR( '', #385 );
#325 = VERTEX_POINT( '', #386 );
#326 = VERTEX_POINT( '', #387 );
#327 = LINE( '', #388, #389 );
#328 = LINE( '', #390, #391 );
#329 = VERTEX_POINT( '', #392 );
#330 = LINE( '', #393, #394 );
#331 = LINE( '', #395, #396 );
#332 = FILL_AREA_STYLE_COLOUR( '', #397 );
#333 = VERTEX_POINT( '', #398 );
#334 = CIRCLE( '', #399, 6.10000000000000 );
#335 = VERTEX_POINT( '', #400 );
#336 = VERTEX_POINT( '', #401 );
#337 = LINE( '', #402, #403 );
#338 = LINE( '', #404, #405 );
#339 = LINE( '', #406, #407 );
#340 = FILL_AREA_STYLE_COLOUR( '', #408 );
#341 = VERTEX_POINT( '', #409 );
#342 = CIRCLE( '', #410, 3.20000000000000 );
#343 = VERTEX_POINT( '', #411 );
#344 = CIRCLE( '', #412, 3.20000000000000 );
#345 = FILL_AREA_STYLE_COLOUR( '', #413 );
#346 = VERTEX_POINT( '', #414 );
#347 = CIRCLE( '', #415, 6.10000000000000 );
#348 = LINE( '', #416, #417 );
#349 = FILL_AREA_STYLE_COLOUR( '', #418 );
#350 = FILL_AREA_STYLE_COLOUR( '', #419 );
#351 = FILL_AREA_STYLE_COLOUR( '', #420 );
#352 = VERTEX_POINT( '', #421 );
#353 = LINE( '', #422, #423 );
#354 = LINE( '', #424, #425 );
#355 = FILL_AREA_STYLE_COLOUR( '', #426 );
#356 = LINE( '', #427, #428 );
#357 = FILL_AREA_STYLE_COLOUR( '', #429 );
#358 = COLOUR_RGB( '', 0.689999997600000, 0.689999997600000, 0.689999997600000 );
#359 = CARTESIAN_POINT( '', ( 15.0000000000000, 0.000000000000000, -3.20000000000000 ) );
#360 = AXIS2_PLACEMENT_3D( '', #430, #431, #432 );
#361 = CARTESIAN_POINT( '', ( 0.000000000000000, 0.000000000000000, -15.0000000000000 ) );
#362 = CARTESIAN_POINT( '', ( 30.0000000000000, 0.000000000000000, -15.0000000000000 ) );
#363 = CARTESIAN_POINT( '', ( 0.000000000000000, 0.000000000000000, -15.0000000000000 ) );
#364 = VECTOR( '', #433, 1000.00000000000 );
#365 = CARTESIAN_POINT( '', ( 30.0000000000000, 0.000000000000000, 15.0000000000000 ) );
#366 = CARTESIAN_POINT( '', ( 30.0000000000000, 0.000000000000000, 15.0000000000000 ) );
#367 = VECTOR( '', #434, 1000.00000000000 );
#368 = CARTESIAN_POINT( '', ( 0.000000000000000, 0.000000000000000, 15.0000000000000 ) );
#369 = CARTESIAN_POINT( '', ( 0.000000000000000, 0.000000000000000, 15.0000000000000 ) );
#370 = VECTOR( '', #435, 1000.00000000000 );
#371 = CARTESIAN_POINT( '', ( 0.000000000000000, 0.000000000000000, 15.0000000000000 ) );
#372 = VECTOR( '', #436, 1000.00000000000 );
#373 = COLOUR_RGB( '', 0.689999997600000, 0.689999997600000, 0.689999997600000 );
#374 = CARTESIAN_POINT( '', ( 30.0000000000000, 3.00000000000000, -15.0000000000000 ) );
#375 = CARTESIAN_POINT( '', ( 30.0000000000000, 0.000000000000000, -15.0000000000000 ) );
#376 = VECTOR( '', #437, 1000.00000000000 );
#377 = CARTESIAN_POINT( '', ( 30.0000000000000, 3.00000000000000, 15.0000000000000 ) );
#378 = CARTESIAN_POINT( '', ( 30.0000000000000, 3.00000000000000, 15.0000000000000 ) );
#379 = VECTOR( '', #438, 1000.00000000000 );
#380 = CARTESIAN_POINT( '', ( 30.0000000000000, 0.000000000000000, 15.0000000000000 ) );
#381 = VECTOR( '', #439, 1000.00000000000 );
#382 = COLOUR_RGB( '', 0.689999997600000, 0.689999997600000, 0.689999997600000 );
#383 = CARTESIAN_POINT( '', ( 15.0000000000000, 0.100000000000000, -3.20000000000000 ) );
#384 = AXIS2_PLACEMENT_3D( '', #440, #441, #442 );
#385 = COLOUR_RGB( '', 0.689999997600000, 0.689999997600000, 0.689999997600000 );
#386 = CARTESIAN_POINT( '', ( 3.00000000000000, 30.0000000000000, 15.0000000000000 ) );
#387 = CARTESIAN_POINT( '', ( 0.000000000000000, 30.0000000000000, 15.0000000000000 ) );
#388 = CARTESIAN_POINT( '', ( 3.00000000000000, 30.0000000000000, 15.0000000000000 ) );
#389 = VECTOR( '', #443, 1000.00000000000 );
#390 = CARTESIAN_POINT( '', ( 0.000000000000000, 30.0000000000000, 15.0000000000000 ) );
#391 = VECTOR( '', #444, 1000.00000000000 );
#392 = CARTESIAN_POINT( '', ( 3.00000000000000, 3.00000000000000, 15.0000000000000 ) );
#393 = CARTESIAN_POINT( '', ( 30.0000000000000, 3.00000000000000, 15.0000000000000 ) );
#394 = VECTOR( '', #445, 1000.00000000000 );
#395 = CARTESIAN_POINT( '', ( 3.00000000000000, 3.00000000000000, 15.0000000000000 ) );
#396 = VECTOR( '', #446, 1000.00000000000 );
#397 = COLOUR_RGB( '', 0.689999997600000, 0.689999997600000, 0.689999997600000 );
#398 = CARTESIAN_POINT( '', ( 3.00000000000000, 15.0000000000000, -6.10000000000000 ) );
#399 = AXIS2_PLACEMENT_3D( '', #447, #448, #449 );
#400 = CARTESIAN_POINT( '', ( 3.00000000000000, 3.00000000000000, -15.0000000000000 ) );
#401 = CARTESIAN_POINT( '', ( 3.00000000000000, 30.0000000000000, -15.0000000000000 ) );
#402 = CARTESIAN_POINT( '', ( 3.00000000000000, 3.00000000000000, -15.0000000000000 ) );
#403 = VECTOR( '', #450, 1000.00000000000 );
#404 = CARTESIAN_POINT( '', ( 3.00000000000000, 30.0000000000000, 15.0000000000000 ) );
#405 = VECTOR( '', #451, 1000.00000000000 );
#406 = CARTESIAN_POINT( '', ( 3.00000000000000, 3.00000000000000, 15.0000000000000 ) );
#407 = VECTOR( '', #452, 1000.00000000000 );
#408 = COLOUR_RGB( '', 0.689999997600000, 0.689999997600000, 0.689999997600000 );
#409 = CARTESIAN_POINT( '', ( 0.100000000000002, 15.0000000000000, -3.20000000000000 ) );
#410 = AXIS2_PLACEMENT_3D( '', #453, #454, #455 );
#411 = CARTESIAN_POINT( '', ( 0.000000000000000, 15.0000000000000, -3.20000000000000 ) );
#412 = AXIS2_PLACEMENT_3D( '', #456, #457, #458 );
#413 = COLOUR_RGB( '', 0.689999997600000, 0.689999997600000, 0.689999997600000 );
#414 = CARTESIAN_POINT( '', ( 15.0000000000000, 3.00000000000000, -6.10000000000000 ) );
#415 = AXIS2_PLACEMENT_3D( '', #459, #460, #461 );
#416 = CARTESIAN_POINT( '', ( 30.0000000000000, 3.00000000000000, -15.0000000000000 ) );
#417 = VECTOR( '', #462, 1000.00000000000 );
#418 = COLOUR_RGB( '', 0.689999997600000, 0.689999997600000, 0.689999997600000 );
#419 = COLOUR_RGB( '', 0.689999997600000, 0.689999997600000, 0.689999997600000 );
#420 = COLOUR_RGB( '', 0.689999997600000, 0.689999997600000, 0.689999997600000 );
#421 = CARTESIAN_POINT( '', ( 0.000000000000000, 30.0000000000000, -15.0000000000000 ) );
#422 = CARTESIAN_POINT( '', ( 3.00000000000000, 30.0000000000000, -15.0000000000000 ) );
#423 = VECTOR( '', #463, 1000.00000000000 );
#424 = CARTESIAN_POINT( '', ( 0.000000000000000, 30.0000000000000, -15.0000000000000 ) );
#425 = VECTOR( '', #464, 1000.00000000000 );
#426 = COLOUR_RGB( '', 0.689999997600000, 0.689999997600000, 0.689999997600000 );
#427 = CARTESIAN_POINT( '', ( 0.000000000000000, 30.0000000000000, 15.0000000000000 ) );
#428 = VECTOR( '', #465, 1000.00000000000 );
#429 = COLOUR_RGB( '', 0.689999997600000, 0.689999997600000, 0.689999997600000 );
#430 = CARTESIAN_POINT( '', ( 15.0000000000000, 0.000000000000000, 0.000000000000000 ) );
#431 = DIRECTION( '', ( 0.000000000000000, -1.00000000000000, -0.000000000000000 ) );
#432 = DIRECTION( '', ( 0.000000000000000, 0.000000000000000, -1.00000000000000 ) );
#433 = DIRECTION( '', ( 1.00000000000000, 0.000000000000000, 0.000000000000000 ) );
#434 = DIRECTION( '', ( -0.000000000000000, -0.000000000000000, -1.00000000000000 ) );
#435 = DIRECTION( '', ( 1.00000000000000, 0.000000000000000, 0.000000000000000 ) );
#436 = DIRECTION( '', ( -0.000000000000000, -0.000000000000000, -1.00000000000000 ) );
#437 = DIRECTION( '', ( 0.000000000000000, 1.00000000000000, 0.000000000000000 ) );
#438 = DIRECTION( '', ( -0.000000000000000, -0.000000000000000, -1.00000000000000 ) );
#439 = DIRECTION( '', ( 0.000000000000000, 1.00000000000000, 0.000000000000000 ) );
#440 = CARTESIAN_POINT( '', ( 15.0000000000000, 0.100000000000000, 0.000000000000000 ) );
#441 = DIRECTION( '', ( 0.000000000000000, -1.00000000000000, -0.000000000000000 ) );
#442 = DIRECTION( '', ( 0.000000000000000, 0.000000000000000, -1.00000000000000 ) );
#443 = DIRECTION( '', ( -1.00000000000000, 0.000000000000000, 0.000000000000000 ) );
#444 = DIRECTION( '', ( 0.000000000000000, -1.00000000000000, 0.000000000000000 ) );
#445 = DIRECTION( '', ( -1.00000000000000, 0.000000000000000, 0.000000000000000 ) );
#446 = DIRECTION( '', ( 0.000000000000000, 1.00000000000000, 0.000000000000000 ) );
#447 = CARTESIAN_POINT( '', ( 3.00000000000000, 15.0000000000000, 0.000000000000000 ) );
#448 = DIRECTION( '', ( 1.00000000000000, 0.000000000000000, -0.000000000000000 ) );
#449 = DIRECTION( '', ( -0.000000000000000, 0.000000000000000, -1.00000000000000 ) );
#450 = DIRECTION( '', ( 0.000000000000000, 1.00000000000000, 0.000000000000000 ) );
#451 = DIRECTION( '', ( -0.000000000000000, -0.000000000000000, -1.00000000000000 ) );
#452 = DIRECTION( '', ( -0.000000000000000, -0.000000000000000, -1.00000000000000 ) );
#453 = CARTESIAN_POINT( '', ( 0.100000000000002, 15.0000000000000, 0.000000000000000 ) );
#454 = DIRECTION( '', ( 1.00000000000000, 0.000000000000000, -0.000000000000000 ) );
#455 = DIRECTION( '', ( -0.000000000000000, 0.000000000000000, -1.00000000000000 ) );
#456 = CARTESIAN_POINT( '', ( 0.000000000000000, 15.0000000000000, 0.000000000000000 ) );
#457 = DIRECTION( '', ( 1.00000000000000, 0.000000000000000, -0.000000000000000 ) );
#458 = DIRECTION( '', ( -0.000000000000000, 0.000000000000000, -1.00000000000000 ) );
#459 = CARTESIAN_POINT( '', ( 15.0000000000000, 3.00000000000000, 0.000000000000000 ) );
#460 = DIRECTION( '', ( 0.000000000000000, -1.00000000000000, -0.000000000000000 ) );
#461 = DIRECTION( '', ( 0.000000000000000, 0.000000000000000, -1.00000000000000 ) );
#462 = DIRECTION( '', ( -1.00000000000000, 0.000000000000000, 0.000000000000000 ) );
#463 = DIRECTION( '', ( -1.00000000000000, 0.000000000000000, 0.000000000000000 ) );
#464 = DIRECTION( '', ( 0.000000000000000, -1.00000000000000, 0.000000000000000 ) );
#465 = DIRECTION( '', ( -0.000000000000000, -0.000000000000000, -1.00000000000000 ) );
ENDSEC;
END-ISO-10303-21;
