ISO-10303-21;
HEADER;
FILE_DESCRIPTION( ( 'STEP AP214' ), '1' );
FILE_NAME( '//goodhand-server/Shared Folders/GoodHand Data/Kipp CAD/K0179/K0179.1414X160.stp', '2020-11-26T11:25:40', ( '' ), ( '' ), ' ', 'PARTsolutions', ' ' );
FILE_SCHEMA( ( 'AUTOMOTIVE_DESIGN { 1 0 10303 214 1 1 1 1 }' ) );
ENDSEC;
DATA;
#1 = MECHANICAL_DESIGN_GEOMETRIC_PRESENTATION_REPRESENTATION( ' ', ( #10, #11, #12, #13, #14, #15, #16, #17, #18, #19 ), #6 );
#2 = PRODUCT_DEFINITION_CONTEXT( '', #20, 'design' );
#3 = APPLICATION_PROTOCOL_DEFINITION( 'international standard', 'automotive_design', 2001, #20 );
#4 = PRODUCT_CATEGORY_RELATIONSHIP( 'NONE', 'NONE', #21, #22 );
#5 = SHAPE_DEFINITION_REPRESENTATION( #23, #24 );
#6 =  ( GEOMETRIC_REPRESENTATION_CONTEXT( 3 )GLOBAL_UNCERTAINTY_ASSIGNED_CONTEXT( ( #27 ) )GLOBAL_UNIT_ASSIGNED_CONTEXT( ( #29, #30, #31 ) )REPRESENTATION_CONTEXT( 'NONE', 'WORKSPACE' ) );
#10 = STYLED_ITEM( '', ( #33 ), #34 );
#11 = STYLED_ITEM( '', ( #35 ), #36 );
#12 = STYLED_ITEM( '', ( #37 ), #38 );
#13 = STYLED_ITEM( '', ( #39 ), #40 );
#14 = STYLED_ITEM( '', ( #41 ), #42 );
#15 = STYLED_ITEM( '', ( #43 ), #44 );
#16 = STYLED_ITEM( '', ( #45 ), #46 );
#17 = STYLED_ITEM( '', ( #47 ), #48 );
#18 = STYLED_ITEM( '', ( #49 ), #50 );
#19 = STYLED_ITEM( '', ( #51 ), #52 );
#20 = APPLICATION_CONTEXT( 'core data for automotive mechanical design processes' );
#21 = PRODUCT_CATEGORY( 'part', 'NONE' );
#22 = PRODUCT_RELATED_PRODUCT_CATEGORY( 'detail', ' ', ( #53 ) );
#23 = PRODUCT_DEFINITION_SHAPE( 'NONE', 'NONE', #54 );
#24 = ADVANCED_BREP_SHAPE_REPRESENTATION( '_K0179.1414X160', ( #55, #56 ), #6 );
#27 = UNCERTAINTY_MEASURE_WITH_UNIT( LENGTH_MEASURE( 0.00100000000000000 ), #29, '', '' );
#29 =  ( CONVERSION_BASED_UNIT( 'MILLIMETRE', #59 )LENGTH_UNIT(  )NAMED_UNIT( #62 ) );
#30 =  ( NAMED_UNIT( #64 )PLANE_ANGLE_UNIT(  )SI_UNIT( $, .RADIAN. ) );
#31 =  ( NAMED_UNIT( #64 )SI_UNIT( $, .STERADIAN. )SOLID_ANGLE_UNIT(  ) );
#33 = PRESENTATION_STYLE_ASSIGNMENT( ( #70 ) );
#34 = ADVANCED_FACE( '', ( #71, #72 ), #73, .T. );
#35 = PRESENTATION_STYLE_ASSIGNMENT( ( #74 ) );
#36 = ADVANCED_FACE( '', ( #75 ), #76, .F. );
#37 = PRESENTATION_STYLE_ASSIGNMENT( ( #77 ) );
#38 = ADVANCED_FACE( '', ( #78, #79 ), #80, .T. );
#39 = PRESENTATION_STYLE_ASSIGNMENT( ( #81 ) );
#40 = ADVANCED_FACE( '', ( #82, #83 ), #84, .T. );
#41 = PRESENTATION_STYLE_ASSIGNMENT( ( #85 ) );
#42 = ADVANCED_FACE( '', ( #86, #87 ), #88, .F. );
#43 = PRESENTATION_STYLE_ASSIGNMENT( ( #89 ) );
#44 = ADVANCED_FACE( '', ( #90 ), #91, .F. );
#45 = PRESENTATION_STYLE_ASSIGNMENT( ( #92 ) );
#46 = ADVANCED_FACE( '', ( #93, #94 ), #95, .T. );
#47 = PRESENTATION_STYLE_ASSIGNMENT( ( #96 ) );
#48 = ADVANCED_FACE( '', ( #97, #98 ), #99, .T. );
#49 = PRESENTATION_STYLE_ASSIGNMENT( ( #100 ) );
#50 = ADVANCED_FACE( '', ( #101, #102 ), #103, .F. );
#51 = PRESENTATION_STYLE_ASSIGNMENT( ( #104 ) );
#52 = ADVANCED_FACE( '', ( #105, #106 ), #107, .T. );
#53 = PRODUCT( '_K0179.1414X160', '_K0179.1414X160', 'PART-_K0179.1414X160-DESC', ( #108 ) );
#54 = PRODUCT_DEFINITION( 'NONE', 'NONE', #109, #2 );
#55 = MANIFOLD_SOLID_BREP( '_K0179.1414X160', #110 );
#56 = AXIS2_PLACEMENT_3D( '', #111, #112, #113 );
#59 = LENGTH_MEASURE_WITH_UNIT( LENGTH_MEASURE( 1.00000000000000 ), #114 );
#62 = DIMENSIONAL_EXPONENTS( 1.00000000000000, 0.000000000000000, 0.000000000000000, 0.000000000000000, 0.000000000000000, 0.000000000000000, 0.000000000000000 );
#64 = DIMENSIONAL_EXPONENTS( 0.000000000000000, 0.000000000000000, 0.000000000000000, 0.000000000000000, 0.000000000000000, 0.000000000000000, 0.000000000000000 );
#70 = SURFACE_STYLE_USAGE( .BOTH., #115 );
#71 = FACE_OUTER_BOUND( '', #116, .T. );
#72 = FACE_OUTER_BOUND( '', #117, .T. );
#73 = TOROIDAL_SURFACE( '', #118, 9.86082822710000, 2.40000000000000 );
#74 = SURFACE_STYLE_USAGE( .BOTH., #119 );
#75 = FACE_OUTER_BOUND( '', #120, .T. );
#76 = PLANE( '', #121 );
#77 = SURFACE_STYLE_USAGE( .BOTH., #122 );
#78 = FACE_OUTER_BOUND( '', #123, .T. );
#79 = FACE_BOUND( '', #124, .T. );
#80 = CONICAL_SURFACE( '', #125, 12.2000000000000, 0.785398163400000 );
#81 = SURFACE_STYLE_USAGE( .BOTH., #126 );
#82 = FACE_OUTER_BOUND( '', #127, .T. );
#83 = FACE_OUTER_BOUND( '', #128, .T. );
#84 = CYLINDRICAL_SURFACE( '', #129, 6.00000000000000 );
#85 = SURFACE_STYLE_USAGE( .BOTH., #130 );
#86 = FACE_BOUND( '', #131, .T. );
#87 = FACE_OUTER_BOUND( '', #132, .T. );
#88 = PLANE( '', #133 );
#89 = SURFACE_STYLE_USAGE( .BOTH., #134 );
#90 = FACE_OUTER_BOUND( '', #135, .T. );
#91 = PLANE( '', #136 );
#92 = SURFACE_STYLE_USAGE( .BOTH., #137 );
#93 = FACE_BOUND( '', #138, .T. );
#94 = FACE_OUTER_BOUND( '', #139, .T. );
#95 = CONICAL_SURFACE( '', #140, 6.00000000000000, 0.785398163400000 );
#96 = SURFACE_STYLE_USAGE( .BOTH., #141 );
#97 = FACE_BOUND( '', #142, .T. );
#98 = FACE_OUTER_BOUND( '', #143, .T. );
#99 = CONICAL_SURFACE( '', #144, 17.5000000000000, 0.114797031900000 );
#100 = SURFACE_STYLE_USAGE( .BOTH., #145 );
#101 = FACE_BOUND( '', #146, .T. );
#102 = FACE_OUTER_BOUND( '', #147, .T. );
#103 = PLANE( '', #148 );
#104 = SURFACE_STYLE_USAGE( .BOTH., #149 );
#105 = FACE_OUTER_BOUND( '', #150, .T. );
#106 = FACE_OUTER_BOUND( '', #151, .T. );
#107 = CYLINDRICAL_SURFACE( '', #152, 7.00000000000000 );
#108 = PRODUCT_CONTEXT( '', #20, 'mechanical' );
#109 = PRODUCT_DEFINITION_FORMATION_WITH_SPECIFIED_SOURCE( ' ', 'NONE', #53, .NOT_KNOWN. );
#110 = CLOSED_SHELL( '', ( #46, #40, #42, #52, #50, #34, #48, #36, #38, #44 ) );
#111 = CARTESIAN_POINT( '', ( 0.000000000000000, 0.000000000000000, 0.000000000000000 ) );
#112 = DIRECTION( '', ( 0.000000000000000, 0.000000000000000, 1.00000000000000 ) );
#113 = DIRECTION( '', ( 1.00000000000000, 0.000000000000000, 0.000000000000000 ) );
#114 =  ( LENGTH_UNIT(  )NAMED_UNIT( #62 )SI_UNIT( .MILLI., .METRE. ) );
#115 = SURFACE_SIDE_STYLE( '', ( #154 ) );
#116 = EDGE_LOOP( '', ( #155 ) );
#117 = EDGE_LOOP( '', ( #156 ) );
#118 = AXIS2_PLACEMENT_3D( '', #157, #158, #159 );
#119 = SURFACE_SIDE_STYLE( '', ( #160 ) );
#120 = EDGE_LOOP( '', ( #161 ) );
#121 = AXIS2_PLACEMENT_3D( '', #162, #163, #164 );
#122 = SURFACE_SIDE_STYLE( '', ( #165 ) );
#123 = EDGE_LOOP( '', ( #166 ) );
#124 = EDGE_LOOP( '', ( #167 ) );
#125 = AXIS2_PLACEMENT_3D( '', #168, #169, #170 );
#126 = SURFACE_SIDE_STYLE( '', ( #171 ) );
#127 = EDGE_LOOP( '', ( #172 ) );
#128 = EDGE_LOOP( '', ( #173 ) );
#129 = AXIS2_PLACEMENT_3D( '', #174, #175, #176 );
#130 = SURFACE_SIDE_STYLE( '', ( #177 ) );
#131 = EDGE_LOOP( '', ( #178 ) );
#132 = EDGE_LOOP( '', ( #179 ) );
#133 = AXIS2_PLACEMENT_3D( '', #180, #181, #182 );
#134 = SURFACE_SIDE_STYLE( '', ( #183 ) );
#135 = EDGE_LOOP( '', ( #184 ) );
#136 = AXIS2_PLACEMENT_3D( '', #185, #186, #187 );
#137 = SURFACE_SIDE_STYLE( '', ( #188 ) );
#138 = EDGE_LOOP( '', ( #189 ) );
#139 = EDGE_LOOP( '', ( #190 ) );
#140 = AXIS2_PLACEMENT_3D( '', #191, #192, #193 );
#141 = SURFACE_SIDE_STYLE( '', ( #194 ) );
#142 = EDGE_LOOP( '', ( #195 ) );
#143 = EDGE_LOOP( '', ( #196 ) );
#144 = AXIS2_PLACEMENT_3D( '', #197, #198, #199 );
#145 = SURFACE_SIDE_STYLE( '', ( #200 ) );
#146 = EDGE_LOOP( '', ( #201 ) );
#147 = EDGE_LOOP( '', ( #202 ) );
#148 = AXIS2_PLACEMENT_3D( '', #203, #204, #205 );
#149 = SURFACE_SIDE_STYLE( '', ( #206 ) );
#150 = EDGE_LOOP( '', ( #207 ) );
#151 = EDGE_LOOP( '', ( #208 ) );
#152 = AXIS2_PLACEMENT_3D( '', #209, #210, #211 );
#154 = SURFACE_STYLE_FILL_AREA( #212 );
#155 = ORIENTED_EDGE( '', *, *, #213, .T. );
#156 = ORIENTED_EDGE( '', *, *, #214, .F. );
#157 = CARTESIAN_POINT( '', ( 50.6000000000000, 0.000000000000000, 0.000000000000000 ) );
#158 = DIRECTION( '', ( 1.00000000000000, 0.000000000000000, -0.000000000000000 ) );
#159 = DIRECTION( '', ( -0.000000000000000, 0.000000000000000, -1.00000000000000 ) );
#160 = SURFACE_STYLE_FILL_AREA( #215 );
#161 = ORIENTED_EDGE( '', *, *, #216, .F. );
#162 = CARTESIAN_POINT( '', ( 0.000000000000000, 0.000000000000000, 0.000000000000000 ) );
#163 = DIRECTION( '', ( 1.00000000000000, 0.000000000000000, -0.000000000000000 ) );
#164 = DIRECTION( '', ( -0.000000000000000, 0.000000000000000, -1.00000000000000 ) );
#165 = SURFACE_STYLE_FILL_AREA( #217 );
#166 = ORIENTED_EDGE( '', *, *, #218, .F. );
#167 = ORIENTED_EDGE( '', *, *, #216, .T. );
#168 = CARTESIAN_POINT( '', ( 0.000000000000000, 0.000000000000000, 0.000000000000000 ) );
#169 = DIRECTION( '', ( 1.00000000000000, -0.000000000000000, -0.000000000000000 ) );
#170 = DIRECTION( '', ( -0.000000000000000, 0.000000000000000, -1.00000000000000 ) );
#171 = SURFACE_STYLE_FILL_AREA( #219 );
#172 = ORIENTED_EDGE( '', *, *, #220, .F. );
#173 = ORIENTED_EDGE( '', *, *, #221, .T. );
#174 = CARTESIAN_POINT( '', ( 229.000000000000, 0.000000000000000, 0.000000000000000 ) );
#175 = DIRECTION( '', ( -1.00000000000000, -0.000000000000000, 0.000000000000000 ) );
#176 = DIRECTION( '', ( -0.000000000000000, 0.000000000000000, -1.00000000000000 ) );
#177 = SURFACE_STYLE_FILL_AREA( #222 );
#178 = ORIENTED_EDGE( '', *, *, #221, .F. );
#179 = ORIENTED_EDGE( '', *, *, #223, .T. );
#180 = CARTESIAN_POINT( '', ( 213.000000000000, 7.00000000000000, 0.000000000000000 ) );
#181 = DIRECTION( '', ( -1.00000000000000, 0.000000000000000, 0.000000000000000 ) );
#182 = DIRECTION( '', ( 0.000000000000000, 0.000000000000000, 1.00000000000000 ) );
#183 = SURFACE_STYLE_FILL_AREA( #224 );
#184 = ORIENTED_EDGE( '', *, *, #225, .T. );
#185 = CARTESIAN_POINT( '', ( 229.000000000000, 4.92650000000000, 0.000000000000000 ) );
#186 = DIRECTION( '', ( -1.00000000000000, 0.000000000000000, 0.000000000000000 ) );
#187 = DIRECTION( '', ( 0.000000000000000, 0.000000000000000, 1.00000000000000 ) );
#188 = SURFACE_STYLE_FILL_AREA( #226 );
#189 = ORIENTED_EDGE( '', *, *, #225, .F. );
#190 = ORIENTED_EDGE( '', *, *, #220, .T. );
#191 = CARTESIAN_POINT( '', ( 227.926500000000, 0.000000000000000, 0.000000000000000 ) );
#192 = DIRECTION( '', ( -1.00000000000000, 0.000000000000000, -0.000000000000000 ) );
#193 = DIRECTION( '', ( 0.000000000000000, 0.000000000000000, 1.00000000000000 ) );
#194 = SURFACE_STYLE_FILL_AREA( #227 );
#195 = ORIENTED_EDGE( '', *, *, #213, .F. );
#196 = ORIENTED_EDGE( '', *, *, #218, .T. );
#197 = CARTESIAN_POINT( '', ( 5.30000000000000, 0.000000000000000, 0.000000000000000 ) );
#198 = DIRECTION( '', ( -1.00000000000000, 0.000000000000000, -0.000000000000000 ) );
#199 = DIRECTION( '', ( 0.000000000000000, 0.000000000000000, 1.00000000000000 ) );
#200 = SURFACE_STYLE_FILL_AREA( #228 );
#201 = ORIENTED_EDGE( '', *, *, #229, .F. );
#202 = ORIENTED_EDGE( '', *, *, #214, .T. );
#203 = CARTESIAN_POINT( '', ( 53.0000000000000, 9.86082822706976, 0.000000000000000 ) );
#204 = DIRECTION( '', ( -1.00000000000000, 0.000000000000000, 0.000000000000000 ) );
#205 = DIRECTION( '', ( 0.000000000000000, 0.000000000000000, 1.00000000000000 ) );
#206 = SURFACE_STYLE_FILL_AREA( #230 );
#207 = ORIENTED_EDGE( '', *, *, #223, .F. );
#208 = ORIENTED_EDGE( '', *, *, #229, .T. );
#209 = CARTESIAN_POINT( '', ( 229.000000000000, 0.000000000000000, 0.000000000000000 ) );
#210 = DIRECTION( '', ( -1.00000000000000, -0.000000000000000, 0.000000000000000 ) );
#211 = DIRECTION( '', ( -0.000000000000000, 0.000000000000000, -1.00000000000000 ) );
#212 = FILL_AREA_STYLE( '', ( #231 ) );
#213 = EDGE_CURVE( '', #232, #232, #233, .T. );
#214 = EDGE_CURVE( '', #234, #234, #235, .T. );
#215 = FILL_AREA_STYLE( '', ( #236 ) );
#216 = EDGE_CURVE( '', #237, #237, #238, .T. );
#217 = FILL_AREA_STYLE( '', ( #239 ) );
#218 = EDGE_CURVE( '', #240, #240, #241, .T. );
#219 = FILL_AREA_STYLE( '', ( #242 ) );
#220 = EDGE_CURVE( '', #243, #243, #244, .T. );
#221 = EDGE_CURVE( '', #245, #245, #246, .T. );
#222 = FILL_AREA_STYLE( '', ( #247 ) );
#223 = EDGE_CURVE( '', #248, #248, #249, .T. );
#224 = FILL_AREA_STYLE( '', ( #250 ) );
#225 = EDGE_CURVE( '', #251, #251, #252, .T. );
#226 = FILL_AREA_STYLE( '', ( #253 ) );
#227 = FILL_AREA_STYLE( '', ( #254 ) );
#228 = FILL_AREA_STYLE( '', ( #255 ) );
#229 = EDGE_CURVE( '', #256, #256, #257, .T. );
#230 = FILL_AREA_STYLE( '', ( #258 ) );
#231 = FILL_AREA_STYLE_COLOUR( '', #259 );
#232 = VERTEX_POINT( '', #260 );
#233 = CIRCLE( '', #261, 12.2450315561000 );
#234 = VERTEX_POINT( '', #262 );
#235 = CIRCLE( '', #263, 9.86082822710000 );
#236 = FILL_AREA_STYLE_COLOUR( '', #264 );
#237 = VERTEX_POINT( '', #265 );
#238 = CIRCLE( '', #266, 12.2000000000000 );
#239 = FILL_AREA_STYLE_COLOUR( '', #267 );
#240 = VERTEX_POINT( '', #268 );
#241 = CIRCLE( '', #269, 17.5000000000000 );
#242 = FILL_AREA_STYLE_COLOUR( '', #270 );
#243 = VERTEX_POINT( '', #271 );
#244 = CIRCLE( '', #272, 6.00000000000000 );
#245 = VERTEX_POINT( '', #273 );
#246 = CIRCLE( '', #274, 6.00000000000000 );
#247 = FILL_AREA_STYLE_COLOUR( '', #275 );
#248 = VERTEX_POINT( '', #276 );
#249 = CIRCLE( '', #277, 7.00000000000000 );
#250 = FILL_AREA_STYLE_COLOUR( '', #278 );
#251 = VERTEX_POINT( '', #279 );
#252 = CIRCLE( '', #280, 4.92650000000000 );
#253 = FILL_AREA_STYLE_COLOUR( '', #281 );
#254 = FILL_AREA_STYLE_COLOUR( '', #282 );
#255 = FILL_AREA_STYLE_COLOUR( '', #283 );
#256 = VERTEX_POINT( '', #284 );
#257 = CIRCLE( '', #285, 7.00000000000000 );
#258 = FILL_AREA_STYLE_COLOUR( '', #286 );
#259 = COLOUR_RGB( '', 0.689999997600000, 0.689999997600000, 0.689999997600000 );
#260 = CARTESIAN_POINT( '', ( 50.8749081406648, 0.000000000000000, -12.2450315561078 ) );
#261 = AXIS2_PLACEMENT_3D( '', #287, #288, #289 );
#262 = CARTESIAN_POINT( '', ( 53.0000000000000, 0.000000000000000, -9.86082822706976 ) );
#263 = AXIS2_PLACEMENT_3D( '', #290, #291, #292 );
#264 = COLOUR_RGB( '', 0.689999997600000, 0.689999997600000, 0.689999997600000 );
#265 = CARTESIAN_POINT( '', ( 0.000000000000000, 0.000000000000000, -12.2000000000000 ) );
#266 = AXIS2_PLACEMENT_3D( '', #293, #294, #295 );
#267 = COLOUR_RGB( '', 0.689999997600000, 0.689999997600000, 0.689999997600000 );
#268 = CARTESIAN_POINT( '', ( 5.30000000000000, 0.000000000000000, -17.5000000000000 ) );
#269 = AXIS2_PLACEMENT_3D( '', #296, #297, #298 );
#270 = COLOUR_RGB( '', 0.689999997600000, 0.689999997600000, 0.689999997600000 );
#271 = CARTESIAN_POINT( '', ( 227.926500000000, 0.000000000000000, -6.00000000000000 ) );
#272 = AXIS2_PLACEMENT_3D( '', #299, #300, #301 );
#273 = CARTESIAN_POINT( '', ( 213.000000000000, 0.000000000000000, -6.00000000000000 ) );
#274 = AXIS2_PLACEMENT_3D( '', #302, #303, #304 );
#275 = COLOUR_RGB( '', 0.689999997600000, 0.689999997600000, 0.689999997600000 );
#276 = CARTESIAN_POINT( '', ( 213.000000000000, 0.000000000000000, -7.00000000000000 ) );
#277 = AXIS2_PLACEMENT_3D( '', #305, #306, #307 );
#278 = COLOUR_RGB( '', 0.689999997600000, 0.689999997600000, 0.689999997600000 );
#279 = CARTESIAN_POINT( '', ( 229.000000000000, 0.000000000000000, -4.92650000000000 ) );
#280 = AXIS2_PLACEMENT_3D( '', #308, #309, #310 );
#281 = COLOUR_RGB( '', 0.689999997600000, 0.689999997600000, 0.689999997600000 );
#282 = COLOUR_RGB( '', 0.689999997600000, 0.689999997600000, 0.689999997600000 );
#283 = COLOUR_RGB( '', 0.689999997600000, 0.689999997600000, 0.689999997600000 );
#284 = CARTESIAN_POINT( '', ( 53.0000000000000, 0.000000000000000, -7.00000000000000 ) );
#285 = AXIS2_PLACEMENT_3D( '', #311, #312, #313 );
#286 = COLOUR_RGB( '', 0.689999997600000, 0.689999997600000, 0.689999997600000 );
#287 = CARTESIAN_POINT( '', ( 50.8749081406648, 0.000000000000000, 0.000000000000000 ) );
#288 = DIRECTION( '', ( 1.00000000000000, 0.000000000000000, -0.000000000000000 ) );
#289 = DIRECTION( '', ( -0.000000000000000, 0.000000000000000, -1.00000000000000 ) );
#290 = CARTESIAN_POINT( '', ( 53.0000000000000, 0.000000000000000, 0.000000000000000 ) );
#291 = DIRECTION( '', ( 1.00000000000000, 0.000000000000000, -0.000000000000000 ) );
#292 = DIRECTION( '', ( -0.000000000000000, 0.000000000000000, -1.00000000000000 ) );
#293 = CARTESIAN_POINT( '', ( 0.000000000000000, 0.000000000000000, 0.000000000000000 ) );
#294 = DIRECTION( '', ( 1.00000000000000, 0.000000000000000, -0.000000000000000 ) );
#295 = DIRECTION( '', ( -0.000000000000000, 0.000000000000000, -1.00000000000000 ) );
#296 = CARTESIAN_POINT( '', ( 5.30000000000000, 0.000000000000000, 0.000000000000000 ) );
#297 = DIRECTION( '', ( 1.00000000000000, 0.000000000000000, -0.000000000000000 ) );
#298 = DIRECTION( '', ( -0.000000000000000, 0.000000000000000, -1.00000000000000 ) );
#299 = CARTESIAN_POINT( '', ( 227.926500000000, 0.000000000000000, 0.000000000000000 ) );
#300 = DIRECTION( '', ( 1.00000000000000, 0.000000000000000, -0.000000000000000 ) );
#301 = DIRECTION( '', ( -0.000000000000000, 0.000000000000000, -1.00000000000000 ) );
#302 = CARTESIAN_POINT( '', ( 213.000000000000, 0.000000000000000, 0.000000000000000 ) );
#303 = DIRECTION( '', ( 1.00000000000000, 0.000000000000000, -0.000000000000000 ) );
#304 = DIRECTION( '', ( -0.000000000000000, 0.000000000000000, -1.00000000000000 ) );
#305 = CARTESIAN_POINT( '', ( 213.000000000000, 0.000000000000000, 0.000000000000000 ) );
#306 = DIRECTION( '', ( 1.00000000000000, 0.000000000000000, -0.000000000000000 ) );
#307 = DIRECTION( '', ( -0.000000000000000, 0.000000000000000, -1.00000000000000 ) );
#308 = CARTESIAN_POINT( '', ( 229.000000000000, 0.000000000000000, 0.000000000000000 ) );
#309 = DIRECTION( '', ( 1.00000000000000, 0.000000000000000, -0.000000000000000 ) );
#310 = DIRECTION( '', ( -0.000000000000000, 0.000000000000000, -1.00000000000000 ) );
#311 = CARTESIAN_POINT( '', ( 53.0000000000000, 0.000000000000000, 0.000000000000000 ) );
#312 = DIRECTION( '', ( 1.00000000000000, 0.000000000000000, -0.000000000000000 ) );
#313 = DIRECTION( '', ( -0.000000000000000, 0.000000000000000, -1.00000000000000 ) );
ENDSEC;
END-ISO-10303-21;
