ISO-10303-21;
HEADER;
FILE_DESCRIPTION( ( 'STEP AP214' ), '1' );
FILE_NAME( '//goodhand-server/Shared Folders/GoodHand Data/Kipp CAD/K1094/K1094.316.stp', '2020-12-10T09:49:21', ( '' ), ( '' ), ' ', 'PARTsolutions', ' ' );
FILE_SCHEMA( ( 'AUTOMOTIVE_DESIGN { 1 0 10303 214 1 1 1 1 }' ) );
ENDSEC;
DATA;
#1 = MECHANICAL_DESIGN_GEOMETRIC_PRESENTATION_REPRESENTATION( ' ', ( #10, #11, #12, #13, #14, #15, #16, #17, #18, #19, #20, #21, #22, #23, #24, #25 ), #6 );
#2 = PRODUCT_DEFINITION_CONTEXT( '', #26, 'design' );
#3 = APPLICATION_PROTOCOL_DEFINITION( 'international standard', 'automotive_design', 2001, #26 );
#4 = PRODUCT_CATEGORY_RELATIONSHIP( 'NONE', 'NONE', #27, #28 );
#5 = SHAPE_DEFINITION_REPRESENTATION( #29, #30 );
#6 =  ( GEOMETRIC_REPRESENTATION_CONTEXT( 3 )GLOBAL_UNCERTAINTY_ASSIGNED_CONTEXT( ( #33 ) )GLOBAL_UNIT_ASSIGNED_CONTEXT( ( #35, #36, #37 ) )REPRESENTATION_CONTEXT( 'NONE', 'WORKSPACE' ) );
#10 = STYLED_ITEM( '', ( #39 ), #40 );
#11 = STYLED_ITEM( '', ( #41 ), #42 );
#12 = STYLED_ITEM( '', ( #43 ), #44 );
#13 = STYLED_ITEM( '', ( #45 ), #46 );
#14 = STYLED_ITEM( '', ( #47 ), #48 );
#15 = STYLED_ITEM( '', ( #49 ), #50 );
#16 = STYLED_ITEM( '', ( #51 ), #52 );
#17 = STYLED_ITEM( '', ( #53 ), #54 );
#18 = STYLED_ITEM( '', ( #55 ), #56 );
#19 = STYLED_ITEM( '', ( #57 ), #58 );
#20 = STYLED_ITEM( '', ( #59 ), #60 );
#21 = STYLED_ITEM( '', ( #61 ), #62 );
#22 = STYLED_ITEM( '', ( #63 ), #64 );
#23 = STYLED_ITEM( '', ( #65 ), #66 );
#24 = STYLED_ITEM( '', ( #67 ), #68 );
#25 = STYLED_ITEM( '', ( #69 ), #70 );
#26 = APPLICATION_CONTEXT( 'core data for automotive mechanical design processes' );
#27 = PRODUCT_CATEGORY( 'part', 'NONE' );
#28 = PRODUCT_RELATED_PRODUCT_CATEGORY( 'detail', ' ', ( #71 ) );
#29 = PRODUCT_DEFINITION_SHAPE( 'NONE', 'NONE', #72 );
#30 = ADVANCED_BREP_SHAPE_REPRESENTATION( '_K1094.316', ( #73, #74 ), #6 );
#33 = UNCERTAINTY_MEASURE_WITH_UNIT( LENGTH_MEASURE( 0.00100000000000000 ), #35, '', '' );
#35 =  ( CONVERSION_BASED_UNIT( 'MILLIMETRE', #77 )LENGTH_UNIT(  )NAMED_UNIT( #80 ) );
#36 =  ( NAMED_UNIT( #82 )PLANE_ANGLE_UNIT(  )SI_UNIT( $, .RADIAN. ) );
#37 =  ( NAMED_UNIT( #82 )SI_UNIT( $, .STERADIAN. )SOLID_ANGLE_UNIT(  ) );
#39 = PRESENTATION_STYLE_ASSIGNMENT( ( #88 ) );
#40 = ADVANCED_FACE( '', ( #89, #90 ), #91, .T. );
#41 = PRESENTATION_STYLE_ASSIGNMENT( ( #92 ) );
#42 = ADVANCED_FACE( '', ( #93, #94 ), #95, .F. );
#43 = PRESENTATION_STYLE_ASSIGNMENT( ( #96 ) );
#44 = ADVANCED_FACE( '', ( #97, #98 ), #99, .F. );
#45 = PRESENTATION_STYLE_ASSIGNMENT( ( #100 ) );
#46 = ADVANCED_FACE( '', ( #101, #102 ), #103, .F. );
#47 = PRESENTATION_STYLE_ASSIGNMENT( ( #104 ) );
#48 = ADVANCED_FACE( '', ( #105, #106 ), #107, .F. );
#49 = PRESENTATION_STYLE_ASSIGNMENT( ( #108 ) );
#50 = ADVANCED_FACE( '', ( #109, #110 ), #111, .F. );
#51 = PRESENTATION_STYLE_ASSIGNMENT( ( #112 ) );
#52 = ADVANCED_FACE( '', ( #113, #114 ), #115, .T. );
#53 = PRESENTATION_STYLE_ASSIGNMENT( ( #116 ) );
#54 = ADVANCED_FACE( '', ( #117 ), #118, .F. );
#55 = PRESENTATION_STYLE_ASSIGNMENT( ( #119 ) );
#56 = ADVANCED_FACE( '', ( #120, #121 ), #122, .T. );
#57 = PRESENTATION_STYLE_ASSIGNMENT( ( #123 ) );
#58 = ADVANCED_FACE( '', ( #124, #125 ), #126, .F. );
#59 = PRESENTATION_STYLE_ASSIGNMENT( ( #127 ) );
#60 = ADVANCED_FACE( '', ( #128, #129 ), #130, .F. );
#61 = PRESENTATION_STYLE_ASSIGNMENT( ( #131 ) );
#62 = ADVANCED_FACE( '', ( #132, #133 ), #134, .T. );
#63 = PRESENTATION_STYLE_ASSIGNMENT( ( #135 ) );
#64 = ADVANCED_FACE( '', ( #136, #137 ), #138, .T. );
#65 = PRESENTATION_STYLE_ASSIGNMENT( ( #139 ) );
#66 = ADVANCED_FACE( '', ( #140, #141 ), #142, .T. );
#67 = PRESENTATION_STYLE_ASSIGNMENT( ( #143 ) );
#68 = ADVANCED_FACE( '', ( #144, #145 ), #146, .F. );
#69 = PRESENTATION_STYLE_ASSIGNMENT( ( #147 ) );
#70 = ADVANCED_FACE( '', ( #148, #149 ), #150, .T. );
#71 = PRODUCT( '_K1094.316', '_K1094.316', 'PART-_K1094.316-DESC', ( #151 ) );
#72 = PRODUCT_DEFINITION( 'NONE', 'NONE', #152, #2 );
#73 = MANIFOLD_SOLID_BREP( '_K1094.316', #153 );
#74 = AXIS2_PLACEMENT_3D( '', #154, #155, #156 );
#77 = LENGTH_MEASURE_WITH_UNIT( LENGTH_MEASURE( 1.00000000000000 ), #157 );
#80 = DIMENSIONAL_EXPONENTS( 1.00000000000000, 0.000000000000000, 0.000000000000000, 0.000000000000000, 0.000000000000000, 0.000000000000000, 0.000000000000000 );
#82 = DIMENSIONAL_EXPONENTS( 0.000000000000000, 0.000000000000000, 0.000000000000000, 0.000000000000000, 0.000000000000000, 0.000000000000000, 0.000000000000000 );
#88 = SURFACE_STYLE_USAGE( .BOTH., #158 );
#89 = FACE_OUTER_BOUND( '', #159, .T. );
#90 = FACE_BOUND( '', #160, .T. );
#91 = CONICAL_SURFACE( '', #161, 5.80000000000000, 0.785398163400000 );
#92 = SURFACE_STYLE_USAGE( .BOTH., #162 );
#93 = FACE_BOUND( '', #163, .T. );
#94 = FACE_OUTER_BOUND( '', #164, .T. );
#95 = PLANE( '', #165 );
#96 = SURFACE_STYLE_USAGE( .BOTH., #166 );
#97 = FACE_OUTER_BOUND( '', #167, .T. );
#98 = FACE_BOUND( '', #168, .T. );
#99 = PLANE( '', #169 );
#100 = SURFACE_STYLE_USAGE( .BOTH., #170 );
#101 = FACE_OUTER_BOUND( '', #171, .T. );
#102 = FACE_OUTER_BOUND( '', #172, .T. );
#103 = CYLINDRICAL_SURFACE( '', #173, 1.62100000000000 );
#104 = SURFACE_STYLE_USAGE( .BOTH., #174 );
#105 = FACE_OUTER_BOUND( '', #175, .T. );
#106 = FACE_BOUND( '', #176, .T. );
#107 = CONICAL_SURFACE( '', #177, 1.62100000000000, 0.785398163400000 );
#108 = SURFACE_STYLE_USAGE( .BOTH., #178 );
#109 = FACE_BOUND( '', #179, .T. );
#110 = FACE_OUTER_BOUND( '', #180, .T. );
#111 = CONICAL_SURFACE( '', #181, 7.00000000000000, 0.785398163400000 );
#112 = SURFACE_STYLE_USAGE( .BOTH., #182 );
#113 = FACE_BOUND( '', #183, .T. );
#114 = FACE_OUTER_BOUND( '', #184, .T. );
#115 = CONICAL_SURFACE( '', #185, 6.00000000000000, 0.523598775600000 );
#116 = SURFACE_STYLE_USAGE( .BOTH., #186 );
#117 = FACE_OUTER_BOUND( '', #187, .T. );
#118 = PLANE( '', #188 );
#119 = SURFACE_STYLE_USAGE( .BOTH., #189 );
#120 = FACE_OUTER_BOUND( '', #190, .T. );
#121 = FACE_BOUND( '', #191, .T. );
#122 = CONICAL_SURFACE( '', #192, 4.81140461010000, 0.261799387800000 );
#123 = SURFACE_STYLE_USAGE( .BOTH., #193 );
#124 = FACE_OUTER_BOUND( '', #194, .T. );
#125 = FACE_OUTER_BOUND( '', #195, .T. );
#126 = TOROIDAL_SURFACE( '', #196, 6.10000000000000, 0.300000000000000 );
#127 = SURFACE_STYLE_USAGE( .BOTH., #197 );
#128 = FACE_OUTER_BOUND( '', #198, .T. );
#129 = FACE_BOUND( '', #199, .T. );
#130 = CONICAL_SURFACE( '', #200, 857.167300702100, 1.02974425870000 );
#131 = SURFACE_STYLE_USAGE( .BOTH., #201 );
#132 = FACE_OUTER_BOUND( '', #202, .T. );
#133 = FACE_OUTER_BOUND( '', #203, .T. );
#134 = CYLINDRICAL_SURFACE( '', #204, 8.00000000000000 );
#135 = SURFACE_STYLE_USAGE( .BOTH., #205 );
#136 = FACE_OUTER_BOUND( '', #206, .T. );
#137 = FACE_OUTER_BOUND( '', #207, .T. );
#138 = SPHERICAL_SURFACE( '', #208, 5.00000000000000 );
#139 = SURFACE_STYLE_USAGE( .BOTH., #209 );
#140 = FACE_OUTER_BOUND( '', #210, .T. );
#141 = FACE_OUTER_BOUND( '', #211, .T. );
#142 = CYLINDRICAL_SURFACE( '', #212, 5.80000000000000 );
#143 = SURFACE_STYLE_USAGE( .BOTH., #213 );
#144 = FACE_BOUND( '', #214, .T. );
#145 = FACE_OUTER_BOUND( '', #215, .T. );
#146 = PLANE( '', #216 );
#147 = SURFACE_STYLE_USAGE( .BOTH., #217 );
#148 = FACE_OUTER_BOUND( '', #218, .T. );
#149 = FACE_OUTER_BOUND( '', #219, .T. );
#150 = CYLINDRICAL_SURFACE( '', #220, 6.00000000000000 );
#151 = PRODUCT_CONTEXT( '', #26, 'mechanical' );
#152 = PRODUCT_DEFINITION_FORMATION_WITH_SPECIFIED_SOURCE( ' ', 'NONE', #71, .NOT_KNOWN. );
#153 = CLOSED_SHELL( '', ( #60, #46, #48, #44, #64, #56, #62, #42, #50, #68, #58, #66, #40, #70, #52, #54 ) );
#154 = CARTESIAN_POINT( '', ( 0.000000000000000, 0.000000000000000, 0.000000000000000 ) );
#155 = DIRECTION( '', ( 0.000000000000000, 0.000000000000000, 1.00000000000000 ) );
#156 = DIRECTION( '', ( 1.00000000000000, 0.000000000000000, 0.000000000000000 ) );
#157 =  ( LENGTH_UNIT(  )NAMED_UNIT( #80 )SI_UNIT( .MILLI., .METRE. ) );
#158 = SURFACE_SIDE_STYLE( '', ( #222 ) );
#159 = EDGE_LOOP( '', ( #223 ) );
#160 = EDGE_LOOP( '', ( #224 ) );
#161 = AXIS2_PLACEMENT_3D( '', #225, #226, #227 );
#162 = SURFACE_SIDE_STYLE( '', ( #228 ) );
#163 = EDGE_LOOP( '', ( #229 ) );
#164 = EDGE_LOOP( '', ( #230 ) );
#165 = AXIS2_PLACEMENT_3D( '', #231, #232, #233 );
#166 = SURFACE_SIDE_STYLE( '', ( #234 ) );
#167 = EDGE_LOOP( '', ( #235 ) );
#168 = EDGE_LOOP( '', ( #236 ) );
#169 = AXIS2_PLACEMENT_3D( '', #237, #238, #239 );
#170 = SURFACE_SIDE_STYLE( '', ( #240 ) );
#171 = EDGE_LOOP( '', ( #241 ) );
#172 = EDGE_LOOP( '', ( #242 ) );
#173 = AXIS2_PLACEMENT_3D( '', #243, #244, #245 );
#174 = SURFACE_SIDE_STYLE( '', ( #246 ) );
#175 = EDGE_LOOP( '', ( #247 ) );
#176 = EDGE_LOOP( '', ( #248 ) );
#177 = AXIS2_PLACEMENT_3D( '', #249, #250, #251 );
#178 = SURFACE_SIDE_STYLE( '', ( #252 ) );
#179 = EDGE_LOOP( '', ( #253 ) );
#180 = EDGE_LOOP( '', ( #254 ) );
#181 = AXIS2_PLACEMENT_3D( '', #255, #256, #257 );
#182 = SURFACE_SIDE_STYLE( '', ( #258 ) );
#183 = EDGE_LOOP( '', ( #259 ) );
#184 = EDGE_LOOP( '', ( #260 ) );
#185 = AXIS2_PLACEMENT_3D( '', #261, #262, #263 );
#186 = SURFACE_SIDE_STYLE( '', ( #264 ) );
#187 = EDGE_LOOP( '', ( #265 ) );
#188 = AXIS2_PLACEMENT_3D( '', #266, #267, #268 );
#189 = SURFACE_SIDE_STYLE( '', ( #269 ) );
#190 = EDGE_LOOP( '', ( #270 ) );
#191 = EDGE_LOOP( '', ( #271 ) );
#192 = AXIS2_PLACEMENT_3D( '', #272, #273, #274 );
#193 = SURFACE_SIDE_STYLE( '', ( #275 ) );
#194 = EDGE_LOOP( '', ( #276 ) );
#195 = EDGE_LOOP( '', ( #277 ) );
#196 = AXIS2_PLACEMENT_3D( '', #278, #279, #280 );
#197 = SURFACE_SIDE_STYLE( '', ( #281 ) );
#198 = EDGE_LOOP( '', ( #282 ) );
#199 = VERTEX_LOOP( '', #283 );
#200 = AXIS2_PLACEMENT_3D( '', #284, #285, #286 );
#201 = SURFACE_SIDE_STYLE( '', ( #287 ) );
#202 = EDGE_LOOP( '', ( #288 ) );
#203 = EDGE_LOOP( '', ( #289 ) );
#204 = AXIS2_PLACEMENT_3D( '', #290, #291, #292 );
#205 = SURFACE_SIDE_STYLE( '', ( #293 ) );
#206 = EDGE_LOOP( '', ( #294 ) );
#207 = EDGE_LOOP( '', ( #295 ) );
#208 = AXIS2_PLACEMENT_3D( '', #296, #297, #298 );
#209 = SURFACE_SIDE_STYLE( '', ( #299 ) );
#210 = EDGE_LOOP( '', ( #300 ) );
#211 = EDGE_LOOP( '', ( #301 ) );
#212 = AXIS2_PLACEMENT_3D( '', #302, #303, #304 );
#213 = SURFACE_SIDE_STYLE( '', ( #305 ) );
#214 = EDGE_LOOP( '', ( #306 ) );
#215 = EDGE_LOOP( '', ( #307 ) );
#216 = AXIS2_PLACEMENT_3D( '', #308, #309, #310 );
#217 = SURFACE_SIDE_STYLE( '', ( #311 ) );
#218 = EDGE_LOOP( '', ( #312 ) );
#219 = EDGE_LOOP( '', ( #313 ) );
#220 = AXIS2_PLACEMENT_3D( '', #314, #315, #316 );
#222 = SURFACE_STYLE_FILL_AREA( #317 );
#223 = ORIENTED_EDGE( '', *, *, #318, .F. );
#224 = ORIENTED_EDGE( '', *, *, #319, .T. );
#225 = CARTESIAN_POINT( '', ( 2.85427061710032E-15, -0.300000000000003, 0.000000000000000 ) );
#226 = DIRECTION( '', ( -2.43954753598318E-16, -1.00000000000000, -0.000000000000000 ) );
#227 = DIRECTION( '', ( 1.00000000000000, -2.43954753598318E-16, 0.000000000000000 ) );
#228 = SURFACE_STYLE_FILL_AREA( #320 );
#229 = ORIENTED_EDGE( '', *, *, #321, .F. );
#230 = ORIENTED_EDGE( '', *, *, #322, .T. );
#231 = CARTESIAN_POINT( '', ( 8.00000000000000, -1.21977376799159E-16, 0.000000000000000 ) );
#232 = DIRECTION( '', ( 2.43954753598318E-16, 1.00000000000000, 0.000000000000000 ) );
#233 = DIRECTION( '', ( -1.00000000000000, 2.43954753598318E-16, 0.000000000000000 ) );
#234 = SURFACE_STYLE_FILL_AREA( #323 );
#235 = ORIENTED_EDGE( '', *, *, #324, .F. );
#236 = ORIENTED_EDGE( '', *, *, #325, .T. );
#237 = CARTESIAN_POINT( '', ( 2.00000000000000, 29.0000000000000, 0.000000000000000 ) );
#238 = DIRECTION( '', ( -2.43954753598318E-16, -1.00000000000000, 0.000000000000000 ) );
#239 = DIRECTION( '', ( 1.00000000000000, -2.43954753598318E-16, 0.000000000000000 ) );
#240 = SURFACE_STYLE_FILL_AREA( #326 );
#241 = ORIENTED_EDGE( '', *, *, #327, .F. );
#242 = ORIENTED_EDGE( '', *, *, #328, .T. );
#243 = CARTESIAN_POINT( '', ( 0.000000000000000, -12.0000000000000, 0.000000000000000 ) );
#244 = DIRECTION( '', ( 2.43954753598318E-16, 1.00000000000000, -0.000000000000000 ) );
#245 = DIRECTION( '', ( 1.00000000000000, -2.43954753598318E-16, 0.000000000000000 ) );
#246 = SURFACE_STYLE_FILL_AREA( #329 );
#247 = ORIENTED_EDGE( '', *, *, #325, .F. );
#248 = ORIENTED_EDGE( '', *, *, #327, .T. );
#249 = CARTESIAN_POINT( '', ( 9.90968604591729E-15, 28.6210000000000, 0.000000000000000 ) );
#250 = DIRECTION( '', ( 2.43954753598318E-16, 1.00000000000000, -0.000000000000000 ) );
#251 = DIRECTION( '', ( -1.00000000000000, 2.43954753598318E-16, 0.000000000000000 ) );
#252 = SURFACE_STYLE_FILL_AREA( #330 );
#253 = ORIENTED_EDGE( '', *, *, #331, .F. );
#254 = ORIENTED_EDGE( '', *, *, #321, .T. );
#255 = CARTESIAN_POINT( '', ( 2.92745704317982E-15, 1.73472347597681E-15, 0.000000000000000 ) );
#256 = DIRECTION( '', ( -2.43954753598318E-16, -1.00000000000000, -0.000000000000000 ) );
#257 = DIRECTION( '', ( 1.00000000000000, -2.43954753598318E-16, 0.000000000000000 ) );
#258 = SURFACE_STYLE_FILL_AREA( #332 );
#259 = ORIENTED_EDGE( '', *, *, #333, .F. );
#260 = ORIENTED_EDGE( '', *, *, #334, .T. );
#261 = CARTESIAN_POINT( '', ( 2.43954753598319E-16, -11.0000000000000, 0.000000000000000 ) );
#262 = DIRECTION( '', ( 2.43954753598318E-16, 1.00000000000000, -0.000000000000000 ) );
#263 = DIRECTION( '', ( -1.00000000000000, 2.43954753598318E-16, 0.000000000000000 ) );
#264 = SURFACE_STYLE_FILL_AREA( #335 );
#265 = ORIENTED_EDGE( '', *, *, #333, .T. );
#266 = CARTESIAN_POINT( '', ( 5.42264973081037, -12.0000000000000, 0.000000000000000 ) );
#267 = DIRECTION( '', ( 2.43954753598318E-16, 1.00000000000000, 0.000000000000000 ) );
#268 = DIRECTION( '', ( -1.00000000000000, 2.43954753598318E-16, 0.000000000000000 ) );
#269 = SURFACE_STYLE_FILL_AREA( #336 );
#270 = ORIENTED_EDGE( '', *, *, #337, .F. );
#271 = ORIENTED_EDGE( '', *, *, #338, .T. );
#272 = CARTESIAN_POINT( '', ( 9.24588516137629E-15, 25.9000000000001, 0.000000000000000 ) );
#273 = DIRECTION( '', ( -2.43954753598318E-16, -1.00000000000000, -0.000000000000000 ) );
#274 = DIRECTION( '', ( 1.00000000000000, -2.43954753598318E-16, 0.000000000000000 ) );
#275 = SURFACE_STYLE_FILL_AREA( #339 );
#276 = ORIENTED_EDGE( '', *, *, #340, .F. );
#277 = ORIENTED_EDGE( '', *, *, #341, .T. );
#278 = CARTESIAN_POINT( '', ( 2.60208521396521E-15, -0.0999999999999985, 0.000000000000000 ) );
#279 = DIRECTION( '', ( -2.43954753598318E-16, -1.00000000000000, 0.000000000000000 ) );
#280 = DIRECTION( '', ( 1.00000000000000, -2.43954753598318E-16, 0.000000000000000 ) );
#281 = SURFACE_STYLE_FILL_AREA( #342 );
#282 = ORIENTED_EDGE( '', *, *, #328, .F. );
#283 = VERTEX_POINT( '', #343 );
#284 = CARTESIAN_POINT( '', ( 1.32751414016036E-13, 532.164079846611, 0.000000000000000 ) );
#285 = DIRECTION( '', ( 2.43954753598318E-16, 1.00000000000000, -0.000000000000000 ) );
#286 = DIRECTION( '', ( -1.00000000000000, 2.43954753598318E-16, 0.000000000000000 ) );
#287 = SURFACE_STYLE_FILL_AREA( #344 );
#288 = ORIENTED_EDGE( '', *, *, #322, .F. );
#289 = ORIENTED_EDGE( '', *, *, #337, .T. );
#290 = CARTESIAN_POINT( '', ( 0.000000000000000, -12.0000000000000, 0.000000000000000 ) );
#291 = DIRECTION( '', ( 2.43954753598318E-16, 1.00000000000000, -0.000000000000000 ) );
#292 = DIRECTION( '', ( 1.00000000000000, -2.43954753598318E-16, 0.000000000000000 ) );
#293 = SURFACE_STYLE_FILL_AREA( #345 );
#294 = ORIENTED_EDGE( '', *, *, #324, .T. );
#295 = ORIENTED_EDGE( '', *, *, #338, .F. );
#296 = CARTESIAN_POINT( '', ( -9.97465998686664E-15, 24.5397111783887, 0.000000000000000 ) );
#297 = DIRECTION( '', ( 0.000000000000000, -1.00000000000000, 0.000000000000000 ) );
#298 = DIRECTION( '', ( 1.00000000000000, 0.000000000000000, 0.000000000000000 ) );
#299 = SURFACE_STYLE_FILL_AREA( #346 );
#300 = ORIENTED_EDGE( '', *, *, #319, .F. );
#301 = ORIENTED_EDGE( '', *, *, #340, .T. );
#302 = CARTESIAN_POINT( '', ( 0.000000000000000, -12.0000000000000, 0.000000000000000 ) );
#303 = DIRECTION( '', ( 2.43954753598318E-16, 1.00000000000000, -0.000000000000000 ) );
#304 = DIRECTION( '', ( 1.00000000000000, -2.43954753598318E-16, 0.000000000000000 ) );
#305 = SURFACE_STYLE_FILL_AREA( #347 );
#306 = ORIENTED_EDGE( '', *, *, #341, .F. );
#307 = ORIENTED_EDGE( '', *, *, #331, .T. );
#308 = CARTESIAN_POINT( '', ( 6.80000000000000, 0.200000000000000, 0.000000000000000 ) );
#309 = DIRECTION( '', ( 2.43954753598318E-16, 1.00000000000000, 0.000000000000000 ) );
#310 = DIRECTION( '', ( -1.00000000000000, 2.43954753598318E-16, 0.000000000000000 ) );
#311 = SURFACE_STYLE_FILL_AREA( #348 );
#312 = ORIENTED_EDGE( '', *, *, #334, .F. );
#313 = ORIENTED_EDGE( '', *, *, #318, .T. );
#314 = CARTESIAN_POINT( '', ( 0.000000000000000, -12.0000000000000, 0.000000000000000 ) );
#315 = DIRECTION( '', ( 2.43954753598318E-16, 1.00000000000000, -0.000000000000000 ) );
#316 = DIRECTION( '', ( 1.00000000000000, -2.43954753598318E-16, 0.000000000000000 ) );
#317 = FILL_AREA_STYLE( '', ( #349 ) );
#318 = EDGE_CURVE( '', #350, #350, #351, .T. );
#319 = EDGE_CURVE( '', #352, #352, #353, .T. );
#320 = FILL_AREA_STYLE( '', ( #354 ) );
#321 = EDGE_CURVE( '', #355, #355, #356, .T. );
#322 = EDGE_CURVE( '', #357, #357, #358, .T. );
#323 = FILL_AREA_STYLE( '', ( #359 ) );
#324 = EDGE_CURVE( '', #360, #360, #361, .T. );
#325 = EDGE_CURVE( '', #362, #362, #363, .T. );
#326 = FILL_AREA_STYLE( '', ( #364 ) );
#327 = EDGE_CURVE( '', #365, #365, #366, .T. );
#328 = EDGE_CURVE( '', #367, #367, #368, .T. );
#329 = FILL_AREA_STYLE( '', ( #369 ) );
#330 = FILL_AREA_STYLE( '', ( #370 ) );
#331 = EDGE_CURVE( '', #371, #371, #372, .T. );
#332 = FILL_AREA_STYLE( '', ( #373 ) );
#333 = EDGE_CURVE( '', #374, #374, #375, .T. );
#334 = EDGE_CURVE( '', #376, #376, #377, .T. );
#335 = FILL_AREA_STYLE( '', ( #378 ) );
#336 = FILL_AREA_STYLE( '', ( #379 ) );
#337 = EDGE_CURVE( '', #380, #380, #381, .T. );
#338 = EDGE_CURVE( '', #382, #382, #383, .T. );
#339 = FILL_AREA_STYLE( '', ( #384 ) );
#340 = EDGE_CURVE( '', #385, #385, #386, .T. );
#341 = EDGE_CURVE( '', #387, #387, #388, .T. );
#342 = FILL_AREA_STYLE( '', ( #389 ) );
#343 = CARTESIAN_POINT( '', ( 7.10542735760100E-15, 17.1260049365563, 0.000000000000000 ) );
#344 = FILL_AREA_STYLE( '', ( #390 ) );
#345 = FILL_AREA_STYLE( '', ( #391 ) );
#346 = FILL_AREA_STYLE( '', ( #392 ) );
#347 = FILL_AREA_STYLE( '', ( #393 ) );
#348 = FILL_AREA_STYLE( '', ( #394 ) );
#349 = FILL_AREA_STYLE_COLOUR( '', #395 );
#350 = VERTEX_POINT( '', #396 );
#351 = CIRCLE( '', #397, 6.00000000000000 );
#352 = VERTEX_POINT( '', #398 );
#353 = CIRCLE( '', #399, 5.80000000000000 );
#354 = FILL_AREA_STYLE_COLOUR( '', #400 );
#355 = VERTEX_POINT( '', #401 );
#356 = CIRCLE( '', #402, 7.00000000000000 );
#357 = VERTEX_POINT( '', #403 );
#358 = CIRCLE( '', #404, 8.00000000000000 );
#359 = FILL_AREA_STYLE_COLOUR( '', #405 );
#360 = VERTEX_POINT( '', #406 );
#361 = CIRCLE( '', #407, 2.25960696310000 );
#362 = VERTEX_POINT( '', #408 );
#363 = CIRCLE( '', #409, 2.00000000000000 );
#364 = FILL_AREA_STYLE_COLOUR( '', #410 );
#365 = VERTEX_POINT( '', #411 );
#366 = CIRCLE( '', #412, 1.62100000000000 );
#367 = VERTEX_POINT( '', #413 );
#368 = CIRCLE( '', #414, 1.62100000000000 );
#369 = FILL_AREA_STYLE_COLOUR( '', #415 );
#370 = FILL_AREA_STYLE_COLOUR( '', #416 );
#371 = VERTEX_POINT( '', #417 );
#372 = CIRCLE( '', #418, 6.80000000000000 );
#373 = FILL_AREA_STYLE_COLOUR( '', #419 );
#374 = VERTEX_POINT( '', #420 );
#375 = CIRCLE( '', #421, 5.42264973080000 );
#376 = VERTEX_POINT( '', #422 );
#377 = CIRCLE( '', #423, 6.00000000000000 );
#378 = FILL_AREA_STYLE_COLOUR( '', #424 );
#379 = FILL_AREA_STYLE_COLOUR( '', #425 );
#380 = VERTEX_POINT( '', #426 );
#381 = CIRCLE( '', #427, 8.00000000000000 );
#382 = VERTEX_POINT( '', #428 );
#383 = CIRCLE( '', #429, 4.81140461010000 );
#384 = FILL_AREA_STYLE_COLOUR( '', #430 );
#385 = VERTEX_POINT( '', #431 );
#386 = CIRCLE( '', #432, 5.80000000000000 );
#387 = VERTEX_POINT( '', #433 );
#388 = CIRCLE( '', #434, 6.10000000000000 );
#389 = FILL_AREA_STYLE_COLOUR( '', #435 );
#390 = FILL_AREA_STYLE_COLOUR( '', #436 );
#391 = FILL_AREA_STYLE_COLOUR( '', #437 );
#392 = FILL_AREA_STYLE_COLOUR( '', #438 );
#393 = FILL_AREA_STYLE_COLOUR( '', #439 );
#394 = FILL_AREA_STYLE_COLOUR( '', #440 );
#395 = COLOUR_RGB( '', 0.689999997600000, 0.689999997600000, 0.689999997600000 );
#396 = CARTESIAN_POINT( '', ( 6.00000000000000, -0.500000000000007, 0.000000000000000 ) );
#397 = AXIS2_PLACEMENT_3D( '', #441, #442, #443 );
#398 = CARTESIAN_POINT( '', ( 5.80000000000000, -0.300000000000005, 0.000000000000000 ) );
#399 = AXIS2_PLACEMENT_3D( '', #444, #445, #446 );
#400 = COLOUR_RGB( '', 0.689999997600000, 0.689999997600000, 0.689999997600000 );
#401 = CARTESIAN_POINT( '', ( 7.00000000000000, 2.70402007885796E-17, 0.000000000000000 ) );
#402 = AXIS2_PLACEMENT_3D( '', #447, #448, #449 );
#403 = CARTESIAN_POINT( '', ( 8.00000000000000, -2.16914552809738E-16, 0.000000000000000 ) );
#404 = AXIS2_PLACEMENT_3D( '', #450, #451, #452 );
#405 = COLOUR_RGB( '', 0.689999997600000, 0.689999997600000, 0.689999997600000 );
#406 = CARTESIAN_POINT( '', ( 2.25960696312644, 29.0000000000000, 0.000000000000000 ) );
#407 = AXIS2_PLACEMENT_3D( '', #453, #454, #455 );
#408 = CARTESIAN_POINT( '', ( 2.00000000000000, 29.0000000000000, 0.000000000000000 ) );
#409 = AXIS2_PLACEMENT_3D( '', #456, #457, #458 );
#410 = COLOUR_RGB( '', 0.689999997600000, 0.689999997600000, 0.689999997600000 );
#411 = CARTESIAN_POINT( '', ( 1.62100000000000, 28.6210000000000, 0.000000000000000 ) );
#412 = AXIS2_PLACEMENT_3D( '', #459, #460, #461 );
#413 = CARTESIAN_POINT( '', ( 1.62100000000000, 18.1000000000000, 0.000000000000000 ) );
#414 = AXIS2_PLACEMENT_3D( '', #462, #463, #464 );
#415 = COLOUR_RGB( '', 0.689999997600000, 0.689999997600000, 0.689999997600000 );
#416 = COLOUR_RGB( '', 0.689999997600000, 0.689999997600000, 0.689999997600000 );
#417 = CARTESIAN_POINT( '', ( 6.80000000000000, 0.200000000000001, 0.000000000000000 ) );
#418 = AXIS2_PLACEMENT_3D( '', #465, #466, #467 );
#419 = COLOUR_RGB( '', 0.689999997600000, 0.689999997600000, 0.689999997600000 );
#420 = CARTESIAN_POINT( '', ( 5.42264973081037, -12.0000000000000, 0.000000000000000 ) );
#421 = AXIS2_PLACEMENT_3D( '', #468, #469, #470 );
#422 = CARTESIAN_POINT( '', ( 6.00000000000000, -11.0000000000000, 0.000000000000000 ) );
#423 = AXIS2_PLACEMENT_3D( '', #471, #472, #473 );
#424 = COLOUR_RGB( '', 0.689999997600000, 0.689999997600000, 0.689999997600000 );
#425 = COLOUR_RGB( '', 0.689999997600000, 0.689999997600000, 0.689999997600000 );
#426 = CARTESIAN_POINT( '', ( 8.00000000000000, 14.0000000000000, 0.000000000000000 ) );
#427 = AXIS2_PLACEMENT_3D( '', #474, #475, #476 );
#428 = CARTESIAN_POINT( '', ( 4.81140461006961, 25.9000000000001, 0.000000000000000 ) );
#429 = AXIS2_PLACEMENT_3D( '', #477, #478, #479 );
#430 = COLOUR_RGB( '', 0.689999997600000, 0.689999997600000, 0.689999997600000 );
#431 = CARTESIAN_POINT( '', ( 5.80000000000000, -0.0999999999999991, 0.000000000000000 ) );
#432 = AXIS2_PLACEMENT_3D( '', #480, #481, #482 );
#433 = CARTESIAN_POINT( '', ( 6.10000000000000, 0.200000000000001, 0.000000000000000 ) );
#434 = AXIS2_PLACEMENT_3D( '', #483, #484, #485 );
#435 = COLOUR_RGB( '', 0.689999997600000, 0.689999997600000, 0.689999997600000 );
#436 = COLOUR_RGB( '', 0.689999997600000, 0.689999997600000, 0.689999997600000 );
#437 = COLOUR_RGB( '', 0.689999997600000, 0.689999997600000, 0.689999997600000 );
#438 = COLOUR_RGB( '', 0.689999997600000, 0.689999997600000, 0.689999997600000 );
#439 = COLOUR_RGB( '', 0.689999997600000, 0.689999997600000, 0.689999997600000 );
#440 = COLOUR_RGB( '', 0.689999997600000, 0.689999997600000, 0.689999997600000 );
#441 = CARTESIAN_POINT( '', ( 2.80547966638066E-15, -0.500000000000006, 0.000000000000000 ) );
#442 = DIRECTION( '', ( -2.43954753598318E-16, -1.00000000000000, 0.000000000000000 ) );
#443 = DIRECTION( '', ( 1.00000000000000, -2.43954753598318E-16, 0.000000000000000 ) );
#444 = CARTESIAN_POINT( '', ( 2.85427061710032E-15, -0.300000000000003, 0.000000000000000 ) );
#445 = DIRECTION( '', ( -2.43954753598318E-16, -1.00000000000000, 0.000000000000000 ) );
#446 = DIRECTION( '', ( 1.00000000000000, -2.43954753598318E-16, 0.000000000000000 ) );
#447 = CARTESIAN_POINT( '', ( 2.92745704317982E-15, 1.73472347597681E-15, 0.000000000000000 ) );
#448 = DIRECTION( '', ( -2.43954753598318E-16, -1.00000000000000, 0.000000000000000 ) );
#449 = DIRECTION( '', ( 1.00000000000000, -2.43954753598318E-16, 0.000000000000000 ) );
#450 = CARTESIAN_POINT( '', ( 2.92745704317982E-15, 1.73472347597681E-15, 0.000000000000000 ) );
#451 = DIRECTION( '', ( -2.43954753598318E-16, -1.00000000000000, 0.000000000000000 ) );
#452 = DIRECTION( '', ( 1.00000000000000, -2.43954753598318E-16, 0.000000000000000 ) );
#453 = CARTESIAN_POINT( '', ( 1.00021448975311E-14, 29.0000000000000, 0.000000000000000 ) );
#454 = DIRECTION( '', ( -2.43954753598318E-16, -1.00000000000000, 0.000000000000000 ) );
#455 = DIRECTION( '', ( 1.00000000000000, -2.43954753598318E-16, 0.000000000000000 ) );
#456 = CARTESIAN_POINT( '', ( 1.00021448975311E-14, 29.0000000000000, 0.000000000000000 ) );
#457 = DIRECTION( '', ( -2.43954753598318E-16, -1.00000000000000, 0.000000000000000 ) );
#458 = DIRECTION( '', ( 1.00000000000000, -2.43954753598318E-16, 0.000000000000000 ) );
#459 = CARTESIAN_POINT( '', ( 9.90968604591729E-15, 28.6210000000000, 0.000000000000000 ) );
#460 = DIRECTION( '', ( -2.43954753598318E-16, -1.00000000000000, 0.000000000000000 ) );
#461 = DIRECTION( '', ( 1.00000000000000, -2.43954753598318E-16, 0.000000000000000 ) );
#462 = CARTESIAN_POINT( '', ( 7.34303808330938E-15, 18.1000000000000, 0.000000000000000 ) );
#463 = DIRECTION( '', ( -2.43954753598318E-16, -1.00000000000000, 0.000000000000000 ) );
#464 = DIRECTION( '', ( 1.00000000000000, -2.43954753598318E-16, 0.000000000000000 ) );
#465 = CARTESIAN_POINT( '', ( 2.97624799389948E-15, 0.200000000000002, 0.000000000000000 ) );
#466 = DIRECTION( '', ( -2.43954753598318E-16, -1.00000000000000, 0.000000000000000 ) );
#467 = DIRECTION( '', ( 1.00000000000000, -2.43954753598318E-16, 0.000000000000000 ) );
#468 = CARTESIAN_POINT( '', ( 3.22723152045680E-31, -12.0000000000000, 0.000000000000000 ) );
#469 = DIRECTION( '', ( -2.43954753598318E-16, -1.00000000000000, 0.000000000000000 ) );
#470 = DIRECTION( '', ( 1.00000000000000, -2.43954753598318E-16, 0.000000000000000 ) );
#471 = CARTESIAN_POINT( '', ( 2.43954753598319E-16, -11.0000000000000, 0.000000000000000 ) );
#472 = DIRECTION( '', ( -2.43954753598318E-16, -1.00000000000000, 0.000000000000000 ) );
#473 = DIRECTION( '', ( 1.00000000000000, -2.43954753598318E-16, 0.000000000000000 ) );
#474 = CARTESIAN_POINT( '', ( 6.34282359355628E-15, 14.0000000000000, 0.000000000000000 ) );
#475 = DIRECTION( '', ( -2.43954753598318E-16, -1.00000000000000, 0.000000000000000 ) );
#476 = DIRECTION( '', ( 1.00000000000000, -2.43954753598318E-16, 0.000000000000000 ) );
#477 = CARTESIAN_POINT( '', ( 9.24588516137629E-15, 25.9000000000001, 0.000000000000000 ) );
#478 = DIRECTION( '', ( -2.43954753598318E-16, -1.00000000000000, 0.000000000000000 ) );
#479 = DIRECTION( '', ( 1.00000000000000, -2.43954753598318E-16, 0.000000000000000 ) );
#480 = CARTESIAN_POINT( '', ( 2.90306156781999E-15, -0.0999999999999977, 0.000000000000000 ) );
#481 = DIRECTION( '', ( -2.43954753598318E-16, -1.00000000000000, 0.000000000000000 ) );
#482 = DIRECTION( '', ( 1.00000000000000, -2.43954753598318E-16, 0.000000000000000 ) );
#483 = CARTESIAN_POINT( '', ( 2.97624799389948E-15, 0.200000000000002, 0.000000000000000 ) );
#484 = DIRECTION( '', ( -2.43954753598318E-16, -1.00000000000000, 0.000000000000000 ) );
#485 = DIRECTION( '', ( 1.00000000000000, -2.43954753598318E-16, 0.000000000000000 ) );
ENDSEC;
END-ISO-10303-21;
